ISO-10303-21;
HEADER;
/* Generated by software containing ST-Developer
 * from STEP Tools, Inc. (www.steptools.com) 
 */
/* OPTION: using custom schema-name function */

FILE_DESCRIPTION(
/* description */ (''),
/* implementation_level */ '2;1');

FILE_NAME(
/* name */ 'model1.stp',
/* time_stamp */ '2023-11-02T17:24:36+03:00',
/* author */ (''),
/* organization */ (''),
/* preprocessor_version */ 'ST-DEVELOPER v19.4',
/* originating_system */ 'SIEMENS PLM Software NX2306.3001',
/* authorisation */ '');

FILE_SCHEMA (('AUTOMOTIVE_DESIGN { 1 0 10303 214 3 1 1 1 }'));
ENDSEC;

DATA;
#10=PROPERTY_DEFINITION_REPRESENTATION(#14,#12);
#11=PROPERTY_DEFINITION_REPRESENTATION(#15,#13);
#12=REPRESENTATION('',(#16),#492);
#13=REPRESENTATION('',(#17),#492);
#14=PROPERTY_DEFINITION('pmi validation property','',#21);
#15=PROPERTY_DEFINITION('pmi validation property','',#21);
#16=VALUE_REPRESENTATION_ITEM('number of annotations',COUNT_MEASURE(0.));
#17=VALUE_REPRESENTATION_ITEM('number of views',COUNT_MEASURE(0.));
#18=SHAPE_REPRESENTATION_RELATIONSHIP('None',
'relationship between model1_objects-None and model1_objects-None',#30,
#19);
#19=ADVANCED_BREP_SHAPE_REPRESENTATION('model1_objects-None',(#133,#134),
#492);
#20=SHAPE_DEFINITION_REPRESENTATION(#21,#30);
#21=PRODUCT_DEFINITION_SHAPE('','',#22);
#22=PRODUCT_DEFINITION(' ','',#24,#23);
#23=PRODUCT_DEFINITION_CONTEXT('part definition',#29,'design');
#24=PRODUCT_DEFINITION_FORMATION_WITH_SPECIFIED_SOURCE(' ',' ',#26,
 .NOT_KNOWN.);
#25=PRODUCT_RELATED_PRODUCT_CATEGORY('part','',(#26));
#26=PRODUCT('model1_objects','model1_objects',' ',(#27));
#27=PRODUCT_CONTEXT(' ',#29,'mechanical');
#28=APPLICATION_PROTOCOL_DEFINITION('international standard',
'automotive_design',2010,#29);
#29=APPLICATION_CONTEXT(
'core data for automotive mechanical design processes');
#30=SHAPE_REPRESENTATION('model1_objects-None',(#251),#492);
#31=OVER_RIDING_STYLED_ITEM('',(#62),#139,#59);
#32=OVER_RIDING_STYLED_ITEM('',(#63),#140,#59);
#33=OVER_RIDING_STYLED_ITEM('',(#64),#141,#59);
#34=OVER_RIDING_STYLED_ITEM('',(#65),#142,#59);
#35=OVER_RIDING_STYLED_ITEM('',(#66),#143,#59);
#36=OVER_RIDING_STYLED_ITEM('',(#67),#144,#59);
#37=OVER_RIDING_STYLED_ITEM('',(#68),#145,#59);
#38=OVER_RIDING_STYLED_ITEM('',(#69),#146,#59);
#39=OVER_RIDING_STYLED_ITEM('',(#70),#147,#59);
#40=OVER_RIDING_STYLED_ITEM('',(#71),#148,#59);
#41=COLOUR_RGB('Medium Steel',0.611764705882353,0.658823529411765,0.670588235294118);
#42=COLOUR_RGB('silver gray',0.6,0.6,0.6);
#43=VERTEX_LOOP('',#228);
#44=SURFACE_OF_REVOLUTION('',#46,#45);
#45=AXIS1_PLACEMENT('',#489,#312);
#46=B_SPLINE_CURVE_WITH_KNOTS('',3,(#423,#424,#425,#426,#427,#428,#429,
#430,#431,#432,#433,#434,#435,#436,#437,#438,#439,#440,#441,#442,#443,#444,
#445,#446,#447,#448,#449,#450,#451,#452,#453,#454,#455,#456,#457,#458,#459,
#460,#461,#462,#463,#464,#465,#466,#467,#468,#469,#470,#471,#472,#473,#474,
#475,#476,#477,#478,#479,#480,#481,#482,#483,#484,#485,#486,#487,#488),
 .UNSPECIFIED.,.T.,.F.,(2,2,2,2,2,2,2,2,2,2,2,2,2,2,2,2,2,2,2,2,2,2,2,2,
2,2,2,2,2,2,2,2,2,2,2),(-0.03125,0.,0.03125,0.0625,0.09375,0.125,0.15625,
0.1875,0.21875,0.25,0.28125,0.3125,0.34375,0.375,0.40625,0.4375,0.46875,
0.5,0.53125,0.5625,0.59375,0.625,0.65625,0.6875,0.71875,0.75,0.78125,0.8125,
0.84375,0.875,0.90625,0.9375,0.96875,1.,1.03125),.UNSPECIFIED.);
#47=CONICAL_SURFACE('',#261,24.,29.9999999999995);
#48=CONICAL_SURFACE('',#271,22.6725679168828,80.0000000000002);
#49=CYLINDRICAL_SURFACE('',#259,24.);
#50=CYLINDRICAL_SURFACE('',#263,23.8);
#51=CYLINDRICAL_SURFACE('',#269,29.);
#52=TOROIDAL_SURFACE('',#257,22.5,1.5);
#53=TOROIDAL_SURFACE('',#265,53.8,30.);
#54=TOROIDAL_SURFACE('',#267,24.,5.);
#55=PLANE('',#255);
#56=FACE_OUTER_BOUND('',#177,.T.);
#57=PRESENTATION_LAYER_ASSIGNMENT('1','Layer 1',(#133,#134));
#58=STYLED_ITEM('',(#60),#133);
#59=STYLED_ITEM('',(#61),#134);
#60=PRESENTATION_STYLE_ASSIGNMENT((#72));
#61=PRESENTATION_STYLE_ASSIGNMENT((#73));
#62=PRESENTATION_STYLE_ASSIGNMENT((#74));
#63=PRESENTATION_STYLE_ASSIGNMENT((#75));
#64=PRESENTATION_STYLE_ASSIGNMENT((#76));
#65=PRESENTATION_STYLE_ASSIGNMENT((#77));
#66=PRESENTATION_STYLE_ASSIGNMENT((#78));
#67=PRESENTATION_STYLE_ASSIGNMENT((#79));
#68=PRESENTATION_STYLE_ASSIGNMENT((#80));
#69=PRESENTATION_STYLE_ASSIGNMENT((#81));
#70=PRESENTATION_STYLE_ASSIGNMENT((#82));
#71=PRESENTATION_STYLE_ASSIGNMENT((#83));
#72=SURFACE_STYLE_USAGE(.BOTH.,#84);
#73=SURFACE_STYLE_USAGE(.BOTH.,#85);
#74=SURFACE_STYLE_USAGE(.BOTH.,#86);
#75=SURFACE_STYLE_USAGE(.BOTH.,#87);
#76=SURFACE_STYLE_USAGE(.BOTH.,#88);
#77=SURFACE_STYLE_USAGE(.BOTH.,#89);
#78=SURFACE_STYLE_USAGE(.BOTH.,#90);
#79=SURFACE_STYLE_USAGE(.BOTH.,#91);
#80=SURFACE_STYLE_USAGE(.BOTH.,#92);
#81=SURFACE_STYLE_USAGE(.BOTH.,#93);
#82=SURFACE_STYLE_USAGE(.BOTH.,#94);
#83=SURFACE_STYLE_USAGE(.BOTH.,#95);
#84=SURFACE_SIDE_STYLE('',(#96));
#85=SURFACE_SIDE_STYLE('',(#97));
#86=SURFACE_SIDE_STYLE('',(#98));
#87=SURFACE_SIDE_STYLE('',(#99));
#88=SURFACE_SIDE_STYLE('',(#100));
#89=SURFACE_SIDE_STYLE('',(#101));
#90=SURFACE_SIDE_STYLE('',(#102));
#91=SURFACE_SIDE_STYLE('',(#103));
#92=SURFACE_SIDE_STYLE('',(#104));
#93=SURFACE_SIDE_STYLE('',(#105));
#94=SURFACE_SIDE_STYLE('',(#106));
#95=SURFACE_SIDE_STYLE('',(#107));
#96=SURFACE_STYLE_FILL_AREA(#108);
#97=SURFACE_STYLE_FILL_AREA(#109);
#98=SURFACE_STYLE_FILL_AREA(#110);
#99=SURFACE_STYLE_FILL_AREA(#111);
#100=SURFACE_STYLE_FILL_AREA(#112);
#101=SURFACE_STYLE_FILL_AREA(#113);
#102=SURFACE_STYLE_FILL_AREA(#114);
#103=SURFACE_STYLE_FILL_AREA(#115);
#104=SURFACE_STYLE_FILL_AREA(#116);
#105=SURFACE_STYLE_FILL_AREA(#117);
#106=SURFACE_STYLE_FILL_AREA(#118);
#107=SURFACE_STYLE_FILL_AREA(#119);
#108=FILL_AREA_STYLE('',(#120));
#109=FILL_AREA_STYLE('',(#121));
#110=FILL_AREA_STYLE('',(#122));
#111=FILL_AREA_STYLE('',(#123));
#112=FILL_AREA_STYLE('',(#124));
#113=FILL_AREA_STYLE('',(#125));
#114=FILL_AREA_STYLE('',(#126));
#115=FILL_AREA_STYLE('',(#127));
#116=FILL_AREA_STYLE('',(#128));
#117=FILL_AREA_STYLE('',(#129));
#118=FILL_AREA_STYLE('',(#130));
#119=FILL_AREA_STYLE('',(#131));
#120=FILL_AREA_STYLE_COLOUR('',#132);
#121=FILL_AREA_STYLE_COLOUR('',#41);
#122=FILL_AREA_STYLE_COLOUR('',#42);
#123=FILL_AREA_STYLE_COLOUR('',#42);
#124=FILL_AREA_STYLE_COLOUR('',#42);
#125=FILL_AREA_STYLE_COLOUR('',#42);
#126=FILL_AREA_STYLE_COLOUR('',#42);
#127=FILL_AREA_STYLE_COLOUR('',#42);
#128=FILL_AREA_STYLE_COLOUR('',#42);
#129=FILL_AREA_STYLE_COLOUR('',#42);
#130=FILL_AREA_STYLE_COLOUR('',#42);
#131=FILL_AREA_STYLE_COLOUR('',#42);
#132=DRAUGHTING_PRE_DEFINED_COLOUR('yellow');
#133=MANIFOLD_SOLID_BREP('',#135);
#134=MANIFOLD_SOLID_BREP('',#136);
#135=CLOSED_SHELL('',(#137,#138));
#136=CLOSED_SHELL('',(#139,#140,#141,#142,#143,#144,#145,#146,#147,#148));
#137=ADVANCED_FACE('',(#151,#152),#149,.F.);
#138=ADVANCED_FACE('',(#153,#154),#150,.F.);
#139=ADVANCED_FACE('',(#56),#55,.F.);
#140=ADVANCED_FACE('',(#155,#156),#52,.T.);
#141=ADVANCED_FACE('',(#157,#158),#49,.T.);
#142=ADVANCED_FACE('',(#159,#160),#47,.T.);
#143=ADVANCED_FACE('',(#161,#162),#50,.T.);
#144=ADVANCED_FACE('',(#163,#164),#53,.F.);
#145=ADVANCED_FACE('',(#165,#166),#54,.T.);
#146=ADVANCED_FACE('',(#167,#168),#51,.T.);
#147=ADVANCED_FACE('',(#169,#170),#44,.T.);
#148=ADVANCED_FACE('',(#171,#172),#48,.F.);
#149=(
BOUNDED_SURFACE()
B_SPLINE_SURFACE(3,3,((#320,#321,#322,#323,#324,#325,#326),(#327,#328,#329,
#330,#331,#332,#333),(#334,#335,#336,#337,#338,#339,#340),(#341,#342,#343,
#344,#345,#346,#347),(#348,#349,#350,#351,#352,#353,#354),(#355,#356,#357,
#358,#359,#360,#361),(#362,#363,#364,#365,#366,#367,#368)),
 .UNSPECIFIED.,.T.,.F.,.F.)
B_SPLINE_SURFACE_WITH_KNOTS((1,3,3,3,1),(4,3,4),(-0.5,0.,0.5,1.,1.5),(0.,
0.5,1.),.UNSPECIFIED.)
GEOMETRIC_REPRESENTATION_ITEM()
RATIONAL_B_SPLINE_SURFACE(((1.,0.59569082662607,0.59569082662607,1.,0.59569082662607,
0.59569082662607,1.),(0.333333333333334,0.198563608875357,0.198563608875357,
0.333333333333334,0.198563608875357,0.198563608875357,0.333333333333334),
(0.333333333333334,0.198563608875357,0.198563608875357,0.333333333333334,
0.198563608875357,0.198563608875357,0.333333333333334),(1.,0.59569082662607,
0.59569082662607,1.,0.59569082662607,0.59569082662607,1.),(0.333333333333334,
0.198563608875357,0.198563608875357,0.333333333333334,0.198563608875357,
0.198563608875357,0.333333333333334),(0.333333333333334,0.198563608875357,
0.198563608875357,0.333333333333334,0.198563608875357,0.198563608875357,
0.333333333333334),(1.,0.59569082662607,0.59569082662607,1.,0.59569082662607,
0.59569082662607,1.)))
REPRESENTATION_ITEM('')
SURFACE()
);
#150=(
BOUNDED_SURFACE()
B_SPLINE_SURFACE(3,3,((#369,#370,#371,#372),(#373,#374,#375,#376),(#377,
#378,#379,#380),(#381,#382,#383,#384),(#385,#386,#387,#388),(#389,#390,
#391,#392),(#393,#394,#395,#396)),.UNSPECIFIED.,.T.,.F.,.F.)
B_SPLINE_SURFACE_WITH_KNOTS((1,3,3,3,1),(4,4),(-0.5,0.,0.5,1.,1.5),(0.,
1.),.UNSPECIFIED.)
GEOMETRIC_REPRESENTATION_ITEM()
RATIONAL_B_SPLINE_SURFACE(((1.,0.793505637139455,0.793505637139455,1.),
(0.333333333333334,0.264501879046485,0.264501879046485,0.333333333333334),
(0.333333333333334,0.264501879046485,0.264501879046485,0.333333333333334),
(1.,0.793505637139455,0.793505637139455,1.),(0.333333333333334,0.264501879046485,
0.264501879046485,0.333333333333334),(0.333333333333334,0.264501879046485,
0.264501879046485,0.333333333333334),(1.,0.793505637139455,0.793505637139455,
1.)))
REPRESENTATION_ITEM('')
SURFACE()
);
#151=FACE_BOUND('',#173,.T.);
#152=FACE_BOUND('',#174,.T.);
#153=FACE_BOUND('',#175,.T.);
#154=FACE_BOUND('',#176,.T.);
#155=FACE_BOUND('',#178,.T.);
#156=FACE_BOUND('',#179,.T.);
#157=FACE_BOUND('',#180,.T.);
#158=FACE_BOUND('',#181,.T.);
#159=FACE_BOUND('',#182,.T.);
#160=FACE_BOUND('',#183,.T.);
#161=FACE_BOUND('',#184,.T.);
#162=FACE_BOUND('',#185,.T.);
#163=FACE_BOUND('',#186,.T.);
#164=FACE_BOUND('',#187,.T.);
#165=FACE_BOUND('',#188,.T.);
#166=FACE_BOUND('',#189,.T.);
#167=FACE_BOUND('',#190,.T.);
#168=FACE_BOUND('',#191,.T.);
#169=FACE_BOUND('',#192,.T.);
#170=FACE_BOUND('',#193,.T.);
#171=FACE_BOUND('',#194,.T.);
#172=FACE_BOUND('',#43,.T.);
#173=EDGE_LOOP('',(#195));
#174=EDGE_LOOP('',(#196));
#175=EDGE_LOOP('',(#197));
#176=EDGE_LOOP('',(#198));
#177=EDGE_LOOP('',(#199));
#178=EDGE_LOOP('',(#200));
#179=EDGE_LOOP('',(#201));
#180=EDGE_LOOP('',(#202));
#181=EDGE_LOOP('',(#203));
#182=EDGE_LOOP('',(#204));
#183=EDGE_LOOP('',(#205));
#184=EDGE_LOOP('',(#206));
#185=EDGE_LOOP('',(#207));
#186=EDGE_LOOP('',(#208));
#187=EDGE_LOOP('',(#209));
#188=EDGE_LOOP('',(#210));
#189=EDGE_LOOP('',(#211));
#190=EDGE_LOOP('',(#212));
#191=EDGE_LOOP('',(#213));
#192=EDGE_LOOP('',(#214));
#193=EDGE_LOOP('',(#215));
#194=EDGE_LOOP('',(#216));
#195=ORIENTED_EDGE('',*,*,#229,.T.);
#196=ORIENTED_EDGE('',*,*,#230,.F.);
#197=ORIENTED_EDGE('',*,*,#230,.T.);
#198=ORIENTED_EDGE('',*,*,#229,.F.);
#199=ORIENTED_EDGE('',*,*,#231,.F.);
#200=ORIENTED_EDGE('',*,*,#232,.F.);
#201=ORIENTED_EDGE('',*,*,#231,.T.);
#202=ORIENTED_EDGE('',*,*,#232,.T.);
#203=ORIENTED_EDGE('',*,*,#233,.F.);
#204=ORIENTED_EDGE('',*,*,#234,.F.);
#205=ORIENTED_EDGE('',*,*,#233,.T.);
#206=ORIENTED_EDGE('',*,*,#235,.F.);
#207=ORIENTED_EDGE('',*,*,#234,.T.);
#208=ORIENTED_EDGE('',*,*,#236,.F.);
#209=ORIENTED_EDGE('',*,*,#235,.T.);
#210=ORIENTED_EDGE('',*,*,#237,.F.);
#211=ORIENTED_EDGE('',*,*,#236,.T.);
#212=ORIENTED_EDGE('',*,*,#238,.F.);
#213=ORIENTED_EDGE('',*,*,#237,.T.);
#214=ORIENTED_EDGE('',*,*,#239,.F.);
#215=ORIENTED_EDGE('',*,*,#238,.T.);
#216=ORIENTED_EDGE('',*,*,#239,.T.);
#217=VERTEX_POINT('',#317);
#218=VERTEX_POINT('',#319);
#219=VERTEX_POINT('',#398);
#220=VERTEX_POINT('',#401);
#221=VERTEX_POINT('',#404);
#222=VERTEX_POINT('',#407);
#223=VERTEX_POINT('',#410);
#224=VERTEX_POINT('',#413);
#225=VERTEX_POINT('',#416);
#226=VERTEX_POINT('',#419);
#227=VERTEX_POINT('',#422);
#228=VERTEX_POINT('',#490);
#229=EDGE_CURVE('',#217,#217,#240,.T.);
#230=EDGE_CURVE('',#218,#218,#241,.T.);
#231=EDGE_CURVE('',#219,#219,#242,.T.);
#232=EDGE_CURVE('',#220,#220,#243,.T.);
#233=EDGE_CURVE('',#221,#221,#244,.T.);
#234=EDGE_CURVE('',#222,#222,#245,.T.);
#235=EDGE_CURVE('',#223,#223,#246,.T.);
#236=EDGE_CURVE('',#224,#224,#247,.T.);
#237=EDGE_CURVE('',#225,#225,#248,.T.);
#238=EDGE_CURVE('',#226,#226,#249,.T.);
#239=EDGE_CURVE('',#227,#227,#250,.T.);
#240=CIRCLE('',#252,5.);
#241=CIRCLE('',#253,5.);
#242=CIRCLE('',#254,22.5);
#243=CIRCLE('',#256,24.);
#244=CIRCLE('',#258,24.);
#245=CIRCLE('',#260,23.8);
#246=CIRCLE('',#262,23.8);
#247=CIRCLE('',#264,28.2571428571428);
#248=CIRCLE('',#266,29.);
#249=CIRCLE('',#268,29.);
#250=CIRCLE('',#270,22.6725679168828);
#251=AXIS2_PLACEMENT_3D('',#315,#272,#273);
#252=AXIS2_PLACEMENT_3D('',#316,#274,#275);
#253=AXIS2_PLACEMENT_3D('',#318,#276,#277);
#254=AXIS2_PLACEMENT_3D('',#397,#278,#279);
#255=AXIS2_PLACEMENT_3D('',#399,#280,#281);
#256=AXIS2_PLACEMENT_3D('',#400,#282,#283);
#257=AXIS2_PLACEMENT_3D('',#402,#284,#285);
#258=AXIS2_PLACEMENT_3D('',#403,#286,#287);
#259=AXIS2_PLACEMENT_3D('',#405,#288,#289);
#260=AXIS2_PLACEMENT_3D('',#406,#290,#291);
#261=AXIS2_PLACEMENT_3D('',#408,#292,#293);
#262=AXIS2_PLACEMENT_3D('',#409,#294,#295);
#263=AXIS2_PLACEMENT_3D('',#411,#296,#297);
#264=AXIS2_PLACEMENT_3D('',#412,#298,#299);
#265=AXIS2_PLACEMENT_3D('',#414,#300,#301);
#266=AXIS2_PLACEMENT_3D('',#415,#302,#303);
#267=AXIS2_PLACEMENT_3D('',#417,#304,#305);
#268=AXIS2_PLACEMENT_3D('',#418,#306,#307);
#269=AXIS2_PLACEMENT_3D('',#420,#308,#309);
#270=AXIS2_PLACEMENT_3D('',#421,#310,#311);
#271=AXIS2_PLACEMENT_3D('',#491,#313,#314);
#272=DIRECTION('',(0.,0.,1.));
#273=DIRECTION('',(1.,0.,0.));
#274=DIRECTION('',(0.0871557427476584,0.994541680696836,0.0573648138044234));
#275=DIRECTION('',(0.,-0.0575839380738607,0.998340668347186));
#276=DIRECTION('',(0.0871557427476584,-0.104130700906914,0.990737439302028));
#277=DIRECTION('',(0.,-0.994521895368273,-0.104528463267654));
#278=DIRECTION('',(-1.,0.,0.));
#279=DIRECTION('',(0.,0.,1.));
#280=DIRECTION('',(-1.,0.,0.));
#281=DIRECTION('',(0.,0.,1.));
#282=DIRECTION('',(-1.,0.,0.));
#283=DIRECTION('',(0.,0.,1.));
#284=DIRECTION('',(-1.,0.,0.));
#285=DIRECTION('',(0.,0.,1.));
#286=DIRECTION('',(-1.,0.,0.));
#287=DIRECTION('',(0.,0.,1.));
#288=DIRECTION('',(-1.,0.,0.));
#289=DIRECTION('',(0.,0.,1.));
#290=DIRECTION('',(-1.,0.,0.));
#291=DIRECTION('',(0.,0.,1.));
#292=DIRECTION('',(1.,0.,0.));
#293=DIRECTION('',(4.61554222849731E-17,0.,-1.));
#294=DIRECTION('',(-1.,0.,0.));
#295=DIRECTION('',(0.,0.,1.));
#296=DIRECTION('',(-1.,0.,0.));
#297=DIRECTION('',(0.,0.,1.));
#298=DIRECTION('',(-1.,0.,0.));
#299=DIRECTION('',(0.,0.,1.));
#300=DIRECTION('',(-1.,0.,0.));
#301=DIRECTION('',(0.,0.,1.));
#302=DIRECTION('',(-1.,0.,0.));
#303=DIRECTION('',(0.,0.,1.));
#304=DIRECTION('',(-1.,0.,0.));
#305=DIRECTION('',(0.,0.,1.));
#306=DIRECTION('',(-1.,0.,0.));
#307=DIRECTION('',(0.,0.,1.));
#308=DIRECTION('',(-1.,0.,0.));
#309=DIRECTION('',(0.,0.,1.));
#310=DIRECTION('',(-1.,0.,0.));
#311=DIRECTION('',(0.,0.,1.));
#312=DIRECTION('',(-1.,0.,0.));
#313=DIRECTION('',(-1.,0.,0.));
#314=DIRECTION('',(4.56990877844358E-19,0.,1.));
#315=CARTESIAN_POINT('',(0.,0.,0.));
#316=CARTESIAN_POINT('',(4.98097349045873,0.815483189270249,26.5037618027297));
#317=CARTESIAN_POINT('',(4.98097349045873,0.527563498900945,31.4954651444656));
#318=CARTESIAN_POINT('',(4.98097349045873,-26.5127624807282,-0.433391472348154));
#319=CARTESIAN_POINT('',(4.98097349045873,-31.4853719575696,-0.956033788686422));
#320=CARTESIAN_POINT('',(4.98097349045873,-31.4853719575696,-0.956033788686423));
#321=CARTESIAN_POINT('',(4.98097349045873,-30.5017626466671,-33.3495593953948));
#322=CARTESIAN_POINT('',(4.98097349045873,-0.335013750828186,-45.193344667189));
#323=CARTESIAN_POINT('',(4.98097349045873,22.4247948015806,-22.1217365054966));
#324=CARTESIAN_POINT('',(4.98097349045873,45.1846033539893,0.949871656195714));
#325=CARTESIAN_POINT('',(4.98097349045873,32.931473417048,30.9526847785914));
#326=CARTESIAN_POINT('',(4.98097349045873,0.527563498900948,31.4954651444656));
#327=CARTESIAN_POINT('',(14.9429204713762,-31.3942693990259,-1.82281673338273));
#328=CARTESIAN_POINT('',(14.9429204713762,-29.518875943019,-34.1226120494979));
#329=CARTESIAN_POINT('',(14.9429204713762,0.912655222701676,-45.1096857721749));
#330=CARTESIAN_POINT('',(14.9429204713762,22.9890824677895,-21.4575138175719));
#331=CARTESIAN_POINT('',(14.9429204713762,45.0655097128774,2.19465813703118));
#332=CARTESIAN_POINT('',(14.9429204713762,32.0097268857989,31.7977054945235));
#333=CARTESIAN_POINT('',(14.9429204713762,-0.342547725748977,31.4452774355339));
#334=CARTESIAN_POINT('',(14.9429204713762,-21.4490504453432,-0.777532100706194));
#335=CARTESIAN_POINT('',(14.9429204713762,-20.6490914660367,-22.8452518588576));
#336=CARTESIAN_POINT('',(14.9429204713762,-0.047222949139808,-30.794289744374));
#337=CARTESIAN_POINT('',(14.9429204713762,15.3679818152724,-14.9830389474218));
#338=CARTESIAN_POINT('',(14.9429204713762,30.7831865796848,0.828211849530357));
#339=CARTESIAN_POINT('',(14.9429204713762,22.3142015045443,21.2218501097803));
#340=CARTESIAN_POINT('',(14.9429204713762,0.233291654989629,21.461870752062));
#341=CARTESIAN_POINT('',(4.98097349045873,-21.5401530038868,0.089250843990115));
#342=CARTESIAN_POINT('',(4.98097349045873,-21.6319781696848,-22.0721992047546));
#343=CARTESIAN_POINT('',(4.98097349045873,-1.29489192266967,-30.8779486393881));
#344=CARTESIAN_POINT('',(4.98097349045873,14.8036941490635,-15.6472616353467));
#345=CARTESIAN_POINT('',(4.98097349045873,30.9022802207966,-0.41657463130511));
#346=CARTESIAN_POINT('',(4.98097349045873,23.2359480357934,20.3768293938482));
#347=CARTESIAN_POINT('',(4.98097349045873,1.10340287963955,21.5120584609937));
#348=CARTESIAN_POINT('',(-4.98097349045872,-21.6312555624304,0.956033788686424));
#349=CARTESIAN_POINT('',(-4.98097349045873,-22.6148648733329,-21.2991465506516));
#350=CARTESIAN_POINT('',(-4.98097349045873,-2.54256089619954,-30.9616075344023));
#351=CARTESIAN_POINT('',(-4.98097349045872,14.2394064828545,-16.3114843232714));
#352=CARTESIAN_POINT('',(-4.98097349045873,31.0213738619086,-1.66136111214058));
#353=CARTESIAN_POINT('',(-4.98097349045873,24.1576945670425,19.5318086779162));
#354=CARTESIAN_POINT('',(-4.98097349045872,1.97351410428948,21.5622461699253));
#355=CARTESIAN_POINT('',(-4.98097349045874,-31.5764745161132,-0.0892508439901139));
#356=CARTESIAN_POINT('',(-4.98097349045874,-31.4846493503153,-32.5765067412918));
#357=CARTESIAN_POINT('',(-4.98097349045874,-1.58268272435805,-45.2770035622031));
#358=CARTESIAN_POINT('',(-4.98097349045874,21.8605071353716,-22.7859591934214));
#359=CARTESIAN_POINT('',(-4.98097349045874,45.3036969951013,-0.294914824639753));
#360=CARTESIAN_POINT('',(-4.98097349045874,33.8532199482971,30.1076640626595));
#361=CARTESIAN_POINT('',(-4.98097349045874,1.39767472355087,31.5456528533972));
#362=CARTESIAN_POINT('',(4.98097349045873,-31.4853719575696,-0.956033788686423));
#363=CARTESIAN_POINT('',(4.98097349045873,-30.5017626466671,-33.3495593953948));
#364=CARTESIAN_POINT('',(4.98097349045873,-0.335013750828186,-45.193344667189));
#365=CARTESIAN_POINT('',(4.98097349045873,22.4247948015806,-22.1217365054966));
#366=CARTESIAN_POINT('',(4.98097349045873,45.1846033539893,0.949871656195714));
#367=CARTESIAN_POINT('',(4.98097349045873,32.931473417048,30.9526847785914));
#368=CARTESIAN_POINT('',(4.98097349045873,0.527563498900948,31.4954651444656));
#369=CARTESIAN_POINT('',(4.98097349045873,0.527563498900946,31.4954651444656));
#370=CARTESIAN_POINT('',(4.98097349045873,-18.6186562639675,31.8161731144065));
#371=CARTESIAN_POINT('',(4.98097349045873,-32.0665487376221,18.1840502853287));
#372=CARTESIAN_POINT('',(4.98097349045873,-31.4853719575696,-0.956033788686423));
#373=CARTESIAN_POINT('',(14.9429204713762,-0.342547725748982,31.4452774355339));
#374=CARTESIAN_POINT('',(14.9429204713762,-19.458258178779,31.2370412972081));
#375=CARTESIAN_POINT('',(14.9429204713762,-32.5023670125934,17.2618857293802));
#376=CARTESIAN_POINT('',(14.9429204713762,-31.3942693990259,-1.82281673338273));
#377=CARTESIAN_POINT('',(14.9429204713762,0.233291654989625,21.461870752062));
#378=CARTESIAN_POINT('',(14.9429204713762,-12.813465776801,21.6036896861463));
#379=CARTESIAN_POINT('',(14.9429204713762,-21.9217153323205,12.2614318151373));
#380=CARTESIAN_POINT('',(14.9429204713762,-21.4490504453432,-0.777532100706194));
#381=CARTESIAN_POINT('',(4.98097349045873,1.10340287963955,21.5120584609937));
#382=CARTESIAN_POINT('',(4.98097349045873,-11.9738638619896,22.1828215033447));
#383=CARTESIAN_POINT('',(4.98097349045873,-21.4858970573492,13.1835963710857));
#384=CARTESIAN_POINT('',(4.98097349045873,-21.5401530038868,0.0892508439901151));
#385=CARTESIAN_POINT('',(-4.98097349045872,1.97351410428948,21.5622461699253));
#386=CARTESIAN_POINT('',(-4.98097349045873,-11.1342619471782,22.7619533205431));
#387=CARTESIAN_POINT('',(-4.98097349045873,-21.0500787823779,14.1057609270342));
#388=CARTESIAN_POINT('',(-4.98097349045872,-21.6312555624304,0.956033788686424));
#389=CARTESIAN_POINT('',(-4.98097349045874,1.39767472355087,31.5456528533972));
#390=CARTESIAN_POINT('',(-4.98097349045873,-17.7790543491561,32.3953049316048));
#391=CARTESIAN_POINT('',(-4.98097349045873,-31.6307304626508,19.1062148412771));
#392=CARTESIAN_POINT('',(-4.98097349045874,-31.5764745161132,-0.0892508439901133));
#393=CARTESIAN_POINT('',(4.98097349045873,0.527563498900946,31.4954651444656));
#394=CARTESIAN_POINT('',(4.98097349045873,-18.6186562639675,31.8161731144065));
#395=CARTESIAN_POINT('',(4.98097349045873,-32.0665487376221,18.1840502853287));
#396=CARTESIAN_POINT('',(4.98097349045873,-31.4853719575696,-0.956033788686423));
#397=CARTESIAN_POINT('',(40.,0.,0.));
#398=CARTESIAN_POINT('',(40.,0.,22.5));
#399=CARTESIAN_POINT('',(40.,12.,0.));
#400=CARTESIAN_POINT('',(38.5,0.,0.));
#401=CARTESIAN_POINT('',(38.5,0.,24.));
#402=CARTESIAN_POINT('',(38.5,0.,0.));
#403=CARTESIAN_POINT('',(32.,0.,0.));
#404=CARTESIAN_POINT('',(32.,0.,24.));
#405=CARTESIAN_POINT('',(0.,0.,0.));
#406=CARTESIAN_POINT('',(31.6535898384862,0.,0.));
#407=CARTESIAN_POINT('',(31.6535898384862,0.,23.8));
#408=CARTESIAN_POINT('',(32.,0.,0.));
#409=CARTESIAN_POINT('',(31.,0.,0.));
#410=CARTESIAN_POINT('',(31.,0.,23.8));
#411=CARTESIAN_POINT('',(0.,0.,0.));
#412=CARTESIAN_POINT('',(15.2658826437709,0.,0.));
#413=CARTESIAN_POINT('',(15.2658826437709,0.,28.2571428571428));
#414=CARTESIAN_POINT('',(31.,0.,0.));
#415=CARTESIAN_POINT('',(12.643529751066,0.,0.));
#416=CARTESIAN_POINT('',(12.643529751066,0.,29.));
#417=CARTESIAN_POINT('',(12.643529751066,0.,0.));
#418=CARTESIAN_POINT('',(7.88856561393131,0.,0.));
#419=CARTESIAN_POINT('',(7.88856561393131,0.,29.));
#420=CARTESIAN_POINT('',(0.,0.,0.));
#421=CARTESIAN_POINT('',(3.,0.,0.));
#422=CARTESIAN_POINT('',(3.,0.,22.6725679168828));
#423=CARTESIAN_POINT('',(4.36300835371794,22.341208439746,0.));
#424=CARTESIAN_POINT('',(4.90692202978311,22.3446471776801,0.));
#425=CARTESIAN_POINT('',(5.17579806209164,22.3731285729878,0.));
#426=CARTESIAN_POINT('',(5.7074898209097,22.4830845015014,0.));
#427=CARTESIAN_POINT('',(5.96540534768075,22.5637851043404,0.));
#428=CARTESIAN_POINT('',(6.45926689193817,22.7723974146752,0.));
#429=CARTESIAN_POINT('',(6.69828563083491,22.9018996371825,0.));
#430=CARTESIAN_POINT('',(7.1463821178366,23.2050854560282,0.));
#431=CARTESIAN_POINT('',(7.35282488184245,23.3763840772299,0.));
#432=CARTESIAN_POINT('',(7.73130438746943,23.7574917822856,0.));
#433=CARTESIAN_POINT('',(7.90460429101292,23.9697719638741,0.));
#434=CARTESIAN_POINT('',(8.20258517575909,24.417726067211,0.));
#435=CARTESIAN_POINT('',(8.32885893221587,24.6542714028453,0.));
#436=CARTESIAN_POINT('',(8.53547339498093,25.1527750951774,0.));
#437=CARTESIAN_POINT('',(8.61480507089345,25.4141227610156,0.));
#438=CARTESIAN_POINT('',(8.71998846356159,25.9401690142476,0.));
#439=CARTESIAN_POINT('',(8.7470985171867,26.207581576651,0.));
#440=CARTESIAN_POINT('',(8.7480214123613,26.7514621225223,0.));
#441=CARTESIAN_POINT('',(8.72182156145808,27.0189382017636,0.));
#442=CARTESIAN_POINT('',(8.61808404322837,27.5452943064406,0.));
#443=CARTESIAN_POINT('',(8.53925909122092,27.8069283132374,0.));
#444=CARTESIAN_POINT('',(8.33313224564318,28.3055203945011,0.));
#445=CARTESIAN_POINT('',(8.20680197939756,28.5420348307598,0.));
#446=CARTESIAN_POINT('',(7.90785273682595,28.989635072174,0.));
#447=CARTESIAN_POINT('',(7.73381142318121,29.2013029846628,0.));
#448=CARTESIAN_POINT('',(7.35349717838103,29.5803493850278,0.));
#449=CARTESIAN_POINT('',(7.14582353875239,29.7503418235493,0.));
#450=CARTESIAN_POINT('',(6.69447588353341,30.0501866000548,0.));
#451=CARTESIAN_POINT('',(6.4548434040647,30.1768978386937,0.));
#452=CARTESIAN_POINT('',(5.95864522879692,30.3800437380677,0.));
#453=CARTESIAN_POINT('',(5.69828987443,30.4579095887431,0.));
#454=CARTESIAN_POINT('',(5.16693871116248,30.5606352824903,0.));
#455=CARTESIAN_POINT('',(4.89981192965041,30.5852457190832,0.));
#456=CARTESIAN_POINT('',(4.36272757360145,30.5822818191366,0.));
#457=CARTESIAN_POINT('',(4.09010072040918,30.5538209511589,0.));
#458=CARTESIAN_POINT('',(3.56317354278632,30.4455924262707,0.));
#459=CARTESIAN_POINT('',(3.30706425158797,30.3663390363622,0.));
#460=CARTESIAN_POINT('',(2.80965405575777,30.1572128858013,0.));
#461=CARTESIAN_POINT('',(2.56951289607419,30.0270586042261,0.));
#462=CARTESIAN_POINT('',(2.12502772596739,29.7268829709139,0.));
#463=CARTESIAN_POINT('',(1.91786036623373,29.5558134002112,0.));
#464=CARTESIAN_POINT('',(1.53485984327176,29.1700632088623,0.));
#465=CARTESIAN_POINT('',(1.36503710447293,28.9613618904273,0.));
#466=CARTESIAN_POINT('',(1.0679975459002,28.5148358261993,0.));
#467=CARTESIAN_POINT('',(0.93958557315112,28.2741252259931,0.));
#468=CARTESIAN_POINT('',(0.733385177363318,27.775065403521,0.));
#469=CARTESIAN_POINT('',(0.655600620380308,27.518432346982,0.));
#470=CARTESIAN_POINT('',(0.550093462238848,26.9911196866483,0.));
#471=CARTESIAN_POINT('',(0.522830795853952,26.7183726656683,0.));
#472=CARTESIAN_POINT('',(0.521910308340696,26.1810174124929,0.));
#473=CARTESIAN_POINT('',(0.547388163793352,25.9139526083128,0.));
#474=CARTESIAN_POINT('',(0.651422819062655,25.3831234311118,0.));
#475=CARTESIAN_POINT('',(0.729864867594282,25.1226668899769,0.));
#476=CARTESIAN_POINT('',(0.933866738179941,24.6266805951713,0.));
#477=CARTESIAN_POINT('',(1.06080072032169,24.3873400594708,0.));
#478=CARTESIAN_POINT('',(1.36123092488696,23.9361893632847,0.));
#479=CARTESIAN_POINT('',(1.53146212963821,23.7286542911285,0.));
#480=CARTESIAN_POINT('',(1.91095852018625,23.3487650113267,0.));
#481=CARTESIAN_POINT('',(2.12285767644098,23.1749978441032,0.));
#482=CARTESIAN_POINT('',(2.57096411080573,22.8768034126258,0.));
#483=CARTESIAN_POINT('',(2.80772032227207,22.750973820454,0.));
#484=CARTESIAN_POINT('',(3.30680128087758,22.5461476150042,0.));
#485=CARTESIAN_POINT('',(3.56872297885301,22.4681185972969,0.));
#486=CARTESIAN_POINT('',(4.09543309933108,22.3662977071004,0.));
#487=CARTESIAN_POINT('',(4.36300835371794,22.341208439746,0.));
#488=CARTESIAN_POINT('',(4.90692202978311,22.3446471776801,0.));
#489=CARTESIAN_POINT('',(0.,0.,0.));
#490=CARTESIAN_POINT('',(6.99778544569148,0.,0.));
#491=CARTESIAN_POINT('',(3.,0.,0.));
#492=(
GEOMETRIC_REPRESENTATION_CONTEXT(3)
GLOBAL_UNCERTAINTY_ASSIGNED_CONTEXT((#493))
GLOBAL_UNIT_ASSIGNED_CONTEXT((#499,#495,#494))
REPRESENTATION_CONTEXT('model1','TOP_LEVEL_ASSEMBLY_PART')
);
#493=UNCERTAINTY_MEASURE_WITH_UNIT(LENGTH_MEASURE(2.E-5),#499,
'DISTANCE_ACCURACY_VALUE','Maximum Tolerance applied to model');
#494=(
NAMED_UNIT(*)
SI_UNIT($,.STERADIAN.)
SOLID_ANGLE_UNIT()
);
#495=(
CONVERSION_BASED_UNIT('DEGREE',#497)
NAMED_UNIT(#496)
PLANE_ANGLE_UNIT()
);
#496=DIMENSIONAL_EXPONENTS(0.,0.,0.,0.,0.,0.,0.);
#497=PLANE_ANGLE_MEASURE_WITH_UNIT(PLANE_ANGLE_MEASURE(0.0174532925),#498);
#498=(
NAMED_UNIT(*)
PLANE_ANGLE_UNIT()
SI_UNIT($,.RADIAN.)
);
#499=(
LENGTH_UNIT()
NAMED_UNIT(*)
SI_UNIT(.MILLI.,.METRE.)
);
ENDSEC;
END-ISO-10303-21;
