ISO-10303-21;
HEADER;
/* Generated by software containing ST-Developer
 * from STEP Tools, Inc. (www.steptools.com) 
 */
/* OPTION: using custom schema-name function */

FILE_DESCRIPTION(
/* description */ (''),
/* implementation_level */ '2;1');

FILE_NAME(
/* name */ 'model1.stp',
/* time_stamp */ '2023-11-02T17:29:38+03:00',
/* author */ (''),
/* organization */ (''),
/* preprocessor_version */ 'ST-DEVELOPER v19.4',
/* originating_system */ 'SIEMENS PLM Software NX2306.3001',
/* authorisation */ '');

FILE_SCHEMA (('AUTOMOTIVE_DESIGN { 1 0 10303 214 3 1 1 1 }'));
ENDSEC;

DATA;
#10=PROPERTY_DEFINITION_REPRESENTATION(#14,#12);
#11=PROPERTY_DEFINITION_REPRESENTATION(#15,#13);
#12=REPRESENTATION('',(#16),#438);
#13=REPRESENTATION('',(#17),#438);
#14=PROPERTY_DEFINITION('pmi validation property','',#21);
#15=PROPERTY_DEFINITION('pmi validation property','',#21);
#16=VALUE_REPRESENTATION_ITEM('number of annotations',COUNT_MEASURE(0.));
#17=VALUE_REPRESENTATION_ITEM('number of views',COUNT_MEASURE(0.));
#18=SHAPE_REPRESENTATION_RELATIONSHIP('None',
'relationship between model1_objects-None and model1_objects-None',#30,
#19);
#19=ADVANCED_BREP_SHAPE_REPRESENTATION('model1_objects-None',(#107,#108),
#438);
#20=SHAPE_DEFINITION_REPRESENTATION(#21,#30);
#21=PRODUCT_DEFINITION_SHAPE('','',#22);
#22=PRODUCT_DEFINITION(' ','',#24,#23);
#23=PRODUCT_DEFINITION_CONTEXT('part definition',#29,'design');
#24=PRODUCT_DEFINITION_FORMATION_WITH_SPECIFIED_SOURCE(' ',' ',#26,
 .NOT_KNOWN.);
#25=PRODUCT_RELATED_PRODUCT_CATEGORY('part','',(#26));
#26=PRODUCT('model1_objects','model1_objects',' ',(#27));
#27=PRODUCT_CONTEXT(' ',#29,'mechanical');
#28=APPLICATION_PROTOCOL_DEFINITION('international standard',
'automotive_design',2010,#29);
#29=APPLICATION_CONTEXT(
'core data for automotive mechanical design processes');
#30=SHAPE_REPRESENTATION('model1_objects-None',(#215),#438);
#31=DRAUGHTING_PRE_DEFINED_COLOUR('yellow');
#32=(
BOUNDED_SURFACE()
B_SPLINE_SURFACE(3,3,((#361,#362,#363,#364,#365,#366,#367),(#368,#369,#370,
#371,#372,#373,#374),(#375,#376,#377,#378,#379,#380,#381),(#382,#383,#384,
#385,#386,#387,#388),(#389,#390,#391,#392,#393,#394,#395),(#396,#397,#398,
#399,#400,#401,#402),(#403,#404,#405,#406,#407,#408,#409)),
 .UNSPECIFIED.,.T.,.F.,.F.)
B_SPLINE_SURFACE_WITH_KNOTS((1,3,3,3,1),(4,3,4),(-0.5,0.,0.5,1.,1.5),(0.,
0.5,1.),.UNSPECIFIED.)
GEOMETRIC_REPRESENTATION_ITEM()
RATIONAL_B_SPLINE_SURFACE(((1.,0.592283620147657,0.592283620147657,1.,0.592283620147657,
0.592283620147657,1.),(0.333333333333334,0.197427873382552,0.197427873382552,
0.333333333333334,0.197427873382552,0.197427873382552,0.333333333333334),
(0.333333333333334,0.197427873382552,0.197427873382552,0.333333333333334,
0.197427873382552,0.197427873382552,0.333333333333334),(1.,0.592283620147657,
0.592283620147657,1.,0.592283620147657,0.592283620147657,1.),(0.333333333333334,
0.197427873382552,0.197427873382552,0.333333333333334,0.197427873382552,
0.197427873382552,0.333333333333334),(0.333333333333334,0.197427873382552,
0.197427873382552,0.333333333333334,0.197427873382552,0.197427873382552,
0.333333333333334),(1.,0.592283620147657,0.592283620147657,1.,0.592283620147657,
0.592283620147657,1.)))
REPRESENTATION_ITEM('')
SURFACE()
);
#33=(
BOUNDED_SURFACE()
B_SPLINE_SURFACE(3,3,((#410,#411,#412,#413),(#414,#415,#416,#417),(#418,
#419,#420,#421),(#422,#423,#424,#425),(#426,#427,#428,#429),(#430,#431,
#432,#433),(#434,#435,#436,#437)),.UNSPECIFIED.,.T.,.F.,.F.)
B_SPLINE_SURFACE_WITH_KNOTS((1,3,3,3,1),(4,4),(-0.5,0.,0.5,1.,1.5),(0.,
1.),.UNSPECIFIED.)
GEOMETRIC_REPRESENTATION_ITEM()
RATIONAL_B_SPLINE_SURFACE(((1.,0.798834246876339,0.798834246876339,1.),
(0.333333333333334,0.266278082292113,0.266278082292113,0.333333333333334),
(0.333333333333334,0.266278082292113,0.266278082292113,0.333333333333334),
(1.,0.798834246876339,0.798834246876339,1.),(0.333333333333334,0.266278082292113,
0.266278082292113,0.333333333333334),(0.333333333333334,0.266278082292113,
0.266278082292113,0.333333333333334),(1.,0.798834246876339,0.798834246876339,
1.)))
REPRESENTATION_ITEM('')
SURFACE()
);
#34=OVER_RIDING_STYLED_ITEM('',(#46),#120,#43);
#35=OVER_RIDING_STYLED_ITEM('',(#47),#121,#43);
#36=OVER_RIDING_STYLED_ITEM('',(#48),#122,#43);
#37=OVER_RIDING_STYLED_ITEM('',(#49),#123,#43);
#38=OVER_RIDING_STYLED_ITEM('',(#50),#124,#43);
#39=OVER_RIDING_STYLED_ITEM('',(#51),#125,#43);
#40=OVER_RIDING_STYLED_ITEM('',(#52),#126,#43);
#41=OVER_RIDING_STYLED_ITEM('',(#53),#127,#43);
#42=PRESENTATION_LAYER_ASSIGNMENT('1','Layer 1',(#107,#108));
#43=STYLED_ITEM('',(#45),#107);
#44=STYLED_ITEM('',(#54),#108);
#45=PRESENTATION_STYLE_ASSIGNMENT((#55));
#46=PRESENTATION_STYLE_ASSIGNMENT((#56));
#47=PRESENTATION_STYLE_ASSIGNMENT((#57));
#48=PRESENTATION_STYLE_ASSIGNMENT((#58));
#49=PRESENTATION_STYLE_ASSIGNMENT((#59));
#50=PRESENTATION_STYLE_ASSIGNMENT((#60));
#51=PRESENTATION_STYLE_ASSIGNMENT((#61));
#52=PRESENTATION_STYLE_ASSIGNMENT((#62));
#53=PRESENTATION_STYLE_ASSIGNMENT((#63));
#54=PRESENTATION_STYLE_ASSIGNMENT((#64));
#55=SURFACE_STYLE_USAGE(.BOTH.,#65);
#56=SURFACE_STYLE_USAGE(.BOTH.,#66);
#57=SURFACE_STYLE_USAGE(.BOTH.,#67);
#58=SURFACE_STYLE_USAGE(.BOTH.,#68);
#59=SURFACE_STYLE_USAGE(.BOTH.,#69);
#60=SURFACE_STYLE_USAGE(.BOTH.,#70);
#61=SURFACE_STYLE_USAGE(.BOTH.,#71);
#62=SURFACE_STYLE_USAGE(.BOTH.,#72);
#63=SURFACE_STYLE_USAGE(.BOTH.,#73);
#64=SURFACE_STYLE_USAGE(.BOTH.,#74);
#65=SURFACE_SIDE_STYLE('',(#75));
#66=SURFACE_SIDE_STYLE('',(#76));
#67=SURFACE_SIDE_STYLE('',(#77));
#68=SURFACE_SIDE_STYLE('',(#78));
#69=SURFACE_SIDE_STYLE('',(#79));
#70=SURFACE_SIDE_STYLE('',(#80));
#71=SURFACE_SIDE_STYLE('',(#81));
#72=SURFACE_SIDE_STYLE('',(#82));
#73=SURFACE_SIDE_STYLE('',(#83));
#74=SURFACE_SIDE_STYLE('',(#84));
#75=SURFACE_STYLE_FILL_AREA(#85);
#76=SURFACE_STYLE_FILL_AREA(#86);
#77=SURFACE_STYLE_FILL_AREA(#87);
#78=SURFACE_STYLE_FILL_AREA(#88);
#79=SURFACE_STYLE_FILL_AREA(#89);
#80=SURFACE_STYLE_FILL_AREA(#90);
#81=SURFACE_STYLE_FILL_AREA(#91);
#82=SURFACE_STYLE_FILL_AREA(#92);
#83=SURFACE_STYLE_FILL_AREA(#93);
#84=SURFACE_STYLE_FILL_AREA(#94);
#85=FILL_AREA_STYLE('',(#95));
#86=FILL_AREA_STYLE('',(#96));
#87=FILL_AREA_STYLE('',(#97));
#88=FILL_AREA_STYLE('',(#98));
#89=FILL_AREA_STYLE('',(#99));
#90=FILL_AREA_STYLE('',(#100));
#91=FILL_AREA_STYLE('',(#101));
#92=FILL_AREA_STYLE('',(#102));
#93=FILL_AREA_STYLE('',(#103));
#94=FILL_AREA_STYLE('',(#104));
#95=FILL_AREA_STYLE_COLOUR('',#105);
#96=FILL_AREA_STYLE_COLOUR('',#106);
#97=FILL_AREA_STYLE_COLOUR('',#106);
#98=FILL_AREA_STYLE_COLOUR('',#106);
#99=FILL_AREA_STYLE_COLOUR('',#106);
#100=FILL_AREA_STYLE_COLOUR('',#106);
#101=FILL_AREA_STYLE_COLOUR('',#106);
#102=FILL_AREA_STYLE_COLOUR('',#106);
#103=FILL_AREA_STYLE_COLOUR('',#106);
#104=FILL_AREA_STYLE_COLOUR('',#31);
#105=COLOUR_RGB('Medium Steel',0.611764705882353,0.658823529411765,0.670588235294118);
#106=COLOUR_RGB('silver gray',0.6,0.6,0.6);
#107=MANIFOLD_SOLID_BREP('',#109);
#108=MANIFOLD_SOLID_BREP('',#110);
#109=CLOSED_SHELL('',(#120,#121,#122,#123,#124,#125,#126,#127));
#110=CLOSED_SHELL('',(#128,#129));
#111=SURFACE_OF_REVOLUTION('',#113,#112);
#112=AXIS1_PLACEMENT('',#352,#256);
#113=B_SPLINE_CURVE_WITH_KNOTS('',3,(#286,#287,#288,#289,#290,#291,#292,
#293,#294,#295,#296,#297,#298,#299,#300,#301,#302,#303,#304,#305,#306,#307,
#308,#309,#310,#311,#312,#313,#314,#315,#316,#317,#318,#319,#320,#321,#322,
#323,#324,#325,#326,#327,#328,#329,#330,#331,#332,#333,#334,#335,#336,#337,
#338,#339,#340,#341,#342,#343,#344,#345,#346,#347,#348,#349,#350,#351),
 .UNSPECIFIED.,.T.,.F.,(2,2,2,2,2,2,2,2,2,2,2,2,2,2,2,2,2,2,2,2,2,2,2,2,
2,2,2,2,2,2,2,2,2,2,2),(-0.03125,0.,0.03125,0.0625,0.09375,0.125,0.15625,
0.1875,0.21875,0.25,0.28125,0.3125,0.34375,0.375,0.40625,0.4375,0.46875,
0.5,0.53125,0.5625,0.59375,0.625,0.65625,0.6875,0.71875,0.75,0.78125,0.8125,
0.84375,0.875,0.90625,0.9375,0.96875,1.,1.03125),.UNSPECIFIED.);
#114=CONICAL_SURFACE('',#225,31.0867574856639,80.0000000000002);
#115=VERTEX_LOOP('',#192);
#116=CYLINDRICAL_SURFACE('',#221,29.);
#117=CYLINDRICAL_SURFACE('',#228,37.0000000000218);
#118=PLANE('',#219);
#119=FACE_OUTER_BOUND('',#153,.T.);
#120=ADVANCED_FACE('',(#133,#134),#130,.T.);
#121=ADVANCED_FACE('',(#119),#118,.F.);
#122=ADVANCED_FACE('',(#135,#136),#116,.T.);
#123=ADVANCED_FACE('',(#137,#138),#131,.F.);
#124=ADVANCED_FACE('',(#139,#140),#114,.F.);
#125=ADVANCED_FACE('',(#141,#142),#111,.T.);
#126=ADVANCED_FACE('',(#143,#144),#117,.T.);
#127=ADVANCED_FACE('',(#145,#146),#132,.T.);
#128=ADVANCED_FACE('',(#147,#148),#32,.F.);
#129=ADVANCED_FACE('',(#149,#150),#33,.F.);
#130=TOROIDAL_SURFACE('',#218,27.,2.);
#131=TOROIDAL_SURFACE('',#223,69.,40.);
#132=TOROIDAL_SURFACE('',#229,32.,5.);
#133=FACE_BOUND('',#151,.T.);
#134=FACE_BOUND('',#152,.T.);
#135=FACE_BOUND('',#154,.T.);
#136=FACE_BOUND('',#155,.T.);
#137=FACE_BOUND('',#156,.T.);
#138=FACE_BOUND('',#157,.T.);
#139=FACE_BOUND('',#158,.T.);
#140=FACE_BOUND('',#115,.T.);
#141=FACE_BOUND('',#159,.T.);
#142=FACE_BOUND('',#160,.T.);
#143=FACE_BOUND('',#161,.T.);
#144=FACE_BOUND('',#162,.T.);
#145=FACE_BOUND('',#163,.T.);
#146=FACE_BOUND('',#164,.T.);
#147=FACE_BOUND('',#165,.T.);
#148=FACE_BOUND('',#166,.T.);
#149=FACE_BOUND('',#167,.T.);
#150=FACE_BOUND('',#168,.T.);
#151=EDGE_LOOP('',(#169));
#152=EDGE_LOOP('',(#170));
#153=EDGE_LOOP('',(#171));
#154=EDGE_LOOP('',(#172));
#155=EDGE_LOOP('',(#173));
#156=EDGE_LOOP('',(#174));
#157=EDGE_LOOP('',(#175));
#158=EDGE_LOOP('',(#176));
#159=EDGE_LOOP('',(#177));
#160=EDGE_LOOP('',(#178));
#161=EDGE_LOOP('',(#179));
#162=EDGE_LOOP('',(#180));
#163=EDGE_LOOP('',(#181));
#164=EDGE_LOOP('',(#182));
#165=EDGE_LOOP('',(#183));
#166=EDGE_LOOP('',(#184));
#167=EDGE_LOOP('',(#185));
#168=EDGE_LOOP('',(#186));
#169=ORIENTED_EDGE('',*,*,#197,.F.);
#170=ORIENTED_EDGE('',*,*,#198,.T.);
#171=ORIENTED_EDGE('',*,*,#198,.F.);
#172=ORIENTED_EDGE('',*,*,#197,.T.);
#173=ORIENTED_EDGE('',*,*,#199,.F.);
#174=ORIENTED_EDGE('',*,*,#200,.F.);
#175=ORIENTED_EDGE('',*,*,#199,.T.);
#176=ORIENTED_EDGE('',*,*,#201,.T.);
#177=ORIENTED_EDGE('',*,*,#201,.F.);
#178=ORIENTED_EDGE('',*,*,#202,.T.);
#179=ORIENTED_EDGE('',*,*,#202,.F.);
#180=ORIENTED_EDGE('',*,*,#203,.T.);
#181=ORIENTED_EDGE('',*,*,#203,.F.);
#182=ORIENTED_EDGE('',*,*,#200,.T.);
#183=ORIENTED_EDGE('',*,*,#204,.T.);
#184=ORIENTED_EDGE('',*,*,#205,.F.);
#185=ORIENTED_EDGE('',*,*,#205,.T.);
#186=ORIENTED_EDGE('',*,*,#204,.F.);
#187=VERTEX_POINT('',#269);
#188=VERTEX_POINT('',#271);
#189=VERTEX_POINT('',#275);
#190=VERTEX_POINT('',#278);
#191=VERTEX_POINT('',#281);
#192=VERTEX_POINT('',#282);
#193=VERTEX_POINT('',#285);
#194=VERTEX_POINT('',#354);
#195=VERTEX_POINT('',#358);
#196=VERTEX_POINT('',#360);
#197=EDGE_CURVE('',#187,#187,#206,.T.);
#198=EDGE_CURVE('',#188,#188,#207,.T.);
#199=EDGE_CURVE('',#189,#189,#208,.T.);
#200=EDGE_CURVE('',#190,#190,#209,.T.);
#201=EDGE_CURVE('',#191,#191,#210,.T.);
#202=EDGE_CURVE('',#193,#193,#211,.T.);
#203=EDGE_CURVE('',#194,#194,#212,.T.);
#204=EDGE_CURVE('',#195,#195,#213,.T.);
#205=EDGE_CURVE('',#196,#196,#214,.T.);
#206=CIRCLE('',#216,29.);
#207=CIRCLE('',#217,27.);
#208=CIRCLE('',#220,29.);
#209=CIRCLE('',#222,36.1111111111111);
#210=CIRCLE('',#224,31.0867574856639);
#211=CIRCLE('',#226,37.0000000000437);
#212=CIRCLE('',#227,37.);
#213=CIRCLE('',#230,5.);
#214=CIRCLE('',#231,5.);
#215=AXIS2_PLACEMENT_3D('',#267,#232,#233);
#216=AXIS2_PLACEMENT_3D('',#268,#234,#235);
#217=AXIS2_PLACEMENT_3D('',#270,#236,#237);
#218=AXIS2_PLACEMENT_3D('',#272,#238,#239);
#219=AXIS2_PLACEMENT_3D('',#273,#240,#241);
#220=AXIS2_PLACEMENT_3D('',#274,#242,#243);
#221=AXIS2_PLACEMENT_3D('',#276,#244,#245);
#222=AXIS2_PLACEMENT_3D('',#277,#246,#247);
#223=AXIS2_PLACEMENT_3D('',#279,#248,#249);
#224=AXIS2_PLACEMENT_3D('',#280,#250,#251);
#225=AXIS2_PLACEMENT_3D('',#283,#252,#253);
#226=AXIS2_PLACEMENT_3D('',#284,#254,#255);
#227=AXIS2_PLACEMENT_3D('',#353,#257,#258);
#228=AXIS2_PLACEMENT_3D('',#355,#259,#260);
#229=AXIS2_PLACEMENT_3D('',#356,#261,#262);
#230=AXIS2_PLACEMENT_3D('',#357,#263,#264);
#231=AXIS2_PLACEMENT_3D('',#359,#265,#266);
#232=DIRECTION('',(0.,0.,1.));
#233=DIRECTION('',(1.,0.,0.));
#234=DIRECTION('',(-1.,0.,0.));
#235=DIRECTION('',(0.,0.,1.));
#236=DIRECTION('',(-1.,0.,0.));
#237=DIRECTION('',(0.,0.,1.));
#238=DIRECTION('',(-1.,0.,0.));
#239=DIRECTION('',(0.,0.,1.));
#240=DIRECTION('',(-1.,0.,0.));
#241=DIRECTION('',(0.,0.,1.));
#242=DIRECTION('',(-1.,0.,0.));
#243=DIRECTION('',(0.,0.,1.));
#244=DIRECTION('',(-1.,0.,0.));
#245=DIRECTION('',(0.,0.,1.));
#246=DIRECTION('',(-1.,0.,0.));
#247=DIRECTION('',(0.,0.,1.));
#248=DIRECTION('',(-1.,0.,0.));
#249=DIRECTION('',(0.,0.,1.));
#250=DIRECTION('',(-1.,0.,0.));
#251=DIRECTION('',(0.,0.,1.));
#252=DIRECTION('',(-1.,0.,0.));
#253=DIRECTION('',(4.56316560176989E-19,0.,1.));
#254=DIRECTION('',(-1.,0.,0.));
#255=DIRECTION('',(0.,0.,1.));
#256=DIRECTION('',(-1.,0.,0.));
#257=DIRECTION('',(-1.,0.,0.));
#258=DIRECTION('',(0.,0.,1.));
#259=DIRECTION('',(-1.,0.,0.));
#260=DIRECTION('',(0.,0.,1.));
#261=DIRECTION('',(-1.,0.,0.));
#262=DIRECTION('',(0.,0.,1.));
#263=DIRECTION('',(0.0871557427476584,0.993022321778082,0.0794389385413199));
#264=DIRECTION('',(0.,-0.0797423823811637,0.996815505724193));
#265=DIRECTION('',(0.0871557427476584,-0.104130700906914,0.990737439302028));
#266=DIRECTION('',(0.,-0.994521895368274,-0.104528463267654));
#267=CARTESIAN_POINT('',(0.,0.,0.));
#268=CARTESIAN_POINT('',(48.,0.,0.));
#269=CARTESIAN_POINT('',(48.,0.,29.));
#270=CARTESIAN_POINT('',(50.,0.,0.));
#271=CARTESIAN_POINT('',(50.,0.,27.));
#272=CARTESIAN_POINT('',(48.,0.,0.));
#273=CARTESIAN_POINT('',(50.,17.5,0.));
#274=CARTESIAN_POINT('',(40.,0.,0.));
#275=CARTESIAN_POINT('',(40.,0.,29.));
#276=CARTESIAN_POINT('',(0.,0.,0.));
#277=CARTESIAN_POINT('',(17.2333360446832,0.,0.));
#278=CARTESIAN_POINT('',(17.2333360446832,0.,36.1111111111111));
#279=CARTESIAN_POINT('',(40.,0.,0.));
#280=CARTESIAN_POINT('',(3.,0.,0.));
#281=CARTESIAN_POINT('',(3.,0.,31.0867574856639));
#282=CARTESIAN_POINT('',(8.48143408746328,0.,0.));
#283=CARTESIAN_POINT('',(3.,0.,0.));
#284=CARTESIAN_POINT('',(8.16618823022019,0.,0.));
#285=CARTESIAN_POINT('',(8.16618823022019,0.,37.0000000000437));
#286=CARTESIAN_POINT('',(4.36276412580083,30.7490500423201,0.));
#287=CARTESIAN_POINT('',(4.90716625770022,30.7501741858585,0.));
#288=CARTESIAN_POINT('',(5.17644332118825,30.7776129713394,0.));
#289=CARTESIAN_POINT('',(5.70920048007046,30.8859202758543,0.));
#290=CARTESIAN_POINT('',(5.9672373060192,30.9658690156423,0.));
#291=CARTESIAN_POINT('',(6.46202015161488,31.1736165870096,0.));
#292=CARTESIAN_POINT('',(6.70182363261516,31.3031326130345,0.));
#293=CARTESIAN_POINT('',(7.15012670296195,31.6060242812171,0.));
#294=CARTESIAN_POINT('',(7.35670477504026,31.7774033332665,0.));
#295=CARTESIAN_POINT('',(7.73543160634688,32.1592138992209,0.));
#296=CARTESIAN_POINT('',(7.90866622571558,32.3719730839857,0.));
#297=CARTESIAN_POINT('',(8.20600886948731,32.8204922681782,0.));
#298=CARTESIAN_POINT('',(8.33196396211826,33.057471091266,0.));
#299=CARTESIAN_POINT('',(8.5378796554733,33.5571818921722,0.));
#300=CARTESIAN_POINT('',(8.61660295646968,33.8186127475339,0.));
#301=CARTESIAN_POINT('',(8.7208245021274,34.3451804667565,0.));
#302=CARTESIAN_POINT('',(8.7475044117976,34.6133732530116,0.));
#303=CARTESIAN_POINT('',(8.74762717307446,35.1572584228959,0.));
#304=CARTESIAN_POINT('',(8.72115428857307,35.4248457835566,0.));
#305=CARTESIAN_POINT('',(8.61704854518452,35.9516233187679,0.));
#306=CARTESIAN_POINT('',(8.53811189561025,36.2135750107059,0.));
#307=CARTESIAN_POINT('',(8.3321453919041,36.7125413077544,0.));
#308=CARTESIAN_POINT('',(8.20598359414115,36.9493955839901,0.));
#309=CARTESIAN_POINT('',(7.90746605121147,37.3979352814116,0.));
#310=CARTESIAN_POINT('',(7.73377025987261,37.6101103931322,0.));
#311=CARTESIAN_POINT('',(7.35413507318974,37.9904525488944,0.));
#312=CARTESIAN_POINT('',(7.14678098080995,38.1612379605943,0.));
#313=CARTESIAN_POINT('',(6.69595293222724,38.4628801972762,0.));
#314=CARTESIAN_POINT('',(6.45666887993104,38.5905010758323,0.));
#315=CARTESIAN_POINT('',(5.96075848916606,38.7956673979053,0.));
#316=CARTESIAN_POINT('',(5.7003319183262,38.8746186706752,0.));
#317=CARTESIAN_POINT('',(5.16904929161793,38.9793710629672,0.));
#318=CARTESIAN_POINT('',(4.90178970776303,39.0049854329996,0.));
#319=CARTESIAN_POINT('',(4.36410383957482,39.0038454945803,0.));
#320=CARTESIAN_POINT('',(4.09111008253601,38.9762044620229,0.));
#321=CARTESIAN_POINT('',(3.56356637655521,38.869383462316,0.));
#322=CARTESIAN_POINT('',(3.30700637147263,38.7906933941395,0.));
#323=CARTESIAN_POINT('',(2.80845836836668,38.5822342482504,0.));
#324=CARTESIAN_POINT('',(2.5681362532128,38.4524305021185,0.));
#325=CARTESIAN_POINT('',(2.1230138854843,38.1525056366958,0.));
#326=CARTESIAN_POINT('',(1.91524926270384,37.9811317491168,0.));
#327=CARTESIAN_POINT('',(1.53192052236185,37.595067251556,0.));
#328=CARTESIAN_POINT('',(1.36228720124097,37.3864353775031,0.));
#329=CARTESIAN_POINT('',(1.06527744188569,36.9392506058129,0.));
#330=CARTESIAN_POINT('',(0.936879817038666,36.6978597355359,0.));
#331=CARTESIAN_POINT('',(0.731370371256413,36.1984956337803,0.));
#332=CARTESIAN_POINT('',(0.653921680269364,35.9415788732068,0.));
#333=CARTESIAN_POINT('',(0.549167856573096,35.4134098731259,0.));
#334=CARTESIAN_POINT('',(0.522388481332329,35.140434877796,0.));
#335=CARTESIAN_POINT('',(0.522340522856858,34.6028577904926,0.));
#336=CARTESIAN_POINT('',(0.548219002617255,34.3355823746564,0.));
#337=CARTESIAN_POINT('',(0.653031366100332,33.8041308474748,0.));
#338=CARTESIAN_POINT('',(0.731680115113292,33.5438330948656,0.));
#339=CARTESIAN_POINT('',(0.935987897490232,33.0475378247999,0.));
#340=CARTESIAN_POINT('',(1.06306948392143,32.8078258304415,0.));
#341=CARTESIAN_POINT('',(1.36328592940511,32.3562077057855,0.));
#342=CARTESIAN_POINT('',(1.53334004367239,32.1482599455391,0.));
#343=CARTESIAN_POINT('',(1.91238622916547,31.7672328896017,0.));
#344=CARTESIAN_POINT('',(2.12397559481968,31.5927539588038,0.));
#345=CARTESIAN_POINT('',(2.57147277045542,31.2928434297378,0.));
#346=CARTESIAN_POINT('',(2.8079626892005,31.1659933378393,0.));
#347=CARTESIAN_POINT('',(3.3066502483201,30.9589116234689,0.));
#348=CARTESIAN_POINT('',(3.56841309359677,30.87965694674,0.));
#349=CARTESIAN_POINT('',(4.0950860058185,30.7753776963388,0.));
#350=CARTESIAN_POINT('',(4.36276412580083,30.7490500423201,0.));
#351=CARTESIAN_POINT('',(4.90716625770022,30.7501741858585,0.));
#352=CARTESIAN_POINT('',(0.,0.,0.));
#353=CARTESIAN_POINT('',(14.3875030502686,0.,0.));
#354=CARTESIAN_POINT('',(14.3875030502686,0.,37.));
#355=CARTESIAN_POINT('',(0.,0.,0.));
#356=CARTESIAN_POINT('',(14.3875030502686,0.,0.));
#357=CARTESIAN_POINT('',(4.98097349045873,0.438289601859436,35.0158143539457));
#358=CARTESIAN_POINT('',(4.98097349045873,0.0395776899536175,39.9998918825666));
#359=CARTESIAN_POINT('',(4.98097349045873,-35.0158753207282,-0.433391472348155));
#360=CARTESIAN_POINT('',(4.98097349045873,-39.9884847975696,-0.956033788686423));
#361=CARTESIAN_POINT('',(4.98097349045873,-39.9884847975695,-0.956033788686424));
#362=CARTESIAN_POINT('',(4.98097349045873,-38.9968808446253,-42.4323289434869));
#363=CARTESIAN_POINT('',(4.98097349045873,-0.392133559759807,-57.6290333638305));
#364=CARTESIAN_POINT('',(4.98097349045873,28.6063936327271,-27.9583111138714));
#365=CARTESIAN_POINT('',(4.98097349045873,57.6049208252141,1.71241113608762));
#366=CARTESIAN_POINT('',(4.98097349045873,41.5277043414109,39.9588416662763));
#367=CARTESIAN_POINT('',(4.98097349045873,0.0395776899536244,39.9998918825667));
#368=CARTESIAN_POINT('',(14.9429204713762,-39.8973822390259,-1.82281673338273));
#369=CARTESIAN_POINT('',(14.9429204713762,-38.0067458413326,-43.2046197705988));
#370=CARTESIAN_POINT('',(14.9429204713762,0.860135896043234,-57.5361804885413));
#371=CARTESIAN_POINT('',(14.9429204713762,29.1632700187655,-27.2878627265496));
#372=CARTESIAN_POINT('',(14.9429204713762,57.4664041414877,2.96045503544218));
#373=CARTESIAN_POINT('',(14.9429204713762,40.5868365005814,40.7904474337404));
#374=CARTESIAN_POINT('',(14.9429204713762,-0.829204267884113,39.9303918169176));
#375=CARTESIAN_POINT('',(14.9429204713762,-29.9521632853432,-0.777532100706194));
#376=CARTESIAN_POINT('',(14.9429204713762,-29.1457023487892,-31.8440946683176));
#377=CARTESIAN_POINT('',(14.9429204713762,-0.205231369060484,-43.1679998463462));
#378=CARTESIAN_POINT('',(14.9429204713762,21.4707374766126,-20.8984227598609));
#379=CARTESIAN_POINT('',(14.9429204713762,43.1467063222857,1.37115432662446));
#380=CARTESIAN_POINT('',(14.9429204713762,31.0452303912532,29.9951996259902));
#381=CARTESIAN_POINT('',(14.9429204713762,-0.031780444072484,29.9622367596757));
#382=CARTESIAN_POINT('',(4.98097349045873,-30.0432658438869,0.0892508439901138));
#383=CARTESIAN_POINT('',(4.98097349045873,-30.135837352082,-31.0718038412057));
#384=CARTESIAN_POINT('',(4.98097349045873,-1.45750082486354,-43.2608527216353));
#385=CARTESIAN_POINT('',(4.98097349045873,20.9138610905743,-21.5688711471828));
#386=CARTESIAN_POINT('',(4.98097349045873,43.2852230060121,0.123110427269878));
#387=CARTESIAN_POINT('',(4.98097349045873,31.9860982320827,29.1635938585261));
#388=CARTESIAN_POINT('',(4.98097349045873,0.837001513765265,30.0317368253247));
#389=CARTESIAN_POINT('',(-4.98097349045872,-30.1343684024304,0.956033788686422));
#390=CARTESIAN_POINT('',(-4.98097349045872,-31.1259723553747,-30.2995130140937));
#391=CARTESIAN_POINT('',(-4.98097349045872,-2.70977028066658,-43.3537055969245));
#392=CARTESIAN_POINT('',(-4.98097349045872,20.356984704536,-22.2393195345046));
#393=CARTESIAN_POINT('',(-4.98097349045872,43.4237396897385,-1.12493347208469));
#394=CARTESIAN_POINT('',(-4.98097349045872,32.9269660729121,28.331988091062));
#395=CARTESIAN_POINT('',(-4.98097349045872,1.70578347160301,30.1012368909737));
#396=CARTESIAN_POINT('',(-4.98097349045872,-40.0795873561132,-0.089250843990115));
#397=CARTESIAN_POINT('',(-4.98097349045872,-39.987015847918,-41.660038116375));
#398=CARTESIAN_POINT('',(-4.98097349045872,-1.64440301556286,-57.7218862391197));
#399=CARTESIAN_POINT('',(-4.98097349045872,28.0495172466888,-28.6287595011933));
#400=CARTESIAN_POINT('',(-4.98097349045872,57.7434375089404,0.464367236733043));
#401=CARTESIAN_POINT('',(-4.98097349045872,42.4685721822405,39.1272358988122));
#402=CARTESIAN_POINT('',(-4.98097349045872,0.908359647791374,40.0693919482156));
#403=CARTESIAN_POINT('',(4.98097349045873,-39.9884847975695,-0.956033788686424));
#404=CARTESIAN_POINT('',(4.98097349045873,-38.9968808446253,-42.4323289434869));
#405=CARTESIAN_POINT('',(4.98097349045873,-0.392133559759807,-57.6290333638305));
#406=CARTESIAN_POINT('',(4.98097349045873,28.6063936327271,-27.9583111138714));
#407=CARTESIAN_POINT('',(4.98097349045873,57.6049208252141,1.71241113608762));
#408=CARTESIAN_POINT('',(4.98097349045873,41.5277043414109,39.9588416662763));
#409=CARTESIAN_POINT('',(4.98097349045873,0.0395776899536244,39.9998918825667));
#410=CARTESIAN_POINT('',(4.98097349045873,0.0395776899536174,39.9998918825667));
#411=CARTESIAN_POINT('',(4.98097349045872,-23.8569347767548,40.0235361655101));
#412=CARTESIAN_POINT('',(4.98097349045872,-40.5596331750954,22.9336639208811));
#413=CARTESIAN_POINT('',(4.98097349045873,-39.9884847975695,-0.956033788686427));
#414=CARTESIAN_POINT('',(14.9429204713762,-0.829204267884128,39.9303918169176));
#415=CARTESIAN_POINT('',(14.9429204713762,-24.6841963927353,39.4350132248176));
#416=CARTESIAN_POINT('',(14.9429204713762,-40.9863592523061,22.0124549934252));
#417=CARTESIAN_POINT('',(14.9429204713762,-39.8973822390259,-1.82281673338273));
#418=CARTESIAN_POINT('',(14.9429204713762,-0.0317804440724917,29.9622367596757));
#419=CARTESIAN_POINT('',(14.9429204713762,-17.9316529327308,29.9432506639081));
#420=CARTESIAN_POINT('',(14.9429204713762,-30.4166721793257,17.1163223490615));
#421=CARTESIAN_POINT('',(14.9429204713762,-29.9521632853432,-0.777532100706196));
#422=CARTESIAN_POINT('',(4.98097349045873,0.837001513765255,30.0317368253247));
#423=CARTESIAN_POINT('',(4.98097349045872,-17.1043913167503,30.5317736046007));
#424=CARTESIAN_POINT('',(4.98097349045872,-29.9899461021151,18.0375312765174));
#425=CARTESIAN_POINT('',(4.98097349045873,-30.0432658438869,0.0892508439901118));
#426=CARTESIAN_POINT('',(-4.98097349045872,1.705783471603,30.1012368909737));
#427=CARTESIAN_POINT('',(-4.98097349045873,-16.2771297007699,31.1202965452932));
#428=CARTESIAN_POINT('',(-4.98097349045873,-29.5632200249046,18.9587402039733));
#429=CARTESIAN_POINT('',(-4.98097349045872,-30.1343684024304,0.956033788686421));
#430=CARTESIAN_POINT('',(-4.98097349045872,0.908359647791364,40.0693919482156));
#431=CARTESIAN_POINT('',(-4.98097349045873,-23.0296731607744,40.6120591062027));
#432=CARTESIAN_POINT('',(-4.98097349045873,-40.1329070978849,23.8548728483371));
#433=CARTESIAN_POINT('',(-4.98097349045872,-40.0795873561132,-0.0892508439901179));
#434=CARTESIAN_POINT('',(4.98097349045873,0.0395776899536174,39.9998918825667));
#435=CARTESIAN_POINT('',(4.98097349045872,-23.8569347767548,40.0235361655101));
#436=CARTESIAN_POINT('',(4.98097349045872,-40.5596331750954,22.9336639208811));
#437=CARTESIAN_POINT('',(4.98097349045873,-39.9884847975695,-0.956033788686427));
#438=(
GEOMETRIC_REPRESENTATION_CONTEXT(3)
GLOBAL_UNCERTAINTY_ASSIGNED_CONTEXT((#439))
GLOBAL_UNIT_ASSIGNED_CONTEXT((#445,#441,#440))
REPRESENTATION_CONTEXT('model1','TOP_LEVEL_ASSEMBLY_PART')
);
#439=UNCERTAINTY_MEASURE_WITH_UNIT(LENGTH_MEASURE(2.E-5),#445,
'DISTANCE_ACCURACY_VALUE','Maximum Tolerance applied to model');
#440=(
NAMED_UNIT(*)
SI_UNIT($,.STERADIAN.)
SOLID_ANGLE_UNIT()
);
#441=(
CONVERSION_BASED_UNIT('DEGREE',#443)
NAMED_UNIT(#442)
PLANE_ANGLE_UNIT()
);
#442=DIMENSIONAL_EXPONENTS(0.,0.,0.,0.,0.,0.,0.);
#443=PLANE_ANGLE_MEASURE_WITH_UNIT(PLANE_ANGLE_MEASURE(0.0174532925),#444);
#444=(
NAMED_UNIT(*)
PLANE_ANGLE_UNIT()
SI_UNIT($,.RADIAN.)
);
#445=(
LENGTH_UNIT()
NAMED_UNIT(*)
SI_UNIT(.MILLI.,.METRE.)
);
ENDSEC;
END-ISO-10303-21;
