ISO-10303-21;
HEADER;
/* Generated by software containing ST-Developer
 * from STEP Tools, Inc. (www.steptools.com) 
 */
/* OPTION: using custom schema-name function */

FILE_DESCRIPTION(
/* description */ (''),
/* implementation_level */ '2;1');

FILE_NAME(
/* name */ 'model1.stp',
/* time_stamp */ '2023-11-06T15:32:03+03:00',
/* author */ (''),
/* organization */ (''),
/* preprocessor_version */ 'ST-DEVELOPER v19.4',
/* originating_system */ 'SIEMENS PLM Software NX2306.3001',
/* authorisation */ '');

FILE_SCHEMA (('AUTOMOTIVE_DESIGN { 1 0 10303 214 3 1 1 1 }'));
ENDSEC;

DATA;
#10=PROPERTY_DEFINITION_REPRESENTATION(#14,#12);
#11=PROPERTY_DEFINITION_REPRESENTATION(#15,#13);
#12=REPRESENTATION('',(#16),#519);
#13=REPRESENTATION('',(#17),#519);
#14=PROPERTY_DEFINITION('pmi validation property','',#21);
#15=PROPERTY_DEFINITION('pmi validation property','',#21);
#16=VALUE_REPRESENTATION_ITEM('number of annotations',COUNT_MEASURE(0.));
#17=VALUE_REPRESENTATION_ITEM('number of views',COUNT_MEASURE(0.));
#18=SHAPE_REPRESENTATION_RELATIONSHIP('None',
'relationship between model1_objects-None and model1_objects-None',#30,
#19);
#19=ADVANCED_BREP_SHAPE_REPRESENTATION('model1_objects-None',(#128,#129),
#519);
#20=SHAPE_DEFINITION_REPRESENTATION(#21,#30);
#21=PRODUCT_DEFINITION_SHAPE('','',#22);
#22=PRODUCT_DEFINITION(' ','',#24,#23);
#23=PRODUCT_DEFINITION_CONTEXT('part definition',#29,'design');
#24=PRODUCT_DEFINITION_FORMATION_WITH_SPECIFIED_SOURCE(' ',' ',#26,
 .NOT_KNOWN.);
#25=PRODUCT_RELATED_PRODUCT_CATEGORY('part','',(#26));
#26=PRODUCT('model1_objects','model1_objects',' ',(#27));
#27=PRODUCT_CONTEXT(' ',#29,'mechanical');
#28=APPLICATION_PROTOCOL_DEFINITION('international standard',
'automotive_design',2010,#29);
#29=APPLICATION_CONTEXT(
'core data for automotive mechanical design processes');
#30=SHAPE_REPRESENTATION('model1_objects-None',(#269),#519);
#31=DRAUGHTING_PRE_DEFINED_COLOUR('yellow');
#32=(
BOUNDED_SURFACE()
B_SPLINE_SURFACE(3,3,((#442,#443,#444,#445,#446,#447,#448),(#449,#450,#451,
#452,#453,#454,#455),(#456,#457,#458,#459,#460,#461,#462),(#463,#464,#465,
#466,#467,#468,#469),(#470,#471,#472,#473,#474,#475,#476),(#477,#478,#479,
#480,#481,#482,#483),(#484,#485,#486,#487,#488,#489,#490)),
 .UNSPECIFIED.,.T.,.F.,.F.)
B_SPLINE_SURFACE_WITH_KNOTS((1,3,3,3,1),(4,3,4),(-0.5,0.,0.5,1.,1.5),(0.,
0.5,1.),.UNSPECIFIED.)
GEOMETRIC_REPRESENTATION_ITEM()
RATIONAL_B_SPLINE_SURFACE(((1.,0.587939105902059,0.587939105902059,1.,0.587939105902059,
0.587939105902059,1.),(0.333333333333334,0.195979701967353,0.195979701967353,
0.333333333333334,0.195979701967353,0.195979701967353,0.333333333333334),
(0.333333333333334,0.195979701967353,0.195979701967353,0.333333333333334,
0.195979701967353,0.195979701967353,0.333333333333334),(1.,0.587939105902059,
0.587939105902059,1.,0.587939105902059,0.587939105902059,1.),(0.333333333333334,
0.195979701967353,0.195979701967353,0.333333333333334,0.195979701967353,
0.195979701967353,0.333333333333334),(0.333333333333334,0.195979701967353,
0.195979701967353,0.333333333333334,0.195979701967353,0.195979701967353,
0.333333333333334),(1.,0.587939105902059,0.587939105902059,1.,0.587939105902059,
0.587939105902059,1.)))
REPRESENTATION_ITEM('')
SURFACE()
);
#33=(
BOUNDED_SURFACE()
B_SPLINE_SURFACE(3,3,((#491,#492,#493,#494),(#495,#496,#497,#498),(#499,
#500,#501,#502),(#503,#504,#505,#506),(#507,#508,#509,#510),(#511,#512,
#513,#514),(#515,#516,#517,#518)),.UNSPECIFIED.,.T.,.F.,.F.)
B_SPLINE_SURFACE_WITH_KNOTS((1,3,3,3,1),(4,4),(-0.5,0.,0.5,1.,1.5),(0.,
1.),.UNSPECIFIED.)
GEOMETRIC_REPRESENTATION_ITEM()
RATIONAL_B_SPLINE_SURFACE(((1.,0.805527701724047,0.805527701724047,1.),
(0.333333333333334,0.268509233908016,0.268509233908016,0.333333333333334),
(0.333333333333334,0.268509233908016,0.268509233908016,0.333333333333334),
(1.,0.805527701724047,0.805527701724047,1.),(0.333333333333334,0.268509233908016,
0.268509233908016,0.333333333333334),(0.333333333333334,0.268509233908016,
0.268509233908016,0.333333333333334),(1.,0.805527701724047,0.805527701724047,
1.)))
REPRESENTATION_ITEM('')
SURFACE()
);
#34=OVER_RIDING_STYLED_ITEM('',(#49),#144,#46);
#35=OVER_RIDING_STYLED_ITEM('',(#50),#145,#46);
#36=OVER_RIDING_STYLED_ITEM('',(#51),#146,#46);
#37=OVER_RIDING_STYLED_ITEM('',(#52),#147,#46);
#38=OVER_RIDING_STYLED_ITEM('',(#53),#148,#46);
#39=OVER_RIDING_STYLED_ITEM('',(#54),#149,#46);
#40=OVER_RIDING_STYLED_ITEM('',(#55),#150,#46);
#41=OVER_RIDING_STYLED_ITEM('',(#56),#151,#46);
#42=OVER_RIDING_STYLED_ITEM('',(#57),#152,#46);
#43=OVER_RIDING_STYLED_ITEM('',(#58),#153,#46);
#44=OVER_RIDING_STYLED_ITEM('',(#59),#154,#46);
#45=PRESENTATION_LAYER_ASSIGNMENT('1','Layer 1',(#128,#129));
#46=STYLED_ITEM('',(#48),#128);
#47=STYLED_ITEM('',(#60),#129);
#48=PRESENTATION_STYLE_ASSIGNMENT((#61));
#49=PRESENTATION_STYLE_ASSIGNMENT((#62));
#50=PRESENTATION_STYLE_ASSIGNMENT((#63));
#51=PRESENTATION_STYLE_ASSIGNMENT((#64));
#52=PRESENTATION_STYLE_ASSIGNMENT((#65));
#53=PRESENTATION_STYLE_ASSIGNMENT((#66));
#54=PRESENTATION_STYLE_ASSIGNMENT((#67));
#55=PRESENTATION_STYLE_ASSIGNMENT((#68));
#56=PRESENTATION_STYLE_ASSIGNMENT((#69));
#57=PRESENTATION_STYLE_ASSIGNMENT((#70));
#58=PRESENTATION_STYLE_ASSIGNMENT((#71));
#59=PRESENTATION_STYLE_ASSIGNMENT((#72));
#60=PRESENTATION_STYLE_ASSIGNMENT((#73));
#61=SURFACE_STYLE_USAGE(.BOTH.,#74);
#62=SURFACE_STYLE_USAGE(.BOTH.,#75);
#63=SURFACE_STYLE_USAGE(.BOTH.,#76);
#64=SURFACE_STYLE_USAGE(.BOTH.,#77);
#65=SURFACE_STYLE_USAGE(.BOTH.,#78);
#66=SURFACE_STYLE_USAGE(.BOTH.,#79);
#67=SURFACE_STYLE_USAGE(.BOTH.,#80);
#68=SURFACE_STYLE_USAGE(.BOTH.,#81);
#69=SURFACE_STYLE_USAGE(.BOTH.,#82);
#70=SURFACE_STYLE_USAGE(.BOTH.,#83);
#71=SURFACE_STYLE_USAGE(.BOTH.,#84);
#72=SURFACE_STYLE_USAGE(.BOTH.,#85);
#73=SURFACE_STYLE_USAGE(.BOTH.,#86);
#74=SURFACE_SIDE_STYLE('',(#87));
#75=SURFACE_SIDE_STYLE('',(#88));
#76=SURFACE_SIDE_STYLE('',(#89));
#77=SURFACE_SIDE_STYLE('',(#90));
#78=SURFACE_SIDE_STYLE('',(#91));
#79=SURFACE_SIDE_STYLE('',(#92));
#80=SURFACE_SIDE_STYLE('',(#93));
#81=SURFACE_SIDE_STYLE('',(#94));
#82=SURFACE_SIDE_STYLE('',(#95));
#83=SURFACE_SIDE_STYLE('',(#96));
#84=SURFACE_SIDE_STYLE('',(#97));
#85=SURFACE_SIDE_STYLE('',(#98));
#86=SURFACE_SIDE_STYLE('',(#99));
#87=SURFACE_STYLE_FILL_AREA(#100);
#88=SURFACE_STYLE_FILL_AREA(#101);
#89=SURFACE_STYLE_FILL_AREA(#102);
#90=SURFACE_STYLE_FILL_AREA(#103);
#91=SURFACE_STYLE_FILL_AREA(#104);
#92=SURFACE_STYLE_FILL_AREA(#105);
#93=SURFACE_STYLE_FILL_AREA(#106);
#94=SURFACE_STYLE_FILL_AREA(#107);
#95=SURFACE_STYLE_FILL_AREA(#108);
#96=SURFACE_STYLE_FILL_AREA(#109);
#97=SURFACE_STYLE_FILL_AREA(#110);
#98=SURFACE_STYLE_FILL_AREA(#111);
#99=SURFACE_STYLE_FILL_AREA(#112);
#100=FILL_AREA_STYLE('',(#113));
#101=FILL_AREA_STYLE('',(#114));
#102=FILL_AREA_STYLE('',(#115));
#103=FILL_AREA_STYLE('',(#116));
#104=FILL_AREA_STYLE('',(#117));
#105=FILL_AREA_STYLE('',(#118));
#106=FILL_AREA_STYLE('',(#119));
#107=FILL_AREA_STYLE('',(#120));
#108=FILL_AREA_STYLE('',(#121));
#109=FILL_AREA_STYLE('',(#122));
#110=FILL_AREA_STYLE('',(#123));
#111=FILL_AREA_STYLE('',(#124));
#112=FILL_AREA_STYLE('',(#125));
#113=FILL_AREA_STYLE_COLOUR('',#126);
#114=FILL_AREA_STYLE_COLOUR('',#127);
#115=FILL_AREA_STYLE_COLOUR('',#127);
#116=FILL_AREA_STYLE_COLOUR('',#127);
#117=FILL_AREA_STYLE_COLOUR('',#127);
#118=FILL_AREA_STYLE_COLOUR('',#127);
#119=FILL_AREA_STYLE_COLOUR('',#127);
#120=FILL_AREA_STYLE_COLOUR('',#127);
#121=FILL_AREA_STYLE_COLOUR('',#127);
#122=FILL_AREA_STYLE_COLOUR('',#127);
#123=FILL_AREA_STYLE_COLOUR('',#127);
#124=FILL_AREA_STYLE_COLOUR('',#127);
#125=FILL_AREA_STYLE_COLOUR('',#31);
#126=COLOUR_RGB('Medium Steel',0.611764705882353,0.658823529411765,0.670588235294118);
#127=COLOUR_RGB('silver gray',0.6,0.6,0.6);
#128=MANIFOLD_SOLID_BREP('',#130);
#129=MANIFOLD_SOLID_BREP('',#131);
#130=CLOSED_SHELL('',(#144,#145,#146,#147,#148,#149,#150,#151,#152,#153,
#154));
#131=CLOSED_SHELL('',(#155,#156));
#132=VERTEX_LOOP('',#242);
#133=SURFACE_OF_REVOLUTION('',#135,#134);
#134=AXIS1_PLACEMENT('',#435,#332);
#135=B_SPLINE_CURVE_WITH_KNOTS('',3,(#369,#370,#371,#372,#373,#374,#375,
#376,#377,#378,#379,#380,#381,#382,#383,#384,#385,#386,#387,#388,#389,#390,
#391,#392,#393,#394,#395,#396,#397,#398,#399,#400,#401,#402,#403,#404,#405,
#406,#407,#408,#409,#410,#411,#412,#413,#414,#415,#416,#417,#418,#419,#420,
#421,#422,#423,#424,#425,#426,#427,#428,#429,#430,#431,#432,#433,#434),
 .UNSPECIFIED.,.T.,.F.,(2,2,2,2,2,2,2,2,2,2,2,2,2,2,2,2,2,2,2,2,2,2,2,2,
2,2,2,2,2,2,2,2,2,2,2),(-0.03125,0.,0.03125,0.0625,0.09375,0.125,0.15625,
0.1875,0.21875,0.25,0.28125,0.3125,0.34375,0.375,0.40625,0.4375,0.46875,
0.5,0.53125,0.5625,0.59375,0.625,0.65625,0.6875,0.71875,0.75,0.78125,0.8125,
0.84375,0.875,0.90625,0.9375,0.96875,1.,1.03125),.UNSPECIFIED.);
#136=CONICAL_SURFACE('',#277,24.,30.);
#137=CONICAL_SURFACE('',#289,22.7261731877348,75.0000000000002);
#138=TOROIDAL_SURFACE('',#275,22.5,1.5);
#139=TOROIDAL_SURFACE('',#281,83.8,60.);
#140=TOROIDAL_SURFACE('',#283,25.,5.);
#141=TOROIDAL_SURFACE('',#287,31.,0.999999999999969);
#142=PLANE('',#274);
#143=FACE_OUTER_BOUND('',#186,.T.);
#144=ADVANCED_FACE('',(#160,#161),#157,.T.);
#145=ADVANCED_FACE('',(#143),#142,.F.);
#146=ADVANCED_FACE('',(#162,#163),#138,.T.);
#147=ADVANCED_FACE('',(#164,#165),#136,.T.);
#148=ADVANCED_FACE('',(#166,#167),#158,.T.);
#149=ADVANCED_FACE('',(#168,#169),#139,.F.);
#150=ADVANCED_FACE('',(#170,#171),#140,.T.);
#151=ADVANCED_FACE('',(#172,#173),#159,.T.);
#152=ADVANCED_FACE('',(#174,#175),#141,.F.);
#153=ADVANCED_FACE('',(#176,#177),#133,.T.);
#154=ADVANCED_FACE('',(#178,#179),#137,.F.);
#155=ADVANCED_FACE('',(#180,#181),#32,.F.);
#156=ADVANCED_FACE('',(#182,#183),#33,.F.);
#157=CYLINDRICAL_SURFACE('',#272,24.);
#158=CYLINDRICAL_SURFACE('',#279,23.8);
#159=CYLINDRICAL_SURFACE('',#285,30.);
#160=FACE_BOUND('',#184,.T.);
#161=FACE_BOUND('',#185,.T.);
#162=FACE_BOUND('',#187,.T.);
#163=FACE_BOUND('',#188,.T.);
#164=FACE_BOUND('',#189,.T.);
#165=FACE_BOUND('',#190,.T.);
#166=FACE_BOUND('',#191,.T.);
#167=FACE_BOUND('',#192,.T.);
#168=FACE_BOUND('',#193,.T.);
#169=FACE_BOUND('',#194,.T.);
#170=FACE_BOUND('',#195,.T.);
#171=FACE_BOUND('',#196,.T.);
#172=FACE_BOUND('',#197,.T.);
#173=FACE_BOUND('',#198,.T.);
#174=FACE_BOUND('',#199,.T.);
#175=FACE_BOUND('',#200,.T.);
#176=FACE_BOUND('',#201,.T.);
#177=FACE_BOUND('',#202,.T.);
#178=FACE_BOUND('',#203,.T.);
#179=FACE_BOUND('',#132,.T.);
#180=FACE_BOUND('',#204,.T.);
#181=FACE_BOUND('',#205,.T.);
#182=FACE_BOUND('',#206,.T.);
#183=FACE_BOUND('',#207,.T.);
#184=EDGE_LOOP('',(#208));
#185=EDGE_LOOP('',(#209));
#186=EDGE_LOOP('',(#210));
#187=EDGE_LOOP('',(#211));
#188=EDGE_LOOP('',(#212));
#189=EDGE_LOOP('',(#213));
#190=EDGE_LOOP('',(#214));
#191=EDGE_LOOP('',(#215));
#192=EDGE_LOOP('',(#216));
#193=EDGE_LOOP('',(#217));
#194=EDGE_LOOP('',(#218));
#195=EDGE_LOOP('',(#219));
#196=EDGE_LOOP('',(#220));
#197=EDGE_LOOP('',(#221));
#198=EDGE_LOOP('',(#222));
#199=EDGE_LOOP('',(#223));
#200=EDGE_LOOP('',(#224));
#201=EDGE_LOOP('',(#225));
#202=EDGE_LOOP('',(#226));
#203=EDGE_LOOP('',(#227));
#204=EDGE_LOOP('',(#228));
#205=EDGE_LOOP('',(#229));
#206=EDGE_LOOP('',(#230));
#207=EDGE_LOOP('',(#231));
#208=ORIENTED_EDGE('',*,*,#245,.T.);
#209=ORIENTED_EDGE('',*,*,#246,.F.);
#210=ORIENTED_EDGE('',*,*,#247,.F.);
#211=ORIENTED_EDGE('',*,*,#245,.F.);
#212=ORIENTED_EDGE('',*,*,#247,.T.);
#213=ORIENTED_EDGE('',*,*,#248,.F.);
#214=ORIENTED_EDGE('',*,*,#246,.T.);
#215=ORIENTED_EDGE('',*,*,#249,.F.);
#216=ORIENTED_EDGE('',*,*,#248,.T.);
#217=ORIENTED_EDGE('',*,*,#250,.F.);
#218=ORIENTED_EDGE('',*,*,#249,.T.);
#219=ORIENTED_EDGE('',*,*,#251,.F.);
#220=ORIENTED_EDGE('',*,*,#250,.T.);
#221=ORIENTED_EDGE('',*,*,#252,.F.);
#222=ORIENTED_EDGE('',*,*,#251,.T.);
#223=ORIENTED_EDGE('',*,*,#253,.F.);
#224=ORIENTED_EDGE('',*,*,#252,.T.);
#225=ORIENTED_EDGE('',*,*,#254,.F.);
#226=ORIENTED_EDGE('',*,*,#253,.T.);
#227=ORIENTED_EDGE('',*,*,#254,.T.);
#228=ORIENTED_EDGE('',*,*,#255,.T.);
#229=ORIENTED_EDGE('',*,*,#256,.F.);
#230=ORIENTED_EDGE('',*,*,#256,.T.);
#231=ORIENTED_EDGE('',*,*,#255,.F.);
#232=VERTEX_POINT('',#341);
#233=VERTEX_POINT('',#343);
#234=VERTEX_POINT('',#346);
#235=VERTEX_POINT('',#350);
#236=VERTEX_POINT('',#353);
#237=VERTEX_POINT('',#356);
#238=VERTEX_POINT('',#359);
#239=VERTEX_POINT('',#362);
#240=VERTEX_POINT('',#365);
#241=VERTEX_POINT('',#368);
#242=VERTEX_POINT('',#436);
#243=VERTEX_POINT('',#439);
#244=VERTEX_POINT('',#441);
#245=EDGE_CURVE('',#232,#232,#257,.T.);
#246=EDGE_CURVE('',#233,#233,#258,.T.);
#247=EDGE_CURVE('',#234,#234,#259,.T.);
#248=EDGE_CURVE('',#235,#235,#260,.T.);
#249=EDGE_CURVE('',#236,#236,#261,.T.);
#250=EDGE_CURVE('',#237,#237,#262,.T.);
#251=EDGE_CURVE('',#238,#238,#263,.T.);
#252=EDGE_CURVE('',#239,#239,#264,.T.);
#253=EDGE_CURVE('',#240,#240,#265,.T.);
#254=EDGE_CURVE('',#241,#241,#266,.T.);
#255=EDGE_CURVE('',#243,#243,#267,.T.);
#256=EDGE_CURVE('',#244,#244,#268,.T.);
#257=CIRCLE('',#270,24.);
#258=CIRCLE('',#271,24.);
#259=CIRCLE('',#273,22.5);
#260=CIRCLE('',#276,23.8);
#261=CIRCLE('',#278,23.8);
#262=CIRCLE('',#280,29.5230769230769);
#263=CIRCLE('',#282,30.);
#264=CIRCLE('',#284,30.);
#265=CIRCLE('',#286,30.0584960818805);
#266=CIRCLE('',#288,22.7261731877348);
#267=CIRCLE('',#290,5.);
#268=CIRCLE('',#291,5.);
#269=AXIS2_PLACEMENT_3D('',#339,#292,#293);
#270=AXIS2_PLACEMENT_3D('',#340,#294,#295);
#271=AXIS2_PLACEMENT_3D('',#342,#296,#297);
#272=AXIS2_PLACEMENT_3D('',#344,#298,#299);
#273=AXIS2_PLACEMENT_3D('',#345,#300,#301);
#274=AXIS2_PLACEMENT_3D('',#347,#302,#303);
#275=AXIS2_PLACEMENT_3D('',#348,#304,#305);
#276=AXIS2_PLACEMENT_3D('',#349,#306,#307);
#277=AXIS2_PLACEMENT_3D('',#351,#308,#309);
#278=AXIS2_PLACEMENT_3D('',#352,#310,#311);
#279=AXIS2_PLACEMENT_3D('',#354,#312,#313);
#280=AXIS2_PLACEMENT_3D('',#355,#314,#315);
#281=AXIS2_PLACEMENT_3D('',#357,#316,#317);
#282=AXIS2_PLACEMENT_3D('',#358,#318,#319);
#283=AXIS2_PLACEMENT_3D('',#360,#320,#321);
#284=AXIS2_PLACEMENT_3D('',#361,#322,#323);
#285=AXIS2_PLACEMENT_3D('',#363,#324,#325);
#286=AXIS2_PLACEMENT_3D('',#364,#326,#327);
#287=AXIS2_PLACEMENT_3D('',#366,#328,#329);
#288=AXIS2_PLACEMENT_3D('',#367,#330,#331);
#289=AXIS2_PLACEMENT_3D('',#437,#333,#334);
#290=AXIS2_PLACEMENT_3D('',#438,#335,#336);
#291=AXIS2_PLACEMENT_3D('',#440,#337,#338);
#292=DIRECTION('',(0.,0.,1.));
#293=DIRECTION('',(1.,0.,0.));
#294=DIRECTION('',(-1.,0.,0.));
#295=DIRECTION('',(0.,0.,1.));
#296=DIRECTION('',(-1.,0.,0.));
#297=DIRECTION('',(0.,0.,1.));
#298=DIRECTION('',(-1.,0.,0.));
#299=DIRECTION('',(0.,0.,1.));
#300=DIRECTION('',(-1.,0.,0.));
#301=DIRECTION('',(0.,0.,1.));
#302=DIRECTION('',(-1.,0.,0.));
#303=DIRECTION('',(0.,0.,1.));
#304=DIRECTION('',(-1.,0.,0.));
#305=DIRECTION('',(0.,0.,1.));
#306=DIRECTION('',(-1.,0.,0.));
#307=DIRECTION('',(0.,0.,1.));
#308=DIRECTION('',(1.,0.,0.));
#309=DIRECTION('',(-1.26927411283674E-16,0.,-1.));
#310=DIRECTION('',(-1.,0.,0.));
#311=DIRECTION('',(0.,0.,1.));
#312=DIRECTION('',(-1.,0.,0.));
#313=DIRECTION('',(0.,0.,1.));
#314=DIRECTION('',(-1.,0.,0.));
#315=DIRECTION('',(0.,0.,1.));
#316=DIRECTION('',(-1.,0.,0.));
#317=DIRECTION('',(0.,0.,1.));
#318=DIRECTION('',(-1.,0.,0.));
#319=DIRECTION('',(0.,0.,1.));
#320=DIRECTION('',(-1.,0.,0.));
#321=DIRECTION('',(0.,0.,1.));
#322=DIRECTION('',(-1.,0.,0.));
#323=DIRECTION('',(0.,0.,1.));
#324=DIRECTION('',(-1.,0.,0.));
#325=DIRECTION('',(0.,0.,1.));
#326=DIRECTION('',(-1.,0.,0.));
#327=DIRECTION('',(0.,0.,1.));
#328=DIRECTION('',(-1.,0.,0.));
#329=DIRECTION('',(0.,0.,1.));
#330=DIRECTION('',(-1.,0.,0.));
#331=DIRECTION('',(0.,0.,1.));
#332=DIRECTION('',(-1.,0.,0.));
#333=DIRECTION('',(-1.,0.,0.));
#334=DIRECTION('',(6.93006595944573E-19,0.,1.));
#335=DIRECTION('',(0.,0.997324487264283,0.073101758549541));
#336=DIRECTION('',(0.,-0.073101758549541,0.997324487264283));
#337=DIRECTION('',(0.,-0.0697564737441255,0.997564050259824));
#338=DIRECTION('',(0.,-0.997564050259824,-0.0697564737441254));
#339=CARTESIAN_POINT('',(0.,0.,0.));
#340=CARTESIAN_POINT('',(48.5,0.,0.));
#341=CARTESIAN_POINT('',(48.5,0.,24.));
#342=CARTESIAN_POINT('',(41.,0.,0.));
#343=CARTESIAN_POINT('',(41.,0.,24.));
#344=CARTESIAN_POINT('',(0.,0.,0.));
#345=CARTESIAN_POINT('',(50.,0.,0.));
#346=CARTESIAN_POINT('',(50.,0.,22.5));
#347=CARTESIAN_POINT('',(50.,12.,0.));
#348=CARTESIAN_POINT('',(48.5,0.,0.));
#349=CARTESIAN_POINT('',(40.6535898384862,0.,0.));
#350=CARTESIAN_POINT('',(40.6535898384862,0.,23.8));
#351=CARTESIAN_POINT('',(41.,0.,0.));
#352=CARTESIAN_POINT('',(40.,0.,0.));
#353=CARTESIAN_POINT('',(40.,0.,23.8));
#354=CARTESIAN_POINT('',(0.,0.,0.));
#355=CARTESIAN_POINT('',(14.4262708761163,0.,0.));
#356=CARTESIAN_POINT('',(14.4262708761163,0.,29.5230769230769));
#357=CARTESIAN_POINT('',(40.,0.,0.));
#358=CARTESIAN_POINT('',(12.2951267824594,0.,0.));
#359=CARTESIAN_POINT('',(12.2951267824594,0.,30.));
#360=CARTESIAN_POINT('',(12.2951267824594,0.,0.));
#361=CARTESIAN_POINT('',(7.65610595767019,0.,0.));
#362=CARTESIAN_POINT('',(7.65610595767019,0.,30.));
#363=CARTESIAN_POINT('',(0.,0.,0.));
#364=CARTESIAN_POINT('',(7.3191039218971,0.,0.));
#365=CARTESIAN_POINT('',(7.3191039218971,0.,30.0584960818805));
#366=CARTESIAN_POINT('',(7.65610595767019,0.,0.));
#367=CARTESIAN_POINT('',(3.,0.,0.));
#368=CARTESIAN_POINT('',(3.,0.,22.7261731877348));
#369=CARTESIAN_POINT('',(4.71848244803847,22.230016781041,0.));
#370=CARTESIAN_POINT('',(5.28151755196153,22.230016781041,0.));
#371=CARTESIAN_POINT('',(5.56013273417219,22.2575191947317,0.));
#372=CARTESIAN_POINT('',(6.11157268263078,22.3673278699618,0.));
#373=CARTESIAN_POINT('',(6.37891412732495,22.4487360712484,0.));
#374=CARTESIAN_POINT('',(6.89190383866916,22.6609548452409,0.));
#375=CARTESIAN_POINT('',(7.14073781909114,22.793528584447,0.));
#376=CARTESIAN_POINT('',(7.60618048893847,23.1041610168114,0.));
#377=CARTESIAN_POINT('',(7.82088563461919,23.28022782533,0.));
#378=CARTESIAN_POINT('',(8.21480238883899,23.6732420031712,0.));
#379=CARTESIAN_POINT('',(8.3950364411757,23.89248986458,0.));
#380=CARTESIAN_POINT('',(8.70435353741954,24.3550767357968,0.));
#381=CARTESIAN_POINT('',(8.83546797106894,24.5998204080351,0.));
#382=CARTESIAN_POINT('',(9.04977946394039,25.1166818984148,0.));
#383=CARTESIAN_POINT('',(9.13140633217418,25.3866205043651,0.));
#384=CARTESIAN_POINT('',(9.23937007843301,25.9311513069594,0.));
#385=CARTESIAN_POINT('',(9.26683570271898,26.2095059342531,0.));
#386=CARTESIAN_POINT('',(9.26608111249511,26.7712784470102,0.));
#387=CARTESIAN_POINT('',(9.23811393446321,27.0478213074236,0.));
#388=CARTESIAN_POINT('',(9.12885121857118,27.5925116978471,0.));
#389=CARTESIAN_POINT('',(9.04612476459875,27.8635287143696,0.));
#390=CARTESIAN_POINT('',(8.83137039481284,28.3782986855768,0.));
#391=CARTESIAN_POINT('',(8.69996089218526,28.6227362535516,0.));
#392=CARTESIAN_POINT('',(8.38915888065196,29.0857605319922,0.));
#393=CARTESIAN_POINT('',(8.20875631756274,29.3043423523191,0.));
#394=CARTESIAN_POINT('',(7.81488143977777,29.696174635602,0.));
#395=CARTESIAN_POINT('',(7.59982321830592,29.8721919857738,0.));
#396=CARTESIAN_POINT('',(7.13233522580894,30.1831882448579,0.));
#397=CARTESIAN_POINT('',(6.88500424030003,30.314428493089,0.));
#398=CARTESIAN_POINT('',(6.37182133452104,30.5259692409001,0.));
#399=CARTESIAN_POINT('',(6.10223972173308,30.6075179618094,0.));
#400=CARTESIAN_POINT('',(5.55295685968829,30.7159416587419,0.));
#401=CARTESIAN_POINT('',(5.27657058609803,30.7427264247366,0.));
#402=CARTESIAN_POINT('',(4.7203774450508,30.7425278335663,0.));
#403=CARTESIAN_POINT('',(4.43797518019842,30.7146472462663,0.));
#404=CARTESIAN_POINT('',(3.89198608281204,30.6058690073524,0.));
#405=CARTESIAN_POINT('',(3.6262907055373,30.5254647106522,0.));
#406=CARTESIAN_POINT('',(3.10968463335724,30.3119616249213,0.));
#407=CARTESIAN_POINT('',(2.86054992302353,30.1788571307732,0.));
#408=CARTESIAN_POINT('',(2.39864562494708,29.8707637520455,0.));
#409=CARTESIAN_POINT('',(2.18271066779611,29.6943730188854,0.));
#410=CARTESIAN_POINT('',(1.78450629514685,29.2970323308002,0.));
#411=CARTESIAN_POINT('',(1.60807633054851,29.0820481670883,0.));
#412=CARTESIAN_POINT('',(1.29890892267766,28.6206408425337,0.));
#413=CARTESIAN_POINT('',(1.16510537817464,28.3712174906506,0.));
#414=CARTESIAN_POINT('',(0.951148737861806,27.8555863958905,0.));
#415=CARTESIAN_POINT('',(0.870419145749977,27.5900271859655,0.));
#416=CARTESIAN_POINT('',(0.761249907829258,27.0434826586872,0.));
#417=CARTESIAN_POINT('',(0.733450964247263,26.7612468174681,0.));
#418=CARTESIAN_POINT('',(0.733624974643001,26.2054697400724,0.));
#419=CARTESIAN_POINT('',(0.76072288977341,25.9289433622191,0.));
#420=CARTESIAN_POINT('',(0.870516379452047,25.3786943978281,0.));
#421=CARTESIAN_POINT('',(0.952480614859475,25.1104959934129,0.));
#422=CARTESIAN_POINT('',(1.16560369371191,24.5979826449218,0.));
#423=CARTESIAN_POINT('',(1.29849001640649,24.3499244778849,0.));
#424=CARTESIAN_POINT('',(1.61068975840459,23.8848510431501,0.));
#425=CARTESIAN_POINT('',(1.78746372450814,23.6706865441017,0.));
#426=CARTESIAN_POINT('',(2.18139808231313,23.2782473019754,0.));
#427=CARTESIAN_POINT('',(2.40112439609877,23.0986866843151,0.));
#428=CARTESIAN_POINT('',(2.86484681605882,22.7904174600594,0.));
#429=CARTESIAN_POINT('',(3.10983665119302,22.659970702845,0.));
#430=CARTESIAN_POINT('',(3.62629336993113,22.4468494779987,0.));
#431=CARTESIAN_POINT('',(3.89694912445613,22.3652868578887,0.));
#432=CARTESIAN_POINT('',(4.44164451007458,22.2575159168442,0.));
#433=CARTESIAN_POINT('',(4.71848244803847,22.230016781041,0.));
#434=CARTESIAN_POINT('',(5.28151755196153,22.230016781041,0.));
#435=CARTESIAN_POINT('',(0.,0.,0.));
#436=CARTESIAN_POINT('',(9.08945975270331,0.,0.));
#437=CARTESIAN_POINT('',(3.,0.,0.));
#438=CARTESIAN_POINT('',(5.,0.259862614466201,26.513200402625));
#439=CARTESIAN_POINT('',(5.,-0.105646178281504,31.4998228389465));
#440=CARTESIAN_POINT('',(5.,-26.5121797487009,0.348782368720627));
#441=CARTESIAN_POINT('',(5.,-31.5,-4.87890977618477E-16));
#442=CARTESIAN_POINT('',(5.,-31.5,-4.87890977618477E-16));
#443=CARTESIAN_POINT('',(5.,-31.5,-33.0105641104988));
#444=CARTESIAN_POINT('',(5.,-0.991634215020653,-45.6175843779233));
#445=CARTESIAN_POINT('',(5.,22.3111839064612,-22.2364806723561));
#446=CARTESIAN_POINT('',(5.,45.6140020279431,1.1446230332111));
#447=CARTESIAN_POINT('',(5.,32.9047322755089,31.6105352180319));
#448=CARTESIAN_POINT('',(5.,-0.105646178281502,31.4998228389465));
#449=CARTESIAN_POINT('',(15.,-31.5,-4.87890977618476E-16));
#450=CARTESIAN_POINT('',(15.,-31.5,-33.0105641104988));
#451=CARTESIAN_POINT('',(15.,-0.991634215020652,-45.6175843779233));
#452=CARTESIAN_POINT('',(15.,22.3111839064612,-22.2364806723561));
#453=CARTESIAN_POINT('',(15.,45.6140020279431,1.1446230332111));
#454=CARTESIAN_POINT('',(15.,32.9047322755089,31.6105352180319));
#455=CARTESIAN_POINT('',(15.,-0.105646178281502,31.4998228389465));
#456=CARTESIAN_POINT('',(15.,-21.5243594974017,0.697564737441253));
#457=CARTESIAN_POINT('',(15.,-22.2553755445931,-21.8589828538732));
#458=CARTESIAN_POINT('',(15.,-1.68779395566091,-31.1491287775441));
#459=CARTESIAN_POINT('',(15.,14.7530970924916,-15.6885555267471));
#460=CARTESIAN_POINT('',(15.,31.1939881406442,-0.227982275949988));
#461=CARTESIAN_POINT('',(15.,23.1842438528113,20.8712172383447));
#462=CARTESIAN_POINT('',(15.,0.625371407213904,21.5265779663037));
#463=CARTESIAN_POINT('',(5.,-21.5243594974018,0.697564737441254));
#464=CARTESIAN_POINT('',(5.,-22.2553755445931,-21.8589828538732));
#465=CARTESIAN_POINT('',(5.,-1.68779395566091,-31.1491287775441));
#466=CARTESIAN_POINT('',(5.,14.7530970924916,-15.6885555267471));
#467=CARTESIAN_POINT('',(5.,31.1939881406441,-0.22798227594999));
#468=CARTESIAN_POINT('',(5.,23.1842438528113,20.8712172383447));
#469=CARTESIAN_POINT('',(5.,0.625371407213906,21.5265779663036));
#470=CARTESIAN_POINT('',(-4.99999999999999,-21.5243594974017,0.697564737441253));
#471=CARTESIAN_POINT('',(-5.,-22.2553755445931,-21.8589828538732));
#472=CARTESIAN_POINT('',(-5.,-1.68779395566091,-31.1491287775441));
#473=CARTESIAN_POINT('',(-4.99999999999999,14.7530970924916,-15.6885555267471));
#474=CARTESIAN_POINT('',(-5.,31.1939881406442,-0.227982275949988));
#475=CARTESIAN_POINT('',(-5.,23.1842438528113,20.8712172383447));
#476=CARTESIAN_POINT('',(-4.99999999999999,0.625371407213904,21.5265779663037));
#477=CARTESIAN_POINT('',(-4.99999999999999,-31.5,-4.87890977618476E-16));
#478=CARTESIAN_POINT('',(-5.,-31.5,-33.0105641104988));
#479=CARTESIAN_POINT('',(-5.,-0.991634215020652,-45.6175843779233));
#480=CARTESIAN_POINT('',(-4.99999999999999,22.3111839064612,-22.2364806723561));
#481=CARTESIAN_POINT('',(-5.,45.6140020279431,1.1446230332111));
#482=CARTESIAN_POINT('',(-5.,32.9047322755089,31.6105352180319));
#483=CARTESIAN_POINT('',(-4.99999999999999,-0.105646178281502,31.4998228389465));
#484=CARTESIAN_POINT('',(5.,-31.5,-4.87890977618477E-16));
#485=CARTESIAN_POINT('',(5.,-31.5,-33.0105641104988));
#486=CARTESIAN_POINT('',(5.,-0.991634215020653,-45.6175843779233));
#487=CARTESIAN_POINT('',(5.,22.3111839064612,-22.2364806723561));
#488=CARTESIAN_POINT('',(5.,45.6140020279431,1.1446230332111));
#489=CARTESIAN_POINT('',(5.,32.9047322755089,31.6105352180319));
#490=CARTESIAN_POINT('',(5.,-0.105646178281502,31.4998228389465));
#491=CARTESIAN_POINT('',(5.,-0.105646178281504,31.4998228389465));
#492=CARTESIAN_POINT('',(5.,-18.5087837018615,31.4381011855361));
#493=CARTESIAN_POINT('',(5.,-31.5,18.4032410263599));
#494=CARTESIAN_POINT('',(5.,-31.5,-2.84603070277445E-15));
#495=CARTESIAN_POINT('',(15.,-0.105646178281504,31.4998228389465));
#496=CARTESIAN_POINT('',(15.,-18.5087837018615,31.4381011855361));
#497=CARTESIAN_POINT('',(15.,-31.5,18.4032410263599));
#498=CARTESIAN_POINT('',(15.,-31.5,-2.84603070277445E-15));
#499=CARTESIAN_POINT('',(15.,0.625371407213905,21.5265779663037));
#500=CARTESIAN_POINT('',(15.,-11.9510985225199,21.8919386246513));
#501=CARTESIAN_POINT('',(15.,-21.1168213388424,13.2727385713684));
#502=CARTESIAN_POINT('',(15.,-21.5243594974017,0.697564737441252));
#503=CARTESIAN_POINT('',(5.,0.625371407213906,21.5265779663036));
#504=CARTESIAN_POINT('',(5.,-11.9510985225199,21.8919386246513));
#505=CARTESIAN_POINT('',(5.,-21.1168213388424,13.2727385713684));
#506=CARTESIAN_POINT('',(5.,-21.5243594974018,0.697564737441252));
#507=CARTESIAN_POINT('',(-4.99999999999999,0.625371407213905,21.5265779663037));
#508=CARTESIAN_POINT('',(-5.,-11.9510985225199,21.8919386246513));
#509=CARTESIAN_POINT('',(-5.,-21.1168213388424,13.2727385713684));
#510=CARTESIAN_POINT('',(-4.99999999999999,-21.5243594974017,0.697564737441252));
#511=CARTESIAN_POINT('',(-4.99999999999999,-0.105646178281504,31.4998228389465));
#512=CARTESIAN_POINT('',(-5.,-18.5087837018615,31.4381011855361));
#513=CARTESIAN_POINT('',(-5.,-31.5,18.4032410263599));
#514=CARTESIAN_POINT('',(-4.99999999999999,-31.5,-2.84603070277445E-15));
#515=CARTESIAN_POINT('',(5.,-0.105646178281504,31.4998228389465));
#516=CARTESIAN_POINT('',(5.,-18.5087837018615,31.4381011855361));
#517=CARTESIAN_POINT('',(5.,-31.5,18.4032410263599));
#518=CARTESIAN_POINT('',(5.,-31.5,-2.84603070277445E-15));
#519=(
GEOMETRIC_REPRESENTATION_CONTEXT(3)
GLOBAL_UNCERTAINTY_ASSIGNED_CONTEXT((#520))
GLOBAL_UNIT_ASSIGNED_CONTEXT((#526,#522,#521))
REPRESENTATION_CONTEXT('model1','TOP_LEVEL_ASSEMBLY_PART')
);
#520=UNCERTAINTY_MEASURE_WITH_UNIT(LENGTH_MEASURE(2.E-5),#526,
'DISTANCE_ACCURACY_VALUE','Maximum Tolerance applied to model');
#521=(
NAMED_UNIT(*)
SI_UNIT($,.STERADIAN.)
SOLID_ANGLE_UNIT()
);
#522=(
CONVERSION_BASED_UNIT('DEGREE',#524)
NAMED_UNIT(#523)
PLANE_ANGLE_UNIT()
);
#523=DIMENSIONAL_EXPONENTS(0.,0.,0.,0.,0.,0.,0.);
#524=PLANE_ANGLE_MEASURE_WITH_UNIT(PLANE_ANGLE_MEASURE(0.0174532925),#525);
#525=(
NAMED_UNIT(*)
PLANE_ANGLE_UNIT()
SI_UNIT($,.RADIAN.)
);
#526=(
LENGTH_UNIT()
NAMED_UNIT(*)
SI_UNIT(.MILLI.,.METRE.)
);
ENDSEC;
END-ISO-10303-21;
