ISO-10303-21;
HEADER;
/* Generated by software containing ST-Developer
 * from STEP Tools, Inc. (www.steptools.com) 
 */
/* OPTION: using custom schema-name function */

FILE_DESCRIPTION(
/* description */ (''),
/* implementation_level */ '2;1');

FILE_NAME(
/* name */ 'model1.stp',
/* time_stamp */ '2023-11-06T14:31:23+03:00',
/* author */ (''),
/* organization */ (''),
/* preprocessor_version */ 'ST-DEVELOPER v19.4',
/* originating_system */ 'SIEMENS PLM Software NX2306.3001',
/* authorisation */ '');

FILE_SCHEMA (('AUTOMOTIVE_DESIGN { 1 0 10303 214 3 1 1 1 }'));
ENDSEC;

DATA;
#10=PROPERTY_DEFINITION_REPRESENTATION(#14,#12);
#11=PROPERTY_DEFINITION_REPRESENTATION(#15,#13);
#12=REPRESENTATION('',(#16),#497);
#13=REPRESENTATION('',(#17),#497);
#14=PROPERTY_DEFINITION('pmi validation property','',#21);
#15=PROPERTY_DEFINITION('pmi validation property','',#21);
#16=VALUE_REPRESENTATION_ITEM('number of annotations',COUNT_MEASURE(0.));
#17=VALUE_REPRESENTATION_ITEM('number of views',COUNT_MEASURE(0.));
#18=SHAPE_REPRESENTATION_RELATIONSHIP('None',
'relationship between model1_objects-None and model1_objects-None',#30,
#19);
#19=ADVANCED_BREP_SHAPE_REPRESENTATION('model1_objects-None',(#141,#142),
#497);
#20=SHAPE_DEFINITION_REPRESENTATION(#21,#30);
#21=PRODUCT_DEFINITION_SHAPE('','',#22);
#22=PRODUCT_DEFINITION(' ','',#24,#23);
#23=PRODUCT_DEFINITION_CONTEXT('part definition',#29,'design');
#24=PRODUCT_DEFINITION_FORMATION_WITH_SPECIFIED_SOURCE(' ',' ',#26,
 .NOT_KNOWN.);
#25=PRODUCT_RELATED_PRODUCT_CATEGORY('part','',(#26));
#26=PRODUCT('model1_objects','model1_objects',' ',(#27));
#27=PRODUCT_CONTEXT(' ',#29,'mechanical');
#28=APPLICATION_PROTOCOL_DEFINITION('international standard',
'automotive_design',2010,#29);
#29=APPLICATION_CONTEXT(
'core data for automotive mechanical design processes');
#30=SHAPE_REPRESENTATION('model1_objects-None',(#269),#497);
#31=OVER_RIDING_STYLED_ITEM('',(#64),#147,#61);
#32=OVER_RIDING_STYLED_ITEM('',(#65),#148,#61);
#33=OVER_RIDING_STYLED_ITEM('',(#66),#149,#61);
#34=OVER_RIDING_STYLED_ITEM('',(#67),#150,#61);
#35=OVER_RIDING_STYLED_ITEM('',(#68),#151,#61);
#36=OVER_RIDING_STYLED_ITEM('',(#69),#152,#61);
#37=OVER_RIDING_STYLED_ITEM('',(#70),#153,#61);
#38=OVER_RIDING_STYLED_ITEM('',(#71),#154,#61);
#39=OVER_RIDING_STYLED_ITEM('',(#72),#155,#61);
#40=OVER_RIDING_STYLED_ITEM('',(#73),#156,#61);
#41=OVER_RIDING_STYLED_ITEM('',(#74),#157,#61);
#42=COLOUR_RGB('Medium Steel',0.611764705882353,0.658823529411765,0.670588235294118);
#43=COLOUR_RGB('silver gray',0.6,0.6,0.6);
#44=CONICAL_SURFACE('',#291,14.6170665211596,85.0000000000012);
#45=VERTEX_LOOP('',#244);
#46=SURFACE_OF_REVOLUTION('',#48,#47);
#47=AXIS1_PLACEMENT('',#491,#332);
#48=B_SPLINE_CURVE_WITH_KNOTS('',3,(#447,#448,#449,#450,#451,#452,#453,
#454,#455,#456,#457,#458,#459,#460,#461,#462,#463,#464,#465,#466,#467,#468,
#469,#470,#471,#472,#473,#474,#475,#476,#477,#478,#479,#480,#481,#482,#483,
#484,#485,#486,#487,#488,#489,#490),.UNSPECIFIED.,.F.,.F.,(4,2,2,2,2,2,
2,2,2,2,2,2,2,2,2,2,2,2,2,2,2,4),(0.,0.0361833669244354,0.0944192958788131,
0.15265522483319,0.210891153787568,0.269127082741946,0.327363011696324,
0.385598940650702,0.443834869605079,0.472952834082269,0.502070798559458,
0.560306727513836,0.618542656468214,0.676778585422592,0.735014514376971,
0.76413247885416,0.793250443331349,0.851486372285727,0.909722301240105,
0.967958230194483,0.997076194671672,1.),.UNSPECIFIED.);
#49=TOROIDAL_SURFACE('',#277,19.5,1.5);
#50=TOROIDAL_SURFACE('',#279,16.,5.);
#51=TOROIDAL_SURFACE('',#281,65.3,45.);
#52=TOROIDAL_SURFACE('',#283,19.5,5.);
#53=TOROIDAL_SURFACE('',#287,25.5,1.);
#54=TOROIDAL_SURFACE('',#290,14.529910778412,1.);
#55=PLANE('',#276);
#56=FACE_OUTER_BOUND('',#190,.T.);
#57=CYLINDRICAL_SURFACE('',#274,21.);
#58=CYLINDRICAL_SURFACE('',#285,24.5);
#59=PRESENTATION_LAYER_ASSIGNMENT('1','Layer 1',(#141,#142));
#60=STYLED_ITEM('',(#62),#141);
#61=STYLED_ITEM('',(#63),#142);
#62=PRESENTATION_STYLE_ASSIGNMENT((#75));
#63=PRESENTATION_STYLE_ASSIGNMENT((#76));
#64=PRESENTATION_STYLE_ASSIGNMENT((#77));
#65=PRESENTATION_STYLE_ASSIGNMENT((#78));
#66=PRESENTATION_STYLE_ASSIGNMENT((#79));
#67=PRESENTATION_STYLE_ASSIGNMENT((#80));
#68=PRESENTATION_STYLE_ASSIGNMENT((#81));
#69=PRESENTATION_STYLE_ASSIGNMENT((#82));
#70=PRESENTATION_STYLE_ASSIGNMENT((#83));
#71=PRESENTATION_STYLE_ASSIGNMENT((#84));
#72=PRESENTATION_STYLE_ASSIGNMENT((#85));
#73=PRESENTATION_STYLE_ASSIGNMENT((#86));
#74=PRESENTATION_STYLE_ASSIGNMENT((#87));
#75=SURFACE_STYLE_USAGE(.BOTH.,#88);
#76=SURFACE_STYLE_USAGE(.BOTH.,#89);
#77=SURFACE_STYLE_USAGE(.BOTH.,#90);
#78=SURFACE_STYLE_USAGE(.BOTH.,#91);
#79=SURFACE_STYLE_USAGE(.BOTH.,#92);
#80=SURFACE_STYLE_USAGE(.BOTH.,#93);
#81=SURFACE_STYLE_USAGE(.BOTH.,#94);
#82=SURFACE_STYLE_USAGE(.BOTH.,#95);
#83=SURFACE_STYLE_USAGE(.BOTH.,#96);
#84=SURFACE_STYLE_USAGE(.BOTH.,#97);
#85=SURFACE_STYLE_USAGE(.BOTH.,#98);
#86=SURFACE_STYLE_USAGE(.BOTH.,#99);
#87=SURFACE_STYLE_USAGE(.BOTH.,#100);
#88=SURFACE_SIDE_STYLE('',(#101));
#89=SURFACE_SIDE_STYLE('',(#102));
#90=SURFACE_SIDE_STYLE('',(#103));
#91=SURFACE_SIDE_STYLE('',(#104));
#92=SURFACE_SIDE_STYLE('',(#105));
#93=SURFACE_SIDE_STYLE('',(#106));
#94=SURFACE_SIDE_STYLE('',(#107));
#95=SURFACE_SIDE_STYLE('',(#108));
#96=SURFACE_SIDE_STYLE('',(#109));
#97=SURFACE_SIDE_STYLE('',(#110));
#98=SURFACE_SIDE_STYLE('',(#111));
#99=SURFACE_SIDE_STYLE('',(#112));
#100=SURFACE_SIDE_STYLE('',(#113));
#101=SURFACE_STYLE_FILL_AREA(#114);
#102=SURFACE_STYLE_FILL_AREA(#115);
#103=SURFACE_STYLE_FILL_AREA(#116);
#104=SURFACE_STYLE_FILL_AREA(#117);
#105=SURFACE_STYLE_FILL_AREA(#118);
#106=SURFACE_STYLE_FILL_AREA(#119);
#107=SURFACE_STYLE_FILL_AREA(#120);
#108=SURFACE_STYLE_FILL_AREA(#121);
#109=SURFACE_STYLE_FILL_AREA(#122);
#110=SURFACE_STYLE_FILL_AREA(#123);
#111=SURFACE_STYLE_FILL_AREA(#124);
#112=SURFACE_STYLE_FILL_AREA(#125);
#113=SURFACE_STYLE_FILL_AREA(#126);
#114=FILL_AREA_STYLE('',(#127));
#115=FILL_AREA_STYLE('',(#128));
#116=FILL_AREA_STYLE('',(#129));
#117=FILL_AREA_STYLE('',(#130));
#118=FILL_AREA_STYLE('',(#131));
#119=FILL_AREA_STYLE('',(#132));
#120=FILL_AREA_STYLE('',(#133));
#121=FILL_AREA_STYLE('',(#134));
#122=FILL_AREA_STYLE('',(#135));
#123=FILL_AREA_STYLE('',(#136));
#124=FILL_AREA_STYLE('',(#137));
#125=FILL_AREA_STYLE('',(#138));
#126=FILL_AREA_STYLE('',(#139));
#127=FILL_AREA_STYLE_COLOUR('',#140);
#128=FILL_AREA_STYLE_COLOUR('',#42);
#129=FILL_AREA_STYLE_COLOUR('',#43);
#130=FILL_AREA_STYLE_COLOUR('',#43);
#131=FILL_AREA_STYLE_COLOUR('',#43);
#132=FILL_AREA_STYLE_COLOUR('',#43);
#133=FILL_AREA_STYLE_COLOUR('',#43);
#134=FILL_AREA_STYLE_COLOUR('',#43);
#135=FILL_AREA_STYLE_COLOUR('',#43);
#136=FILL_AREA_STYLE_COLOUR('',#43);
#137=FILL_AREA_STYLE_COLOUR('',#43);
#138=FILL_AREA_STYLE_COLOUR('',#43);
#139=FILL_AREA_STYLE_COLOUR('',#43);
#140=DRAUGHTING_PRE_DEFINED_COLOUR('yellow');
#141=MANIFOLD_SOLID_BREP('',#143);
#142=MANIFOLD_SOLID_BREP('',#144);
#143=CLOSED_SHELL('',(#145,#146));
#144=CLOSED_SHELL('',(#147,#148,#149,#150,#151,#152,#153,#154,#155,#156,
#157));
#145=ADVANCED_FACE('',(#160,#161),#158,.F.);
#146=ADVANCED_FACE('',(#162,#163),#159,.F.);
#147=ADVANCED_FACE('',(#164,#165),#57,.T.);
#148=ADVANCED_FACE('',(#56),#55,.F.);
#149=ADVANCED_FACE('',(#166,#167),#49,.T.);
#150=ADVANCED_FACE('',(#168,#169),#50,.T.);
#151=ADVANCED_FACE('',(#170,#171),#51,.F.);
#152=ADVANCED_FACE('',(#172,#173),#52,.T.);
#153=ADVANCED_FACE('',(#174,#175),#58,.T.);
#154=ADVANCED_FACE('',(#176,#177),#53,.F.);
#155=ADVANCED_FACE('',(#178,#179),#46,.T.);
#156=ADVANCED_FACE('',(#180,#181),#54,.F.);
#157=ADVANCED_FACE('',(#182,#183),#44,.F.);
#158=(
BOUNDED_SURFACE()
B_SPLINE_SURFACE(3,3,((#344,#345,#346,#347,#348,#349,#350),(#351,#352,#353,
#354,#355,#356,#357),(#358,#359,#360,#361,#362,#363,#364),(#365,#366,#367,
#368,#369,#370,#371),(#372,#373,#374,#375,#376,#377,#378),(#379,#380,#381,
#382,#383,#384,#385),(#386,#387,#388,#389,#390,#391,#392)),
 .UNSPECIFIED.,.T.,.F.,.F.)
B_SPLINE_SURFACE_WITH_KNOTS((1,3,3,3,1),(4,3,4),(-0.5,0.,0.5,1.,1.5),(0.,
0.5,1.),.UNSPECIFIED.)
GEOMETRIC_REPRESENTATION_ITEM()
RATIONAL_B_SPLINE_SURFACE(((1.,0.5907281172692,0.5907281172692,1.,0.5907281172692,
0.5907281172692,1.),(0.333333333333334,0.196909372423066,0.196909372423066,
0.333333333333334,0.196909372423066,0.196909372423066,0.333333333333334),
(0.333333333333334,0.196909372423066,0.196909372423066,0.333333333333334,
0.196909372423066,0.196909372423066,0.333333333333334),(1.,0.5907281172692,
0.5907281172692,1.,0.5907281172692,0.5907281172692,1.),(0.333333333333334,
0.196909372423066,0.196909372423066,0.333333333333334,0.196909372423066,
0.196909372423066,0.333333333333334),(0.333333333333334,0.196909372423066,
0.196909372423066,0.333333333333334,0.196909372423066,0.196909372423066,
0.333333333333334),(1.,0.5907281172692,0.5907281172692,1.,0.5907281172692,
0.5907281172692,1.)))
REPRESENTATION_ITEM('')
SURFACE()
);
#159=(
BOUNDED_SURFACE()
B_SPLINE_SURFACE(3,3,((#393,#394,#395,#396),(#397,#398,#399,#400),(#401,
#402,#403,#404),(#405,#406,#407,#408),(#409,#410,#411,#412),(#413,#414,
#415,#416),(#417,#418,#419,#420)),.UNSPECIFIED.,.T.,.F.,.F.)
B_SPLINE_SURFACE_WITH_KNOTS((1,3,3,3,1),(4,4),(-0.5,0.,0.5,1.,1.5),(0.,
1.),.UNSPECIFIED.)
GEOMETRIC_REPRESENTATION_ITEM()
RATIONAL_B_SPLINE_SURFACE(((1.,0.801243775607826,0.801243775607826,1.),
(0.333333333333334,0.267081258535942,0.267081258535942,0.333333333333334),
(0.333333333333334,0.267081258535942,0.267081258535942,0.333333333333334),
(1.,0.801243775607826,0.801243775607826,1.),(0.333333333333334,0.267081258535942,
0.267081258535942,0.333333333333334),(0.333333333333334,0.267081258535942,
0.267081258535942,0.333333333333334),(1.,0.801243775607826,0.801243775607826,
1.)))
REPRESENTATION_ITEM('')
SURFACE()
);
#160=FACE_BOUND('',#184,.T.);
#161=FACE_BOUND('',#185,.T.);
#162=FACE_BOUND('',#186,.T.);
#163=FACE_BOUND('',#187,.T.);
#164=FACE_BOUND('',#188,.T.);
#165=FACE_BOUND('',#189,.T.);
#166=FACE_BOUND('',#191,.T.);
#167=FACE_BOUND('',#192,.T.);
#168=FACE_BOUND('',#193,.T.);
#169=FACE_BOUND('',#194,.T.);
#170=FACE_BOUND('',#195,.T.);
#171=FACE_BOUND('',#196,.T.);
#172=FACE_BOUND('',#197,.T.);
#173=FACE_BOUND('',#198,.T.);
#174=FACE_BOUND('',#199,.T.);
#175=FACE_BOUND('',#200,.T.);
#176=FACE_BOUND('',#201,.T.);
#177=FACE_BOUND('',#202,.T.);
#178=FACE_BOUND('',#203,.T.);
#179=FACE_BOUND('',#204,.T.);
#180=FACE_BOUND('',#205,.T.);
#181=FACE_BOUND('',#206,.T.);
#182=FACE_BOUND('',#207,.T.);
#183=FACE_BOUND('',#45,.T.);
#184=EDGE_LOOP('',(#208));
#185=EDGE_LOOP('',(#209));
#186=EDGE_LOOP('',(#210));
#187=EDGE_LOOP('',(#211));
#188=EDGE_LOOP('',(#212));
#189=EDGE_LOOP('',(#213));
#190=EDGE_LOOP('',(#214));
#191=EDGE_LOOP('',(#215));
#192=EDGE_LOOP('',(#216));
#193=EDGE_LOOP('',(#217));
#194=EDGE_LOOP('',(#218));
#195=EDGE_LOOP('',(#219));
#196=EDGE_LOOP('',(#220));
#197=EDGE_LOOP('',(#221));
#198=EDGE_LOOP('',(#222));
#199=EDGE_LOOP('',(#223));
#200=EDGE_LOOP('',(#224));
#201=EDGE_LOOP('',(#225));
#202=EDGE_LOOP('',(#226));
#203=EDGE_LOOP('',(#227));
#204=EDGE_LOOP('',(#228));
#205=EDGE_LOOP('',(#229));
#206=EDGE_LOOP('',(#230));
#207=EDGE_LOOP('',(#231));
#208=ORIENTED_EDGE('',*,*,#245,.T.);
#209=ORIENTED_EDGE('',*,*,#246,.F.);
#210=ORIENTED_EDGE('',*,*,#246,.T.);
#211=ORIENTED_EDGE('',*,*,#245,.F.);
#212=ORIENTED_EDGE('',*,*,#247,.T.);
#213=ORIENTED_EDGE('',*,*,#248,.F.);
#214=ORIENTED_EDGE('',*,*,#249,.F.);
#215=ORIENTED_EDGE('',*,*,#247,.F.);
#216=ORIENTED_EDGE('',*,*,#249,.T.);
#217=ORIENTED_EDGE('',*,*,#250,.F.);
#218=ORIENTED_EDGE('',*,*,#248,.T.);
#219=ORIENTED_EDGE('',*,*,#251,.F.);
#220=ORIENTED_EDGE('',*,*,#250,.T.);
#221=ORIENTED_EDGE('',*,*,#252,.F.);
#222=ORIENTED_EDGE('',*,*,#251,.T.);
#223=ORIENTED_EDGE('',*,*,#253,.F.);
#224=ORIENTED_EDGE('',*,*,#252,.T.);
#225=ORIENTED_EDGE('',*,*,#254,.F.);
#226=ORIENTED_EDGE('',*,*,#253,.T.);
#227=ORIENTED_EDGE('',*,*,#255,.F.);
#228=ORIENTED_EDGE('',*,*,#254,.T.);
#229=ORIENTED_EDGE('',*,*,#256,.F.);
#230=ORIENTED_EDGE('',*,*,#255,.T.);
#231=ORIENTED_EDGE('',*,*,#256,.T.);
#232=VERTEX_POINT('',#341);
#233=VERTEX_POINT('',#343);
#234=VERTEX_POINT('',#422);
#235=VERTEX_POINT('',#424);
#236=VERTEX_POINT('',#427);
#237=VERTEX_POINT('',#431);
#238=VERTEX_POINT('',#434);
#239=VERTEX_POINT('',#437);
#240=VERTEX_POINT('',#440);
#241=VERTEX_POINT('',#443);
#242=VERTEX_POINT('',#446);
#243=VERTEX_POINT('',#493);
#244=VERTEX_POINT('',#495);
#245=EDGE_CURVE('',#232,#232,#257,.T.);
#246=EDGE_CURVE('',#233,#233,#258,.T.);
#247=EDGE_CURVE('',#234,#234,#259,.T.);
#248=EDGE_CURVE('',#235,#235,#260,.T.);
#249=EDGE_CURVE('',#236,#236,#261,.T.);
#250=EDGE_CURVE('',#237,#237,#262,.T.);
#251=EDGE_CURVE('',#238,#238,#263,.T.);
#252=EDGE_CURVE('',#239,#239,#264,.T.);
#253=EDGE_CURVE('',#240,#240,#265,.T.);
#254=EDGE_CURVE('',#241,#241,#266,.T.);
#255=EDGE_CURVE('',#242,#242,#267,.T.);
#256=EDGE_CURVE('',#243,#243,#268,.T.);
#257=CIRCLE('',#270,6.);
#258=CIRCLE('',#271,6.);
#259=CIRCLE('',#272,21.);
#260=CIRCLE('',#273,21.);
#261=CIRCLE('',#275,19.5);
#262=CIRCLE('',#278,20.93);
#263=CIRCLE('',#280,24.08);
#264=CIRCLE('',#282,24.5);
#265=CIRCLE('',#284,24.5);
#266=CIRCLE('',#286,24.621060200768);
#267=CIRCLE('',#288,15.4945076986744);
#268=CIRCLE('',#289,14.6170665211596);
#269=AXIS2_PLACEMENT_3D('',#339,#292,#293);
#270=AXIS2_PLACEMENT_3D('',#340,#294,#295);
#271=AXIS2_PLACEMENT_3D('',#342,#296,#297);
#272=AXIS2_PLACEMENT_3D('',#421,#298,#299);
#273=AXIS2_PLACEMENT_3D('',#423,#300,#301);
#274=AXIS2_PLACEMENT_3D('',#425,#302,#303);
#275=AXIS2_PLACEMENT_3D('',#426,#304,#305);
#276=AXIS2_PLACEMENT_3D('',#428,#306,#307);
#277=AXIS2_PLACEMENT_3D('',#429,#308,#309);
#278=AXIS2_PLACEMENT_3D('',#430,#310,#311);
#279=AXIS2_PLACEMENT_3D('',#432,#312,#313);
#280=AXIS2_PLACEMENT_3D('',#433,#314,#315);
#281=AXIS2_PLACEMENT_3D('',#435,#316,#317);
#282=AXIS2_PLACEMENT_3D('',#436,#318,#319);
#283=AXIS2_PLACEMENT_3D('',#438,#320,#321);
#284=AXIS2_PLACEMENT_3D('',#439,#322,#323);
#285=AXIS2_PLACEMENT_3D('',#441,#324,#325);
#286=AXIS2_PLACEMENT_3D('',#442,#326,#327);
#287=AXIS2_PLACEMENT_3D('',#444,#328,#329);
#288=AXIS2_PLACEMENT_3D('',#445,#330,#331);
#289=AXIS2_PLACEMENT_3D('',#492,#333,#334);
#290=AXIS2_PLACEMENT_3D('',#494,#335,#336);
#291=AXIS2_PLACEMENT_3D('',#496,#337,#338);
#292=DIRECTION('',(0.,0.,1.));
#293=DIRECTION('',(1.,0.,0.));
#294=DIRECTION('',(0.052335956242944,0.997558572975142,0.0462367945248546));
#295=DIRECTION('',(0.,-0.0463002474047774,0.998927568490457));
#296=DIRECTION('',(0.052335956242944,-0.0609648746331405,0.996766889370379));
#297=DIRECTION('',(0.,-0.998134798421867,-0.061048539534857));
#298=DIRECTION('',(-1.,0.,0.));
#299=DIRECTION('',(0.,0.,1.));
#300=DIRECTION('',(-1.,0.,0.));
#301=DIRECTION('',(0.,0.,1.));
#302=DIRECTION('',(-1.,0.,0.));
#303=DIRECTION('',(0.,0.,1.));
#304=DIRECTION('',(-1.,0.,0.));
#305=DIRECTION('',(0.,0.,1.));
#306=DIRECTION('',(-1.,0.,0.));
#307=DIRECTION('',(0.,0.,1.));
#308=DIRECTION('',(-1.,0.,0.));
#309=DIRECTION('',(0.,0.,1.));
#310=DIRECTION('',(-1.,0.,0.));
#311=DIRECTION('',(0.,0.,1.));
#312=DIRECTION('',(-1.,0.,0.));
#313=DIRECTION('',(0.,0.,1.));
#314=DIRECTION('',(-1.,0.,0.));
#315=DIRECTION('',(0.,0.,1.));
#316=DIRECTION('',(-1.,0.,0.));
#317=DIRECTION('',(0.,0.,1.));
#318=DIRECTION('',(-1.,0.,0.));
#319=DIRECTION('',(0.,0.,1.));
#320=DIRECTION('',(-1.,0.,0.));
#321=DIRECTION('',(0.,0.,1.));
#322=DIRECTION('',(-1.,0.,0.));
#323=DIRECTION('',(0.,0.,1.));
#324=DIRECTION('',(-1.,0.,0.));
#325=DIRECTION('',(0.,0.,1.));
#326=DIRECTION('',(-1.,0.,0.));
#327=DIRECTION('',(0.,0.,1.));
#328=DIRECTION('',(-1.,0.,0.));
#329=DIRECTION('',(0.,0.,1.));
#330=DIRECTION('',(-1.,0.,0.));
#331=DIRECTION('',(0.,0.,1.));
#332=DIRECTION('',(-1.,0.,0.));
#333=DIRECTION('',(-1.,0.,0.));
#334=DIRECTION('',(0.,0.,1.));
#335=DIRECTION('',(-1.,0.,0.));
#336=DIRECTION('',(0.,0.,1.));
#337=DIRECTION('',(-1.,0.,0.));
#338=DIRECTION('',(-3.86515741172271E-18,0.,1.));
#339=CARTESIAN_POINT('',(0.,0.,0.));
#340=CARTESIAN_POINT('',(5.99177720852744,0.348380209882175,20.0065940421786));
#341=CARTESIAN_POINT('',(5.99177720852744,0.0705787254535105,26.0001594531213));
#342=CARTESIAN_POINT('',(5.99177720852744,-20.0095572073061,0.0528612024005429));
#343=CARTESIAN_POINT('',(5.99177720852744,-25.9983659978373,-0.313430034808599));
#344=CARTESIAN_POINT('',(5.99177720852744,-25.9983659978373,-0.313430034808599));
#345=CARTESIAN_POINT('',(5.99177720852744,-25.6720718014235,-27.3788513385276));
#346=CARTESIAN_POINT('',(5.99177720852744,-0.579318053072569,-37.5276053297839));
#347=CARTESIAN_POINT('',(5.99177720852744,18.4706195387518,-18.2988930484579));
#348=CARTESIAN_POINT('',(5.99177720852744,37.5205571305761,0.929819232868146));
#349=CARTESIAN_POINT('',(5.99177720852744,27.1378670935433,25.9266839531749));
#350=CARTESIAN_POINT('',(5.99177720852744,0.0705787254535167,26.0001594531213));
#351=CARTESIAN_POINT('',(17.9753316255823,-25.9600255935117,-0.940290104425796));
#352=CARTESIAN_POINT('',(17.9753316255823,-24.9811430042706,-27.9657973921597));
#353=CARTESIAN_POINT('',(17.9753316255823,0.326750925227631,-37.497154070836));
#354=CARTESIAN_POINT('',(17.9753316255823,18.8902280055515,-17.8316112618726));
#355=CARTESIAN_POINT('',(17.9753316255823,37.4537050858755,1.83393154709068));
#356=CARTESIAN_POINT('',(17.9753316255823,26.4802376729423,26.5507126526508));
#357=CARTESIAN_POINT('',(17.9753316255823,-0.556779228719128,25.9710814404547));
#358=CARTESIAN_POINT('',(17.9753316255823,-13.9824080124493,-0.207707630007513));
#359=CARTESIAN_POINT('',(17.9753316255823,-13.7661754032685,-14.7639979649047));
#360=CARTESIAN_POINT('',(17.9753316255823,-0.255091103350766,-20.1846017961776));
#361=CARTESIAN_POINT('',(17.9753316255823,9.96172415981822,-9.81401691713768));
#362=CARTESIAN_POINT('',(17.9753316255823,20.1785394229872,0.556567961902246));
#363=CARTESIAN_POINT('',(17.9753316255823,14.5567199945976,13.9851751558623));
#364=CARTESIAN_POINT('',(17.9753316255823,-0.00117625986179992,13.9839506185693));
#365=CARTESIAN_POINT('',(5.99177720852744,-14.0207484167748,0.419152439609685));
#366=CARTESIAN_POINT('',(5.99177720852744,-14.4571042004215,-14.1770519112726));
#367=CARTESIAN_POINT('',(5.99177720852744,-1.16116008165096,-20.2150530551256));
#368=CARTESIAN_POINT('',(5.99177720852744,9.54211569301851,-10.2812987037229));
#369=CARTESIAN_POINT('',(5.99177720852744,20.245391467688,-0.347544352320275));
#370=CARTESIAN_POINT('',(5.99177720852744,15.2143494151986,13.3611464563865));
#371=CARTESIAN_POINT('',(5.99177720852744,0.626181694310841,14.0130286312358));
#372=CARTESIAN_POINT('',(-5.99177720852743,-14.0590888211004,1.04601250922688));
#373=CARTESIAN_POINT('',(-5.99177720852744,-15.1480329975744,-13.5901058576406));
#374=CARTESIAN_POINT('',(-5.99177720852744,-2.06722905995116,-20.2455043140736));
#375=CARTESIAN_POINT('',(-5.99177720852743,9.12250722621878,-10.7485804903082));
#376=CARTESIAN_POINT('',(-5.99177720852744,20.3122435123887,-1.2516566665428));
#377=CARTESIAN_POINT('',(-5.99177720852744,15.8719788357996,12.7371177569107));
#378=CARTESIAN_POINT('',(-5.99177720852743,1.25353964848349,14.0421066439024));
#379=CARTESIAN_POINT('',(-5.99177720852743,-26.0367064021627,0.313430034808599));
#380=CARTESIAN_POINT('',(-5.99177720852744,-26.3630005985765,-26.7919052848956));
#381=CARTESIAN_POINT('',(-5.99177720852744,-1.48538703137276,-37.5580565887319));
#382=CARTESIAN_POINT('',(-5.99177720852743,18.0510110719521,-18.7661748350431));
#383=CARTESIAN_POINT('',(-5.99177720852744,37.5874091752769,0.0257069186456217));
#384=CARTESIAN_POINT('',(-5.99177720852744,27.7954965141443,25.3026552536992));
#385=CARTESIAN_POINT('',(-5.99177720852743,0.697936679626159,26.0292374657879));
#386=CARTESIAN_POINT('',(5.99177720852744,-25.9983659978373,-0.313430034808599));
#387=CARTESIAN_POINT('',(5.99177720852744,-25.6720718014235,-27.3788513385276));
#388=CARTESIAN_POINT('',(5.99177720852744,-0.579318053072569,-37.5276053297839));
#389=CARTESIAN_POINT('',(5.99177720852744,18.4706195387518,-18.2988930484579));
#390=CARTESIAN_POINT('',(5.99177720852744,37.5205571305761,0.929819232868146));
#391=CARTESIAN_POINT('',(5.99177720852744,27.1378670935433,25.9266839531749));
#392=CARTESIAN_POINT('',(5.99177720852744,0.0705787254535167,26.0001594531213));
#393=CARTESIAN_POINT('',(5.99177720852744,0.0705787254535102,26.0001594531213));
#394=CARTESIAN_POINT('',(5.99177720852745,-15.3389274169732,26.0419893236404));
#395=CARTESIAN_POINT('',(5.99177720852745,-26.1841264757802,15.0950131810516));
#396=CARTESIAN_POINT('',(5.99177720852744,-25.9983659978373,-0.313430034808598));
#397=CARTESIAN_POINT('',(17.9753316255823,-0.556779228719133,25.9710814404547));
#398=CARTESIAN_POINT('',(17.9753316255823,-15.9490517147292,25.6410952740087));
#399=CARTESIAN_POINT('',(17.9753316255823,-26.5173070273405,14.4454299163317));
#400=CARTESIAN_POINT('',(17.9753316255823,-25.9600255935117,-0.940290104425796));
#401=CARTESIAN_POINT('',(17.9753316255823,-0.00117625986180393,13.9839506185693));
#402=CARTESIAN_POINT('',(17.9753316255823,-8.28903977626676,13.9832534850152));
#403=CARTESIAN_POINT('',(17.9753316255823,-14.1055100267351,8.07924163052439));
#404=CARTESIAN_POINT('',(17.9753316255823,-13.9824080124493,-0.207707630007513));
#405=CARTESIAN_POINT('',(5.99177720852744,0.626181694310839,14.0130286312358));
#406=CARTESIAN_POINT('',(5.99177720852745,-7.67891547851084,14.384147534647));
#407=CARTESIAN_POINT('',(5.99177720852745,-13.7723294751747,8.72882489524438));
#408=CARTESIAN_POINT('',(5.99177720852744,-14.0207484167748,0.419152439609685));
#409=CARTESIAN_POINT('',(-5.99177720852743,1.25353964848348,14.0421066439024));
#410=CARTESIAN_POINT('',(-5.99177720852743,-7.06879118075491,14.7850415842788));
#411=CARTESIAN_POINT('',(-5.99177720852743,-13.4391489236144,9.37840815996436));
#412=CARTESIAN_POINT('',(-5.99177720852743,-14.0590888211004,1.04601250922688));
#413=CARTESIAN_POINT('',(-5.99177720852743,0.697936679626153,26.0292374657879));
#414=CARTESIAN_POINT('',(-5.99177720852745,-14.7288031192173,26.4428833732723));
#415=CARTESIAN_POINT('',(-5.99177720852745,-25.8509459242198,15.7445964457716));
#416=CARTESIAN_POINT('',(-5.99177720852743,-26.0367064021627,0.313430034808599));
#417=CARTESIAN_POINT('',(5.99177720852744,0.0705787254535102,26.0001594531213));
#418=CARTESIAN_POINT('',(5.99177720852745,-15.3389274169732,26.0419893236404));
#419=CARTESIAN_POINT('',(5.99177720852745,-26.1841264757802,15.0950131810516));
#420=CARTESIAN_POINT('',(5.99177720852744,-25.9983659978373,-0.313430034808598));
#421=CARTESIAN_POINT('',(48.5,0.,0.));
#422=CARTESIAN_POINT('',(48.5,0.,21.));
#423=CARTESIAN_POINT('',(42.4309391581811,0.,0.));
#424=CARTESIAN_POINT('',(42.4309391581811,0.,21.));
#425=CARTESIAN_POINT('',(0.,0.,0.));
#426=CARTESIAN_POINT('',(50.,0.,0.));
#427=CARTESIAN_POINT('',(50.,0.,19.5));
#428=CARTESIAN_POINT('',(50.,12.,0.));
#429=CARTESIAN_POINT('',(48.5,0.,0.));
#430=CARTESIAN_POINT('',(41.5972125842973,0.,0.));
#431=CARTESIAN_POINT('',(41.5972125842973,0.,20.93));
#432=CARTESIAN_POINT('',(42.4309391581811,0.,0.));
#433=CARTESIAN_POINT('',(16.0406515116404,0.,0.));
#434=CARTESIAN_POINT('',(16.0406515116404,0.,24.08));
#435=CARTESIAN_POINT('',(34.0936734193432,0.,0.));
#436=CARTESIAN_POINT('',(14.0347601885622,0.,0.));
#437=CARTESIAN_POINT('',(14.0347601885622,0.,24.5));
#438=CARTESIAN_POINT('',(14.0347601885622,0.,0.));
#439=CARTESIAN_POINT('',(8.66238814349322,0.,0.));
#440=CARTESIAN_POINT('',(8.66238814349322,0.,24.5));
#441=CARTESIAN_POINT('',(0.,0.,0.));
#442=CARTESIAN_POINT('',(8.18545541309407,0.,0.));
#443=CARTESIAN_POINT('',(8.18545541309407,0.,24.621060200768));
#444=CARTESIAN_POINT('',(8.66238814349322,0.,0.));
#445=CARTESIAN_POINT('',(4.33,0.,0.));
#446=CARTESIAN_POINT('',(4.33,0.,15.4945076986744));
#447=CARTESIAN_POINT('',(8.18545541309407,24.621060200768,0.));
#448=CARTESIAN_POINT('',(8.00682683249568,24.7184120245575,0.));
#449=CARTESIAN_POINT('',(7.82299444756744,24.8044896775921,0.));
#450=CARTESIAN_POINT('',(7.33270474239422,24.9991035816565,0.));
#451=CARTESIAN_POINT('',(7.01565455203301,25.0906655716681,0.));
#452=CARTESIAN_POINT('',(6.3699367727103,25.2102962679667,0.));
#453=CARTESIAN_POINT('',(6.04554477385357,25.2381910020526,0.));
#454=CARTESIAN_POINT('',(5.39377509475143,25.2318160897536,0.));
#455=CARTESIAN_POINT('',(5.06310033986752,25.1965088682418,0.));
#456=CARTESIAN_POINT('',(4.42328900567814,25.0647203980339,0.));
#457=CARTESIAN_POINT('',(4.11230745368505,24.9688803260037,0.));
#458=CARTESIAN_POINT('',(3.50827855710601,24.7170200022503,0.));
#459=CARTESIAN_POINT('',(3.21573137284188,24.5602420977595,0.));
#460=CARTESIAN_POINT('',(2.67379172592956,24.198865546158,0.));
#461=CARTESIAN_POINT('',(2.42095529437528,23.9930512746,0.));
#462=CARTESIAN_POINT('',(1.95295031454817,23.5292293481036,0.));
#463=CARTESIAN_POINT('',(1.74381798079026,23.2768779468681,0.));
#464=CARTESIAN_POINT('',(1.46971557814199,22.8726827682224,0.));
#465=CARTESIAN_POINT('',(1.3847834444856,22.7334331428503,0.));
#466=CARTESIAN_POINT('',(1.22808142543026,22.4456933909462,0.));
#467=CARTESIAN_POINT('',(1.15605283889221,22.2964538324138,0.));
#468=CARTESIAN_POINT('',(0.964314426464963,21.8433884074295,0.));
#469=CARTESIAN_POINT('',(0.86738905876413,21.5324692235739,0.));
#470=CARTESIAN_POINT('',(0.735054724327034,20.8929613186581,0.));
#471=CARTESIAN_POINT('',(0.700235963959344,20.5619979749242,0.));
#472=CARTESIAN_POINT('',(0.69703234745748,19.909710854427,0.));
#473=CARTESIAN_POINT('',(0.727559758906437,19.5852807305555,0.));
#474=CARTESIAN_POINT('',(0.855051191936752,18.9399635164013,0.));
#475=CARTESIAN_POINT('',(0.951317089162025,18.6251627062676,0.));
#476=CARTESIAN_POINT('',(1.14008331884749,18.1748644948599,0.));
#477=CARTESIAN_POINT('',(1.21056221086425,18.0278673101496,0.));
#478=CARTESIAN_POINT('',(1.36691613946343,17.7401933562399,0.));
#479=CARTESIAN_POINT('',(1.45335595706487,17.5987704501503,0.));
#480=CARTESIAN_POINT('',(1.7311392757349,17.1923943361834,0.));
#481=CARTESIAN_POINT('',(1.94109383333579,16.9437027521945,0.));
#482=CARTESIAN_POINT('',(2.40933363155811,16.4896936964609,0.));
#483=CARTESIAN_POINT('',(2.67050920561282,16.2831539663961,0.));
#484=CARTESIAN_POINT('',(3.2199159246816,15.9314730041475,0.));
#485=CARTESIAN_POINT('',(3.50985628443273,15.7839073506444,0.));
#486=CARTESIAN_POINT('',(3.96757090252789,15.6048756898808,0.));
#487=CARTESIAN_POINT('',(4.12469099554511,15.552163415675,0.));
#488=CARTESIAN_POINT('',(4.29828243540401,15.5032037454819,0.));
#489=CARTESIAN_POINT('',(4.31413503060489,15.4988159525058,0.));
#490=CARTESIAN_POINT('',(4.33,15.4945076986744,0.));
#491=CARTESIAN_POINT('',(0.,0.,0.));
#492=CARTESIAN_POINT('',(5.06246608489218,0.,0.));
#493=CARTESIAN_POINT('',(5.06246608489218,0.,14.6170665211596));
#494=CARTESIAN_POINT('',(4.06627138680043,0.,0.));
#495=CARTESIAN_POINT('',(6.34129369949766,0.,0.));
#496=CARTESIAN_POINT('',(5.06246608489218,0.,0.));
#497=(
GEOMETRIC_REPRESENTATION_CONTEXT(3)
GLOBAL_UNCERTAINTY_ASSIGNED_CONTEXT((#498))
GLOBAL_UNIT_ASSIGNED_CONTEXT((#504,#500,#499))
REPRESENTATION_CONTEXT('model1','TOP_LEVEL_ASSEMBLY_PART')
);
#498=UNCERTAINTY_MEASURE_WITH_UNIT(LENGTH_MEASURE(2.E-5),#504,
'DISTANCE_ACCURACY_VALUE','Maximum Tolerance applied to model');
#499=(
NAMED_UNIT(*)
SI_UNIT($,.STERADIAN.)
SOLID_ANGLE_UNIT()
);
#500=(
CONVERSION_BASED_UNIT('DEGREE',#502)
NAMED_UNIT(#501)
PLANE_ANGLE_UNIT()
);
#501=DIMENSIONAL_EXPONENTS(0.,0.,0.,0.,0.,0.,0.);
#502=PLANE_ANGLE_MEASURE_WITH_UNIT(PLANE_ANGLE_MEASURE(0.0174532925),#503);
#503=(
NAMED_UNIT(*)
PLANE_ANGLE_UNIT()
SI_UNIT($,.RADIAN.)
);
#504=(
LENGTH_UNIT()
NAMED_UNIT(*)
SI_UNIT(.MILLI.,.METRE.)
);
ENDSEC;
END-ISO-10303-21;
