ISO-10303-21;
HEADER;
/* Generated by software containing ST-Developer
 * from STEP Tools, Inc. (www.steptools.com) 
 */
/* OPTION: using custom schema-name function */

FILE_DESCRIPTION(
/* description */ (''),
/* implementation_level */ '2;1');

FILE_NAME(
/* name */ 'model1.stp',
/* time_stamp */ '2023-11-06T16:22:26+03:00',
/* author */ (''),
/* organization */ (''),
/* preprocessor_version */ 'ST-DEVELOPER v19.4',
/* originating_system */ 'SIEMENS PLM Software NX2306.3001',
/* authorisation */ '');

FILE_SCHEMA (('AUTOMOTIVE_DESIGN { 1 0 10303 214 3 1 1 1 }'));
ENDSEC;

DATA;
#10=PROPERTY_DEFINITION_REPRESENTATION(#14,#12);
#11=PROPERTY_DEFINITION_REPRESENTATION(#15,#13);
#12=REPRESENTATION('',(#16),#507);
#13=REPRESENTATION('',(#17),#507);
#14=PROPERTY_DEFINITION('pmi validation property','',#21);
#15=PROPERTY_DEFINITION('pmi validation property','',#21);
#16=VALUE_REPRESENTATION_ITEM('number of annotations',COUNT_MEASURE(0.));
#17=VALUE_REPRESENTATION_ITEM('number of views',COUNT_MEASURE(0.));
#18=SHAPE_REPRESENTATION_RELATIONSHIP('None',
'relationship between model1_objects-None and model1_objects-None',#30,
#19);
#19=ADVANCED_BREP_SHAPE_REPRESENTATION('model1_objects-None',(#155,#156),
#507);
#20=SHAPE_DEFINITION_REPRESENTATION(#21,#30);
#21=PRODUCT_DEFINITION_SHAPE('','',#22);
#22=PRODUCT_DEFINITION(' ','',#24,#23);
#23=PRODUCT_DEFINITION_CONTEXT('part definition',#29,'design');
#24=PRODUCT_DEFINITION_FORMATION_WITH_SPECIFIED_SOURCE(' ',' ',#26,
 .NOT_KNOWN.);
#25=PRODUCT_RELATED_PRODUCT_CATEGORY('part','',(#26));
#26=PRODUCT('model1_objects','model1_objects',' ',(#27));
#27=PRODUCT_CONTEXT(' ',#29,'mechanical');
#28=APPLICATION_PROTOCOL_DEFINITION('international standard',
'automotive_design',2010,#29);
#29=APPLICATION_CONTEXT(
'core data for automotive mechanical design processes');
#30=SHAPE_REPRESENTATION('model1_objects-None',(#303),#507);
#31=OVER_RIDING_STYLED_ITEM('',(#66),#161,#63);
#32=OVER_RIDING_STYLED_ITEM('',(#67),#162,#63);
#33=OVER_RIDING_STYLED_ITEM('',(#68),#163,#63);
#34=OVER_RIDING_STYLED_ITEM('',(#69),#164,#63);
#35=OVER_RIDING_STYLED_ITEM('',(#70),#165,#63);
#36=OVER_RIDING_STYLED_ITEM('',(#71),#166,#63);
#37=OVER_RIDING_STYLED_ITEM('',(#72),#167,#63);
#38=OVER_RIDING_STYLED_ITEM('',(#73),#168,#63);
#39=OVER_RIDING_STYLED_ITEM('',(#74),#169,#63);
#40=OVER_RIDING_STYLED_ITEM('',(#75),#170,#63);
#41=OVER_RIDING_STYLED_ITEM('',(#76),#171,#63);
#42=OVER_RIDING_STYLED_ITEM('',(#77),#172,#63);
#43=OVER_RIDING_STYLED_ITEM('',(#78),#173,#63);
#44=COLOUR_RGB('Medium Steel',0.611764705882353,0.658823529411765,0.670588235294118);
#45=COLOUR_RGB('silver gray',0.6,0.6,0.6);
#46=VERTEX_LOOP('',#274);
#47=CONICAL_SURFACE('',#313,32.5,30.);
#48=CONICAL_SURFACE('',#319,34.6431457505076,45.);
#49=CONICAL_SURFACE('',#330,38.4216818401157,80.0000000000002);
#50=TOROIDAL_SURFACE('',#311,30.5,2.);
#51=TOROIDAL_SURFACE('',#317,40.3,8.);
#52=TOROIDAL_SURFACE('',#321,43.5,5.);
#53=TOROIDAL_SURFACE('',#325,49.5,1.);
#54=TOROIDAL_SURFACE('',#327,44.0444696852003,5.00903770842986);
#55=TOROIDAL_SURFACE('',#329,38.2480336624487,1.);
#56=PLANE('',#310);
#57=FACE_OUTER_BOUND('',#210,.T.);
#58=CYLINDRICAL_SURFACE('',#308,32.5);
#59=CYLINDRICAL_SURFACE('',#315,32.3);
#60=CYLINDRICAL_SURFACE('',#323,48.5);
#61=PRESENTATION_LAYER_ASSIGNMENT('1','Layer 1',(#155,#156));
#62=STYLED_ITEM('',(#64),#155);
#63=STYLED_ITEM('',(#65),#156);
#64=PRESENTATION_STYLE_ASSIGNMENT((#79));
#65=PRESENTATION_STYLE_ASSIGNMENT((#80));
#66=PRESENTATION_STYLE_ASSIGNMENT((#81));
#67=PRESENTATION_STYLE_ASSIGNMENT((#82));
#68=PRESENTATION_STYLE_ASSIGNMENT((#83));
#69=PRESENTATION_STYLE_ASSIGNMENT((#84));
#70=PRESENTATION_STYLE_ASSIGNMENT((#85));
#71=PRESENTATION_STYLE_ASSIGNMENT((#86));
#72=PRESENTATION_STYLE_ASSIGNMENT((#87));
#73=PRESENTATION_STYLE_ASSIGNMENT((#88));
#74=PRESENTATION_STYLE_ASSIGNMENT((#89));
#75=PRESENTATION_STYLE_ASSIGNMENT((#90));
#76=PRESENTATION_STYLE_ASSIGNMENT((#91));
#77=PRESENTATION_STYLE_ASSIGNMENT((#92));
#78=PRESENTATION_STYLE_ASSIGNMENT((#93));
#79=SURFACE_STYLE_USAGE(.BOTH.,#94);
#80=SURFACE_STYLE_USAGE(.BOTH.,#95);
#81=SURFACE_STYLE_USAGE(.BOTH.,#96);
#82=SURFACE_STYLE_USAGE(.BOTH.,#97);
#83=SURFACE_STYLE_USAGE(.BOTH.,#98);
#84=SURFACE_STYLE_USAGE(.BOTH.,#99);
#85=SURFACE_STYLE_USAGE(.BOTH.,#100);
#86=SURFACE_STYLE_USAGE(.BOTH.,#101);
#87=SURFACE_STYLE_USAGE(.BOTH.,#102);
#88=SURFACE_STYLE_USAGE(.BOTH.,#103);
#89=SURFACE_STYLE_USAGE(.BOTH.,#104);
#90=SURFACE_STYLE_USAGE(.BOTH.,#105);
#91=SURFACE_STYLE_USAGE(.BOTH.,#106);
#92=SURFACE_STYLE_USAGE(.BOTH.,#107);
#93=SURFACE_STYLE_USAGE(.BOTH.,#108);
#94=SURFACE_SIDE_STYLE('',(#109));
#95=SURFACE_SIDE_STYLE('',(#110));
#96=SURFACE_SIDE_STYLE('',(#111));
#97=SURFACE_SIDE_STYLE('',(#112));
#98=SURFACE_SIDE_STYLE('',(#113));
#99=SURFACE_SIDE_STYLE('',(#114));
#100=SURFACE_SIDE_STYLE('',(#115));
#101=SURFACE_SIDE_STYLE('',(#116));
#102=SURFACE_SIDE_STYLE('',(#117));
#103=SURFACE_SIDE_STYLE('',(#118));
#104=SURFACE_SIDE_STYLE('',(#119));
#105=SURFACE_SIDE_STYLE('',(#120));
#106=SURFACE_SIDE_STYLE('',(#121));
#107=SURFACE_SIDE_STYLE('',(#122));
#108=SURFACE_SIDE_STYLE('',(#123));
#109=SURFACE_STYLE_FILL_AREA(#124);
#110=SURFACE_STYLE_FILL_AREA(#125);
#111=SURFACE_STYLE_FILL_AREA(#126);
#112=SURFACE_STYLE_FILL_AREA(#127);
#113=SURFACE_STYLE_FILL_AREA(#128);
#114=SURFACE_STYLE_FILL_AREA(#129);
#115=SURFACE_STYLE_FILL_AREA(#130);
#116=SURFACE_STYLE_FILL_AREA(#131);
#117=SURFACE_STYLE_FILL_AREA(#132);
#118=SURFACE_STYLE_FILL_AREA(#133);
#119=SURFACE_STYLE_FILL_AREA(#134);
#120=SURFACE_STYLE_FILL_AREA(#135);
#121=SURFACE_STYLE_FILL_AREA(#136);
#122=SURFACE_STYLE_FILL_AREA(#137);
#123=SURFACE_STYLE_FILL_AREA(#138);
#124=FILL_AREA_STYLE('',(#139));
#125=FILL_AREA_STYLE('',(#140));
#126=FILL_AREA_STYLE('',(#141));
#127=FILL_AREA_STYLE('',(#142));
#128=FILL_AREA_STYLE('',(#143));
#129=FILL_AREA_STYLE('',(#144));
#130=FILL_AREA_STYLE('',(#145));
#131=FILL_AREA_STYLE('',(#146));
#132=FILL_AREA_STYLE('',(#147));
#133=FILL_AREA_STYLE('',(#148));
#134=FILL_AREA_STYLE('',(#149));
#135=FILL_AREA_STYLE('',(#150));
#136=FILL_AREA_STYLE('',(#151));
#137=FILL_AREA_STYLE('',(#152));
#138=FILL_AREA_STYLE('',(#153));
#139=FILL_AREA_STYLE_COLOUR('',#154);
#140=FILL_AREA_STYLE_COLOUR('',#44);
#141=FILL_AREA_STYLE_COLOUR('',#45);
#142=FILL_AREA_STYLE_COLOUR('',#45);
#143=FILL_AREA_STYLE_COLOUR('',#45);
#144=FILL_AREA_STYLE_COLOUR('',#45);
#145=FILL_AREA_STYLE_COLOUR('',#45);
#146=FILL_AREA_STYLE_COLOUR('',#45);
#147=FILL_AREA_STYLE_COLOUR('',#45);
#148=FILL_AREA_STYLE_COLOUR('',#45);
#149=FILL_AREA_STYLE_COLOUR('',#45);
#150=FILL_AREA_STYLE_COLOUR('',#45);
#151=FILL_AREA_STYLE_COLOUR('',#45);
#152=FILL_AREA_STYLE_COLOUR('',#45);
#153=FILL_AREA_STYLE_COLOUR('',#45);
#154=DRAUGHTING_PRE_DEFINED_COLOUR('yellow');
#155=MANIFOLD_SOLID_BREP('',#157);
#156=MANIFOLD_SOLID_BREP('',#158);
#157=CLOSED_SHELL('',(#159,#160));
#158=CLOSED_SHELL('',(#161,#162,#163,#164,#165,#166,#167,#168,#169,#170,
#171,#172,#173));
#159=ADVANCED_FACE('',(#176,#177),#174,.F.);
#160=ADVANCED_FACE('',(#178,#179),#175,.F.);
#161=ADVANCED_FACE('',(#180,#181),#58,.T.);
#162=ADVANCED_FACE('',(#57),#56,.F.);
#163=ADVANCED_FACE('',(#182,#183),#50,.T.);
#164=ADVANCED_FACE('',(#184,#185),#47,.T.);
#165=ADVANCED_FACE('',(#186,#187),#59,.T.);
#166=ADVANCED_FACE('',(#188,#189),#51,.F.);
#167=ADVANCED_FACE('',(#190,#191),#48,.T.);
#168=ADVANCED_FACE('',(#192,#193),#52,.T.);
#169=ADVANCED_FACE('',(#194,#195),#60,.T.);
#170=ADVANCED_FACE('',(#196,#197),#53,.F.);
#171=ADVANCED_FACE('',(#198,#199),#54,.T.);
#172=ADVANCED_FACE('',(#200,#201),#55,.F.);
#173=ADVANCED_FACE('',(#202,#203),#49,.F.);
#174=(
BOUNDED_SURFACE()
B_SPLINE_SURFACE(3,3,((#392,#393,#394,#395,#396,#397,#398),(#399,#400,#401,
#402,#403,#404,#405),(#406,#407,#408,#409,#410,#411,#412),(#413,#414,#415,
#416,#417,#418,#419),(#420,#421,#422,#423,#424,#425,#426),(#427,#428,#429,
#430,#431,#432,#433),(#434,#435,#436,#437,#438,#439,#440)),
 .UNSPECIFIED.,.T.,.F.,.F.)
B_SPLINE_SURFACE_WITH_KNOTS((1,3,3,3,1),(4,3,4),(-0.5,0.,0.5,1.,1.5),(0.,
0.5,1.),.UNSPECIFIED.)
GEOMETRIC_REPRESENTATION_ITEM()
RATIONAL_B_SPLINE_SURFACE(((1.,0.589557855805801,0.589557855805801,1.,0.589557855805801,
0.589557855805801,1.),(0.333333333333334,0.1965192852686,0.1965192852686,
0.333333333333334,0.1965192852686,0.1965192852686,0.333333333333334),(0.333333333333334,
0.1965192852686,0.1965192852686,0.333333333333334,0.1965192852686,0.1965192852686,
0.333333333333334),(1.,0.589557855805801,0.589557855805801,1.,0.589557855805801,
0.589557855805801,1.),(0.333333333333334,0.1965192852686,0.1965192852686,
0.333333333333334,0.1965192852686,0.1965192852686,0.333333333333334),(0.333333333333334,
0.1965192852686,0.1965192852686,0.333333333333334,0.1965192852686,0.1965192852686,
0.333333333333334),(1.,0.589557855805801,0.589557855805801,1.,0.589557855805801,
0.589557855805801,1.)))
REPRESENTATION_ITEM('')
SURFACE()
);
#175=(
BOUNDED_SURFACE()
B_SPLINE_SURFACE(3,3,((#441,#442,#443,#444),(#445,#446,#447,#448),(#449,
#450,#451,#452),(#453,#454,#455,#456),(#457,#458,#459,#460),(#461,#462,
#463,#464),(#465,#466,#467,#468)),.UNSPECIFIED.,.T.,.F.,.F.)
B_SPLINE_SURFACE_WITH_KNOTS((1,3,3,3,1),(4,4),(-0.5,0.,0.5,1.,1.5),(0.,
1.),.UNSPECIFIED.)
GEOMETRIC_REPRESENTATION_ITEM()
RATIONAL_B_SPLINE_SURFACE(((1.,0.803046982251268,0.803046982251268,1.),
(0.333333333333334,0.267682327417089,0.267682327417089,0.333333333333334),
(0.333333333333334,0.267682327417089,0.267682327417089,0.333333333333334),
(1.,0.803046982251268,0.803046982251268,1.),(0.333333333333334,0.267682327417089,
0.267682327417089,0.333333333333334),(0.333333333333334,0.267682327417089,
0.267682327417089,0.333333333333334),(1.,0.803046982251268,0.803046982251268,
1.)))
REPRESENTATION_ITEM('')
SURFACE()
);
#176=FACE_BOUND('',#204,.T.);
#177=FACE_BOUND('',#205,.T.);
#178=FACE_BOUND('',#206,.T.);
#179=FACE_BOUND('',#207,.T.);
#180=FACE_BOUND('',#208,.T.);
#181=FACE_BOUND('',#209,.T.);
#182=FACE_BOUND('',#211,.T.);
#183=FACE_BOUND('',#212,.T.);
#184=FACE_BOUND('',#213,.T.);
#185=FACE_BOUND('',#214,.T.);
#186=FACE_BOUND('',#215,.T.);
#187=FACE_BOUND('',#216,.T.);
#188=FACE_BOUND('',#217,.T.);
#189=FACE_BOUND('',#218,.T.);
#190=FACE_BOUND('',#219,.T.);
#191=FACE_BOUND('',#220,.T.);
#192=FACE_BOUND('',#221,.T.);
#193=FACE_BOUND('',#222,.T.);
#194=FACE_BOUND('',#223,.T.);
#195=FACE_BOUND('',#224,.T.);
#196=FACE_BOUND('',#225,.T.);
#197=FACE_BOUND('',#226,.T.);
#198=FACE_BOUND('',#227,.T.);
#199=FACE_BOUND('',#228,.T.);
#200=FACE_BOUND('',#229,.T.);
#201=FACE_BOUND('',#230,.T.);
#202=FACE_BOUND('',#231,.T.);
#203=FACE_BOUND('',#46,.T.);
#204=EDGE_LOOP('',(#232));
#205=EDGE_LOOP('',(#233));
#206=EDGE_LOOP('',(#234));
#207=EDGE_LOOP('',(#235));
#208=EDGE_LOOP('',(#236));
#209=EDGE_LOOP('',(#237));
#210=EDGE_LOOP('',(#238));
#211=EDGE_LOOP('',(#239));
#212=EDGE_LOOP('',(#240));
#213=EDGE_LOOP('',(#241));
#214=EDGE_LOOP('',(#242));
#215=EDGE_LOOP('',(#243));
#216=EDGE_LOOP('',(#244));
#217=EDGE_LOOP('',(#245));
#218=EDGE_LOOP('',(#246));
#219=EDGE_LOOP('',(#247));
#220=EDGE_LOOP('',(#248));
#221=EDGE_LOOP('',(#249));
#222=EDGE_LOOP('',(#250));
#223=EDGE_LOOP('',(#251));
#224=EDGE_LOOP('',(#252));
#225=EDGE_LOOP('',(#253));
#226=EDGE_LOOP('',(#254));
#227=EDGE_LOOP('',(#255));
#228=EDGE_LOOP('',(#256));
#229=EDGE_LOOP('',(#257));
#230=EDGE_LOOP('',(#258));
#231=EDGE_LOOP('',(#259));
#232=ORIENTED_EDGE('',*,*,#275,.T.);
#233=ORIENTED_EDGE('',*,*,#276,.F.);
#234=ORIENTED_EDGE('',*,*,#276,.T.);
#235=ORIENTED_EDGE('',*,*,#275,.F.);
#236=ORIENTED_EDGE('',*,*,#277,.T.);
#237=ORIENTED_EDGE('',*,*,#278,.F.);
#238=ORIENTED_EDGE('',*,*,#279,.F.);
#239=ORIENTED_EDGE('',*,*,#277,.F.);
#240=ORIENTED_EDGE('',*,*,#279,.T.);
#241=ORIENTED_EDGE('',*,*,#280,.F.);
#242=ORIENTED_EDGE('',*,*,#278,.T.);
#243=ORIENTED_EDGE('',*,*,#281,.F.);
#244=ORIENTED_EDGE('',*,*,#280,.T.);
#245=ORIENTED_EDGE('',*,*,#282,.F.);
#246=ORIENTED_EDGE('',*,*,#281,.T.);
#247=ORIENTED_EDGE('',*,*,#283,.F.);
#248=ORIENTED_EDGE('',*,*,#282,.T.);
#249=ORIENTED_EDGE('',*,*,#284,.F.);
#250=ORIENTED_EDGE('',*,*,#283,.T.);
#251=ORIENTED_EDGE('',*,*,#285,.F.);
#252=ORIENTED_EDGE('',*,*,#284,.T.);
#253=ORIENTED_EDGE('',*,*,#286,.F.);
#254=ORIENTED_EDGE('',*,*,#285,.T.);
#255=ORIENTED_EDGE('',*,*,#287,.F.);
#256=ORIENTED_EDGE('',*,*,#286,.T.);
#257=ORIENTED_EDGE('',*,*,#288,.F.);
#258=ORIENTED_EDGE('',*,*,#287,.T.);
#259=ORIENTED_EDGE('',*,*,#288,.T.);
#260=VERTEX_POINT('',#389);
#261=VERTEX_POINT('',#391);
#262=VERTEX_POINT('',#470);
#263=VERTEX_POINT('',#472);
#264=VERTEX_POINT('',#475);
#265=VERTEX_POINT('',#479);
#266=VERTEX_POINT('',#482);
#267=VERTEX_POINT('',#485);
#268=VERTEX_POINT('',#488);
#269=VERTEX_POINT('',#491);
#270=VERTEX_POINT('',#494);
#271=VERTEX_POINT('',#497);
#272=VERTEX_POINT('',#500);
#273=VERTEX_POINT('',#503);
#274=VERTEX_POINT('',#505);
#275=EDGE_CURVE('',#260,#260,#289,.T.);
#276=EDGE_CURVE('',#261,#261,#290,.T.);
#277=EDGE_CURVE('',#262,#262,#291,.T.);
#278=EDGE_CURVE('',#263,#263,#292,.T.);
#279=EDGE_CURVE('',#264,#264,#293,.T.);
#280=EDGE_CURVE('',#265,#265,#294,.T.);
#281=EDGE_CURVE('',#266,#266,#295,.T.);
#282=EDGE_CURVE('',#267,#267,#296,.T.);
#283=EDGE_CURVE('',#268,#268,#297,.T.);
#284=EDGE_CURVE('',#269,#269,#298,.T.);
#285=EDGE_CURVE('',#270,#270,#299,.T.);
#286=EDGE_CURVE('',#271,#271,#300,.T.);
#287=EDGE_CURVE('',#272,#272,#301,.T.);
#288=EDGE_CURVE('',#273,#273,#302,.T.);
#289=CIRCLE('',#304,6.);
#290=CIRCLE('',#305,6.);
#291=CIRCLE('',#306,32.5);
#292=CIRCLE('',#307,32.5);
#293=CIRCLE('',#309,30.5);
#294=CIRCLE('',#312,32.3);
#295=CIRCLE('',#314,32.3);
#296=CIRCLE('',#316,34.6431457505076);
#297=CIRCLE('',#318,47.0355339059327);
#298=CIRCLE('',#320,48.5);
#299=CIRCLE('',#322,48.5);
#300=CIRCLE('',#324,48.5921124846419);
#301=CIRCLE('',#326,39.2126533410072);
#302=CIRCLE('',#328,38.4216818401157);
#303=AXIS2_PLACEMENT_3D('',#387,#331,#332);
#304=AXIS2_PLACEMENT_3D('',#388,#333,#334);
#305=AXIS2_PLACEMENT_3D('',#390,#335,#336);
#306=AXIS2_PLACEMENT_3D('',#469,#337,#338);
#307=AXIS2_PLACEMENT_3D('',#471,#339,#340);
#308=AXIS2_PLACEMENT_3D('',#473,#341,#342);
#309=AXIS2_PLACEMENT_3D('',#474,#343,#344);
#310=AXIS2_PLACEMENT_3D('',#476,#345,#346);
#311=AXIS2_PLACEMENT_3D('',#477,#347,#348);
#312=AXIS2_PLACEMENT_3D('',#478,#349,#350);
#313=AXIS2_PLACEMENT_3D('',#480,#351,#352);
#314=AXIS2_PLACEMENT_3D('',#481,#353,#354);
#315=AXIS2_PLACEMENT_3D('',#483,#355,#356);
#316=AXIS2_PLACEMENT_3D('',#484,#357,#358);
#317=AXIS2_PLACEMENT_3D('',#486,#359,#360);
#318=AXIS2_PLACEMENT_3D('',#487,#361,#362);
#319=AXIS2_PLACEMENT_3D('',#489,#363,#364);
#320=AXIS2_PLACEMENT_3D('',#490,#365,#366);
#321=AXIS2_PLACEMENT_3D('',#492,#367,#368);
#322=AXIS2_PLACEMENT_3D('',#493,#369,#370);
#323=AXIS2_PLACEMENT_3D('',#495,#371,#372);
#324=AXIS2_PLACEMENT_3D('',#496,#373,#374);
#325=AXIS2_PLACEMENT_3D('',#498,#375,#376);
#326=AXIS2_PLACEMENT_3D('',#499,#377,#378);
#327=AXIS2_PLACEMENT_3D('',#501,#379,#380);
#328=AXIS2_PLACEMENT_3D('',#502,#381,#382);
#329=AXIS2_PLACEMENT_3D('',#504,#383,#384);
#330=AXIS2_PLACEMENT_3D('',#506,#385,#386);
#331=DIRECTION('',(0.,0.,1.));
#332=DIRECTION('',(1.,0.,0.));
#333=DIRECTION('',(0.052335956242944,0.997965406508704,0.0364142155765317));
#334=DIRECTION('',(0.998626927645156,-0.0523843360239979,0.000375128405180382));
#335=DIRECTION('',(0.052335956242944,-0.0435596085109251,0.997679060715675));
#336=DIRECTION('',(0.998626927645156,0.,-0.0523856791689818));
#337=DIRECTION('',(-1.,0.,0.));
#338=DIRECTION('',(0.,0.,1.));
#339=DIRECTION('',(-1.,0.,0.));
#340=DIRECTION('',(0.,0.,1.));
#341=DIRECTION('',(-1.,0.,0.));
#342=DIRECTION('',(0.,0.,1.));
#343=DIRECTION('',(-1.,0.,0.));
#344=DIRECTION('',(0.,0.,1.));
#345=DIRECTION('',(-1.,0.,0.));
#346=DIRECTION('',(0.,0.,1.));
#347=DIRECTION('',(-1.,0.,0.));
#348=DIRECTION('',(0.,0.,1.));
#349=DIRECTION('',(-1.,0.,0.));
#350=DIRECTION('',(0.,0.,1.));
#351=DIRECTION('',(1.,0.,0.));
#352=DIRECTION('',(5.68901438145439E-17,0.,-1.));
#353=DIRECTION('',(-1.,0.,0.));
#354=DIRECTION('',(0.,0.,1.));
#355=DIRECTION('',(-1.,0.,0.));
#356=DIRECTION('',(0.,0.,1.));
#357=DIRECTION('',(-1.,0.,0.));
#358=DIRECTION('',(0.,0.,1.));
#359=DIRECTION('',(-1.,0.,0.));
#360=DIRECTION('',(0.,0.,1.));
#361=DIRECTION('',(-1.,0.,0.));
#362=DIRECTION('',(0.,0.,1.));
#363=DIRECTION('',(-1.,0.,0.));
#364=DIRECTION('',(-3.35327882488116E-17,0.,1.));
#365=DIRECTION('',(-1.,0.,0.));
#366=DIRECTION('',(0.,0.,1.));
#367=DIRECTION('',(-1.,0.,0.));
#368=DIRECTION('',(0.,0.,1.));
#369=DIRECTION('',(-1.,0.,0.));
#370=DIRECTION('',(0.,0.,1.));
#371=DIRECTION('',(-1.,0.,0.));
#372=DIRECTION('',(0.,0.,1.));
#373=DIRECTION('',(-1.,0.,0.));
#374=DIRECTION('',(0.,0.,1.));
#375=DIRECTION('',(-1.,0.,0.));
#376=DIRECTION('',(0.,0.,1.));
#377=DIRECTION('',(-1.,0.,0.));
#378=DIRECTION('',(0.,0.,1.));
#379=DIRECTION('',(-1.,0.,0.));
#380=DIRECTION('',(0.,0.,1.));
#381=DIRECTION('',(-1.,0.,0.));
#382=DIRECTION('',(0.,0.,1.));
#383=DIRECTION('',(-1.,0.,0.));
#384=DIRECTION('',(0.,0.,1.));
#385=DIRECTION('',(-1.,0.,0.));
#386=DIRECTION('',(-6.68404523312724E-18,0.,1.));
#387=CARTESIAN_POINT('',(0.,0.,0.));
#388=CARTESIAN_POINT('',(5.99177720852745,0.263113981567959,44.0039586260178));
#389=CARTESIAN_POINT('',(11.9835387743984,-0.0511920345760284,44.0062093964489));
#390=CARTESIAN_POINT('',(5.99177720852745,-44.0047145164179,-0.0520005398637778));
#391=CARTESIAN_POINT('',(11.9835387743984,-44.0047145164179,-0.366314614877669));
#392=CARTESIAN_POINT('',(11.9835387743984,-44.0047145164179,-0.366314614877668));
#393=CARTESIAN_POINT('',(11.9835387743984,-43.6223046937161,-46.3045174405696));
#394=CARTESIAN_POINT('',(11.9835387743984,-1.06550520573279,-63.6072205087754));
#395=CARTESIAN_POINT('',(11.9835387743984,31.2643718518607,-30.9691481764852));
#396=CARTESIAN_POINT('',(11.9835387743984,63.594248909454,1.66892415580504));
#397=CARTESIAN_POINT('',(11.9835387743984,45.888571353497,44.0596507172995));
#398=CARTESIAN_POINT('',(11.9835387743984,-0.0511920345760177,44.0062093964489));
#399=CARTESIAN_POINT('',(12.0109215705125,-32.0161045589241,0.155682961322623));
#400=CARTESIAN_POINT('',(12.0109215705126,-32.1786279506184,-33.2671518662432));
#401=CARTESIAN_POINT('',(12.0109215705125,-1.38536593737879,-46.2628171569302));
#402=CARTESIAN_POINT('',(12.0109215705125,22.447124018451,-22.8294067293193));
#403=CARTESIAN_POINT('',(12.0109215705125,46.2796139742809,0.604003698291567));
#404=CARTESIAN_POINT('',(12.0109215705125,33.8057570358284,31.6123121791264));
#405=CARTESIAN_POINT('',(12.0109215705125,0.384942967663989,32.014168851058));
#406=CARTESIAN_POINT('',(0.0273984387706656,-32.0161045589241,0.784311111350404));
#407=CARTESIAN_POINT('',(0.0273984387706657,-32.8348768951978,-32.6385237162154));
#408=CARTESIAN_POINT('',(0.0273984387706657,-2.29383549063003,-46.2400334108732));
#409=CARTESIAN_POINT('',(0.0273984387706656,22.0010280947352,-23.2723195625624));
#410=CARTESIAN_POINT('',(0.0273984387706657,46.2958916801004,-0.304605714251658));
#411=CARTESIAN_POINT('',(0.0273984387706657,34.4296697376145,30.9515785196093));
#412=CARTESIAN_POINT('',(0.0273984387706656,1.01355499995196,32.0096673101958));
#413=CARTESIAN_POINT('',(1.56426565069146E-5,-44.0047145164179,0.262313535150113));
#414=CARTESIAN_POINT('',(1.56426565069145E-5,-44.2785536382954,-45.6758892905419));
#415=CARTESIAN_POINT('',(1.56426565069145E-5,-1.97397475898403,-63.5844367627184));
#416=CARTESIAN_POINT('',(1.56426565069146E-5,30.8182759281448,-31.4120610097283));
#417=CARTESIAN_POINT('',(1.56426565069145E-5,63.6105266152735,0.760314743261818));
#418=CARTESIAN_POINT('',(1.56426565069145E-5,46.5124840552832,43.3989170577824));
#419=CARTESIAN_POINT('',(1.56426565069146E-5,0.577419997711957,44.0017078555868));
#420=CARTESIAN_POINT('',(-0.0273671534576518,-55.9933244739115,-0.259684041050178));
#421=CARTESIAN_POINT('',(-0.0273671534576519,-55.7222303813933,-58.7132548648685));
#422=CARTESIAN_POINT('',(-0.0273671534576519,-1.65411402733804,-80.9288401145639));
#423=CARTESIAN_POINT('',(-0.0273671534576518,39.6355237615544,-39.5518024568942));
#424=CARTESIAN_POINT('',(-0.0273671534576519,80.9251615504468,1.8252352007753));
#425=CARTESIAN_POINT('',(-0.0273671534576519,58.5952983729519,55.8462555959557));
#426=CARTESIAN_POINT('',(-0.0273671534576518,0.141284995471939,55.9937484009775));
#427=CARTESIAN_POINT('',(11.9561559782842,-55.9933244739115,-0.88831219107796));
#428=CARTESIAN_POINT('',(11.9561559782843,-55.0659814368139,-59.3418830148963));
#429=CARTESIAN_POINT('',(11.9561559782843,-0.745644474086809,-80.9516238606208));
#430=CARTESIAN_POINT('',(11.9561559782842,40.0816196852702,-39.1088896236511));
#431=CARTESIAN_POINT('',(11.9561559782843,80.9088838446274,2.73384461331852));
#432=CARTESIAN_POINT('',(11.9561559782842,57.9713856711658,56.5069892554727));
#433=CARTESIAN_POINT('',(11.9561559782842,-0.487327036816029,55.9982499418398));
#434=CARTESIAN_POINT('',(11.9835387743984,-44.0047145164179,-0.366314614877668));
#435=CARTESIAN_POINT('',(11.9835387743984,-43.6223046937161,-46.3045174405696));
#436=CARTESIAN_POINT('',(11.9835387743984,-1.06550520573279,-63.6072205087754));
#437=CARTESIAN_POINT('',(11.9835387743984,31.2643718518607,-30.9691481764852));
#438=CARTESIAN_POINT('',(11.9835387743984,63.594248909454,1.66892415580504));
#439=CARTESIAN_POINT('',(11.9835387743984,45.888571353497,44.0596507172995));
#440=CARTESIAN_POINT('',(11.9835387743984,-0.0511920345760177,44.0062093964489));
#441=CARTESIAN_POINT('',(11.9835387743984,-0.0511920345760283,44.0062093964489));
#442=CARTESIAN_POINT('',(11.9835387743984,-25.9760375675075,43.9760512526983));
#443=CARTESIAN_POINT('',(11.9835387743984,-44.2205170119613,25.5576502574737));
#444=CARTESIAN_POINT('',(11.9835387743984,-44.0047145164179,-0.366314614877669));
#445=CARTESIAN_POINT('',(12.0109215705125,0.384942967663986,32.014168851058));
#446=CARTESIAN_POINT('',(12.0109215705125,-18.4751768588766,32.2409456426188));
#447=CARTESIAN_POINT('',(12.0109215705125,-31.9243889401569,19.0169431480105));
#448=CARTESIAN_POINT('',(12.0109215705125,-32.0161045589241,0.155682961322622));
#449=CARTESIAN_POINT('',(0.0273984387706656,1.01355499995196,32.0096673101958));
#450=CARTESIAN_POINT('',(0.0273984387706656,-17.8439128883029,32.6067707002235));
#451=CARTESIAN_POINT('',(0.0273984387706656,-31.554052846441,19.6455712980382));
#452=CARTESIAN_POINT('',(0.0273984387706656,-32.0161045589241,0.784311111350404));
#453=CARTESIAN_POINT('',(1.56426565069146E-5,0.577419997711946,44.0017078555868));
#454=CARTESIAN_POINT('',(1.56426565069146E-5,-25.3447735969337,44.341876310303));
#455=CARTESIAN_POINT('',(1.56426565069146E-5,-43.8501809182455,26.1862784075015));
#456=CARTESIAN_POINT('',(1.56426565069146E-5,-44.0047145164179,0.262313535150113));
#457=CARTESIAN_POINT('',(-0.0273671534576518,0.141284995471932,55.9937484009775));
#458=CARTESIAN_POINT('',(-0.0273671534576518,-32.8456343055645,56.0769819203824));
#459=CARTESIAN_POINT('',(-0.0273671534576518,-56.1463089900499,32.7269855169647));
#460=CARTESIAN_POINT('',(-0.0273671534576518,-55.9933244739115,-0.259684041050179));
#461=CARTESIAN_POINT('',(11.9561559782842,-0.487327036816042,55.9982499418398));
#462=CARTESIAN_POINT('',(11.9561559782842,-33.4768982761383,55.7111568627777));
#463=CARTESIAN_POINT('',(11.9561559782842,-56.5166450837657,32.0983573669369));
#464=CARTESIAN_POINT('',(11.9561559782842,-55.9933244739115,-0.88831219107796));
#465=CARTESIAN_POINT('',(11.9835387743984,-0.0511920345760283,44.0062093964489));
#466=CARTESIAN_POINT('',(11.9835387743984,-25.9760375675075,43.9760512526983));
#467=CARTESIAN_POINT('',(11.9835387743984,-44.2205170119613,25.5576502574737));
#468=CARTESIAN_POINT('',(11.9835387743984,-44.0047145164179,-0.366314614877669));
#469=CARTESIAN_POINT('',(48.,0.,0.));
#470=CARTESIAN_POINT('',(48.,0.,32.5));
#471=CARTESIAN_POINT('',(40.,0.,0.));
#472=CARTESIAN_POINT('',(40.,0.,32.5));
#473=CARTESIAN_POINT('',(0.,0.,0.));
#474=CARTESIAN_POINT('',(50.,0.,0.));
#475=CARTESIAN_POINT('',(50.,0.,30.5));
#476=CARTESIAN_POINT('',(50.,17.2,0.));
#477=CARTESIAN_POINT('',(48.,0.,0.));
#478=CARTESIAN_POINT('',(39.6535898384862,0.,0.));
#479=CARTESIAN_POINT('',(39.6535898384862,0.,32.3));
#480=CARTESIAN_POINT('',(40.,0.,0.));
#481=CARTESIAN_POINT('',(39.,0.,0.));
#482=CARTESIAN_POINT('',(39.,0.,32.3));
#483=CARTESIAN_POINT('',(0.,0.,0.));
#484=CARTESIAN_POINT('',(33.3431457505076,0.,0.));
#485=CARTESIAN_POINT('',(33.3431457505076,0.,34.6431457505076));
#486=CARTESIAN_POINT('',(39.,0.,0.));
#487=CARTESIAN_POINT('',(20.9507575950825,0.,0.));
#488=CARTESIAN_POINT('',(20.9507575950825,0.,47.0355339059327));
#489=CARTESIAN_POINT('',(33.3431457505076,0.,0.));
#490=CARTESIAN_POINT('',(17.4152236891498,0.,0.));
#491=CARTESIAN_POINT('',(17.4152236891498,0.,48.5));
#492=CARTESIAN_POINT('',(17.4152236891498,0.,0.));
#493=CARTESIAN_POINT('',(8.2358288027259,0.,0.));
#494=CARTESIAN_POINT('',(8.2358288027259,0.,48.5));
#495=CARTESIAN_POINT('',(0.,0.,0.));
#496=CARTESIAN_POINT('',(7.81661494387,0.,0.));
#497=CARTESIAN_POINT('',(7.81661494387,0.,48.5921124846419));
#498=CARTESIAN_POINT('',(8.2358288027259,0.,0.));
#499=CARTESIAN_POINT('',(4.39614736813432,0.,0.));
#500=CARTESIAN_POINT('',(4.39614736813432,0.,39.2126533410072));
#501=CARTESIAN_POINT('',(5.71675691696445,0.,0.));
#502=CARTESIAN_POINT('',(5.11730976135864,0.,0.));
#503=CARTESIAN_POINT('',(5.11730976135864,0.,38.4216818401157));
#504=CARTESIAN_POINT('',(4.13250200834643,0.,0.));
#505=CARTESIAN_POINT('',(11.8920889139674,0.,0.));
#506=CARTESIAN_POINT('',(5.11730976135864,0.,0.));
#507=(
GEOMETRIC_REPRESENTATION_CONTEXT(3)
GLOBAL_UNCERTAINTY_ASSIGNED_CONTEXT((#508))
GLOBAL_UNIT_ASSIGNED_CONTEXT((#514,#510,#509))
REPRESENTATION_CONTEXT('model1','TOP_LEVEL_ASSEMBLY_PART')
);
#508=UNCERTAINTY_MEASURE_WITH_UNIT(LENGTH_MEASURE(2.E-5),#514,
'DISTANCE_ACCURACY_VALUE','Maximum Tolerance applied to model');
#509=(
NAMED_UNIT(*)
SI_UNIT($,.STERADIAN.)
SOLID_ANGLE_UNIT()
);
#510=(
CONVERSION_BASED_UNIT('DEGREE',#512)
NAMED_UNIT(#511)
PLANE_ANGLE_UNIT()
);
#511=DIMENSIONAL_EXPONENTS(0.,0.,0.,0.,0.,0.,0.);
#512=PLANE_ANGLE_MEASURE_WITH_UNIT(PLANE_ANGLE_MEASURE(0.0174532925),#513);
#513=(
NAMED_UNIT(*)
PLANE_ANGLE_UNIT()
SI_UNIT($,.RADIAN.)
);
#514=(
LENGTH_UNIT()
NAMED_UNIT(*)
SI_UNIT(.MILLI.,.METRE.)
);
ENDSEC;
END-ISO-10303-21;
