ISO-10303-21;
HEADER;
/* Generated by software containing ST-Developer
 * from STEP Tools, Inc. (www.steptools.com) 
 */
/* OPTION: using custom schema-name function */

FILE_DESCRIPTION(
/* description */ (''),
/* implementation_level */ '2;1');

FILE_NAME(
/* name */ 'model1.stp',
/* time_stamp */ '2023-11-02T15:59:08+03:00',
/* author */ (''),
/* organization */ (''),
/* preprocessor_version */ 'ST-DEVELOPER v19.4',
/* originating_system */ 'SIEMENS PLM Software NX2306.3001',
/* authorisation */ '');

FILE_SCHEMA (('AUTOMOTIVE_DESIGN { 1 0 10303 214 3 1 1 1 }'));
ENDSEC;

DATA;
#10=PROPERTY_DEFINITION_REPRESENTATION(#14,#12);
#11=PROPERTY_DEFINITION_REPRESENTATION(#15,#13);
#12=REPRESENTATION('',(#16),#463);
#13=REPRESENTATION('',(#17),#463);
#14=PROPERTY_DEFINITION('pmi validation property','',#21);
#15=PROPERTY_DEFINITION('pmi validation property','',#21);
#16=VALUE_REPRESENTATION_ITEM('number of annotations',COUNT_MEASURE(0.));
#17=VALUE_REPRESENTATION_ITEM('number of views',COUNT_MEASURE(0.));
#18=SHAPE_REPRESENTATION_RELATIONSHIP('None',
'relationship between model1_objects-None and model1_objects-None',#30,
#19);
#19=ADVANCED_BREP_SHAPE_REPRESENTATION('model1_objects-None',(#125,#126),
#463);
#20=SHAPE_DEFINITION_REPRESENTATION(#21,#30);
#21=PRODUCT_DEFINITION_SHAPE('','',#22);
#22=PRODUCT_DEFINITION(' ','',#24,#23);
#23=PRODUCT_DEFINITION_CONTEXT('part definition',#29,'design');
#24=PRODUCT_DEFINITION_FORMATION_WITH_SPECIFIED_SOURCE(' ',' ',#26,
 .NOT_KNOWN.);
#25=PRODUCT_RELATED_PRODUCT_CATEGORY('part','',(#26));
#26=PRODUCT('model1_objects','model1_objects',' ',(#27));
#27=PRODUCT_CONTEXT(' ',#29,'mechanical');
#28=APPLICATION_PROTOCOL_DEFINITION('international standard',
'automotive_design',2010,#29);
#29=APPLICATION_CONTEXT(
'core data for automotive mechanical design processes');
#30=SHAPE_REPRESENTATION('model1_objects-None',(#233),#463);
#31=OVER_RIDING_STYLED_ITEM('',(#60),#131,#57);
#32=OVER_RIDING_STYLED_ITEM('',(#61),#132,#57);
#33=OVER_RIDING_STYLED_ITEM('',(#62),#133,#57);
#34=OVER_RIDING_STYLED_ITEM('',(#63),#134,#57);
#35=OVER_RIDING_STYLED_ITEM('',(#64),#135,#57);
#36=OVER_RIDING_STYLED_ITEM('',(#65),#136,#57);
#37=OVER_RIDING_STYLED_ITEM('',(#66),#137,#57);
#38=OVER_RIDING_STYLED_ITEM('',(#67),#138,#57);
#39=OVER_RIDING_STYLED_ITEM('',(#68),#139,#57);
#40=COLOUR_RGB('Medium Steel',0.611764705882353,0.658823529411765,0.670588235294118);
#41=COLOUR_RGB('silver gray',0.6,0.6,0.6);
#42=SURFACE_OF_REVOLUTION('',#44,#43);
#43=AXIS1_PLACEMENT('',#455,#280);
#44=B_SPLINE_CURVE_WITH_KNOTS('',3,(#391,#392,#393,#394,#395,#396,#397,
#398,#399,#400,#401,#402,#403,#404,#405,#406,#407,#408,#409,#410,#411,#412,
#413,#414,#415,#416,#417,#418,#419,#420,#421,#422,#423,#424,#425,#426,#427,
#428,#429,#430,#431,#432,#433,#434,#435,#436,#437,#438,#439,#440,#441,#442,
#443,#444,#445,#446,#447,#448,#449,#450,#451,#452,#453,#454),
 .UNSPECIFIED.,.T.,.F.,(2,2,2,2,2,2,2,2,2,2,2,2,2,2,2,2,2,2,2,2,2,2,2,2,
2,2,2,2,2,2,2,2,2,2),(-0.03125,0.,0.0625,0.09375,0.125,0.15625,0.1875,0.21875,
0.25,0.28125,0.3125,0.34375,0.375,0.40625,0.4375,0.46875,0.5,0.53125,0.5625,
0.59375,0.625,0.65625,0.6875,0.71875,0.75,0.78125,0.8125,0.84375,0.875,
0.90625,0.9375,0.96875,1.,1.0625),.UNSPECIFIED.);
#45=CONICAL_SURFACE('',#245,11.3314595907585,75.0000000002306);
#46=VERTEX_LOOP('',#209);
#47=PLANE('',#243);
#48=FACE_OUTER_BOUND('',#172,.T.);
#49=TOROIDAL_SURFACE('',#240,16.5,1.5);
#50=TOROIDAL_SURFACE('',#242,13.,5.);
#51=TOROIDAL_SURFACE('',#250,13.,5.);
#52=TOROIDAL_SURFACE('',#251,57.,40.);
#53=CYLINDRICAL_SURFACE('',#238,18.);
#54=CYLINDRICAL_SURFACE('',#248,18.);
#55=PRESENTATION_LAYER_ASSIGNMENT('1','Layer 1',(#125,#126));
#56=STYLED_ITEM('',(#58),#125);
#57=STYLED_ITEM('',(#59),#126);
#58=PRESENTATION_STYLE_ASSIGNMENT((#69));
#59=PRESENTATION_STYLE_ASSIGNMENT((#70));
#60=PRESENTATION_STYLE_ASSIGNMENT((#71));
#61=PRESENTATION_STYLE_ASSIGNMENT((#72));
#62=PRESENTATION_STYLE_ASSIGNMENT((#73));
#63=PRESENTATION_STYLE_ASSIGNMENT((#74));
#64=PRESENTATION_STYLE_ASSIGNMENT((#75));
#65=PRESENTATION_STYLE_ASSIGNMENT((#76));
#66=PRESENTATION_STYLE_ASSIGNMENT((#77));
#67=PRESENTATION_STYLE_ASSIGNMENT((#78));
#68=PRESENTATION_STYLE_ASSIGNMENT((#79));
#69=SURFACE_STYLE_USAGE(.BOTH.,#80);
#70=SURFACE_STYLE_USAGE(.BOTH.,#81);
#71=SURFACE_STYLE_USAGE(.BOTH.,#82);
#72=SURFACE_STYLE_USAGE(.BOTH.,#83);
#73=SURFACE_STYLE_USAGE(.BOTH.,#84);
#74=SURFACE_STYLE_USAGE(.BOTH.,#85);
#75=SURFACE_STYLE_USAGE(.BOTH.,#86);
#76=SURFACE_STYLE_USAGE(.BOTH.,#87);
#77=SURFACE_STYLE_USAGE(.BOTH.,#88);
#78=SURFACE_STYLE_USAGE(.BOTH.,#89);
#79=SURFACE_STYLE_USAGE(.BOTH.,#90);
#80=SURFACE_SIDE_STYLE('',(#91));
#81=SURFACE_SIDE_STYLE('',(#92));
#82=SURFACE_SIDE_STYLE('',(#93));
#83=SURFACE_SIDE_STYLE('',(#94));
#84=SURFACE_SIDE_STYLE('',(#95));
#85=SURFACE_SIDE_STYLE('',(#96));
#86=SURFACE_SIDE_STYLE('',(#97));
#87=SURFACE_SIDE_STYLE('',(#98));
#88=SURFACE_SIDE_STYLE('',(#99));
#89=SURFACE_SIDE_STYLE('',(#100));
#90=SURFACE_SIDE_STYLE('',(#101));
#91=SURFACE_STYLE_FILL_AREA(#102);
#92=SURFACE_STYLE_FILL_AREA(#103);
#93=SURFACE_STYLE_FILL_AREA(#104);
#94=SURFACE_STYLE_FILL_AREA(#105);
#95=SURFACE_STYLE_FILL_AREA(#106);
#96=SURFACE_STYLE_FILL_AREA(#107);
#97=SURFACE_STYLE_FILL_AREA(#108);
#98=SURFACE_STYLE_FILL_AREA(#109);
#99=SURFACE_STYLE_FILL_AREA(#110);
#100=SURFACE_STYLE_FILL_AREA(#111);
#101=SURFACE_STYLE_FILL_AREA(#112);
#102=FILL_AREA_STYLE('',(#113));
#103=FILL_AREA_STYLE('',(#114));
#104=FILL_AREA_STYLE('',(#115));
#105=FILL_AREA_STYLE('',(#116));
#106=FILL_AREA_STYLE('',(#117));
#107=FILL_AREA_STYLE('',(#118));
#108=FILL_AREA_STYLE('',(#119));
#109=FILL_AREA_STYLE('',(#120));
#110=FILL_AREA_STYLE('',(#121));
#111=FILL_AREA_STYLE('',(#122));
#112=FILL_AREA_STYLE('',(#123));
#113=FILL_AREA_STYLE_COLOUR('',#124);
#114=FILL_AREA_STYLE_COLOUR('',#40);
#115=FILL_AREA_STYLE_COLOUR('',#41);
#116=FILL_AREA_STYLE_COLOUR('',#41);
#117=FILL_AREA_STYLE_COLOUR('',#41);
#118=FILL_AREA_STYLE_COLOUR('',#41);
#119=FILL_AREA_STYLE_COLOUR('',#41);
#120=FILL_AREA_STYLE_COLOUR('',#41);
#121=FILL_AREA_STYLE_COLOUR('',#41);
#122=FILL_AREA_STYLE_COLOUR('',#41);
#123=FILL_AREA_STYLE_COLOUR('',#41);
#124=DRAUGHTING_PRE_DEFINED_COLOUR('yellow');
#125=MANIFOLD_SOLID_BREP('',#127);
#126=MANIFOLD_SOLID_BREP('',#128);
#127=CLOSED_SHELL('',(#129,#130));
#128=CLOSED_SHELL('',(#131,#132,#133,#134,#135,#136,#137,#138,#139));
#129=ADVANCED_FACE('',(#142,#143),#140,.F.);
#130=ADVANCED_FACE('',(#144,#145),#141,.F.);
#131=ADVANCED_FACE('',(#146,#147),#53,.T.);
#132=ADVANCED_FACE('',(#148,#149),#49,.T.);
#133=ADVANCED_FACE('',(#150,#151),#50,.T.);
#134=ADVANCED_FACE('',(#48),#47,.F.);
#135=ADVANCED_FACE('',(#152,#153),#45,.F.);
#136=ADVANCED_FACE('',(#154,#155),#42,.T.);
#137=ADVANCED_FACE('',(#156,#157),#54,.T.);
#138=ADVANCED_FACE('',(#158,#159),#51,.T.);
#139=ADVANCED_FACE('',(#160,#161),#52,.F.);
#140=(
BOUNDED_SURFACE()
B_SPLINE_SURFACE(3,3,((#296,#297,#298,#299,#300,#301,#302),(#303,#304,#305,
#306,#307,#308,#309),(#310,#311,#312,#313,#314,#315,#316),(#317,#318,#319,
#320,#321,#322,#323),(#324,#325,#326,#327,#328,#329,#330),(#331,#332,#333,
#334,#335,#336,#337),(#338,#339,#340,#341,#342,#343,#344)),
 .UNSPECIFIED.,.T.,.F.,.F.)
B_SPLINE_SURFACE_WITH_KNOTS((1,3,3,3,1),(4,3,4),(-0.5,0.,0.5,1.,1.5),(0.,
0.5,1.),.UNSPECIFIED.)
GEOMETRIC_REPRESENTATION_ITEM()
RATIONAL_B_SPLINE_SURFACE(((1.,0.589396662660426,0.589396662660426,1.,0.589396662660426,
0.589396662660426,1.),(0.333333333333334,0.196465554220142,0.196465554220142,
0.333333333333334,0.196465554220142,0.196465554220142,0.333333333333334),
(0.333333333333334,0.196465554220142,0.196465554220142,0.333333333333334,
0.196465554220142,0.196465554220142,0.333333333333334),(1.,0.589396662660426,
0.589396662660426,1.,0.589396662660426,0.589396662660426,1.),(0.333333333333334,
0.196465554220142,0.196465554220142,0.333333333333334,0.196465554220142,
0.196465554220142,0.333333333333334),(0.333333333333334,0.196465554220142,
0.196465554220142,0.333333333333334,0.196465554220142,0.196465554220142,
0.333333333333334),(1.,0.589396662660426,0.589396662660426,1.,0.589396662660426,
0.589396662660426,1.)))
REPRESENTATION_ITEM('')
SURFACE()
);
#141=(
BOUNDED_SURFACE()
B_SPLINE_SURFACE(3,3,((#345,#346,#347,#348),(#349,#350,#351,#352),(#353,
#354,#355,#356),(#357,#358,#359,#360),(#361,#362,#363,#364),(#365,#366,
#367,#368),(#369,#370,#371,#372)),.UNSPECIFIED.,.T.,.F.,.F.)
B_SPLINE_SURFACE_WITH_KNOTS((1,3,3,3,1),(4,4),(-0.5,0.,0.5,1.,1.5),(0.,
1.),.UNSPECIFIED.)
GEOMETRIC_REPRESENTATION_ITEM()
RATIONAL_B_SPLINE_SURFACE(((1.,0.803294714121774,0.803294714121774,1.),
(0.333333333333334,0.267764904707258,0.267764904707258,0.333333333333334),
(0.333333333333334,0.267764904707258,0.267764904707258,0.333333333333334),
(1.,0.803294714121774,0.803294714121774,1.),(0.333333333333334,0.267764904707258,
0.267764904707258,0.333333333333334),(0.333333333333334,0.267764904707258,
0.267764904707258,0.333333333333334),(1.,0.803294714121774,0.803294714121774,
1.)))
REPRESENTATION_ITEM('')
SURFACE()
);
#142=FACE_BOUND('',#162,.T.);
#143=FACE_BOUND('',#163,.T.);
#144=FACE_BOUND('',#164,.T.);
#145=FACE_BOUND('',#165,.T.);
#146=FACE_BOUND('',#166,.T.);
#147=FACE_BOUND('',#167,.T.);
#148=FACE_BOUND('',#168,.T.);
#149=FACE_BOUND('',#169,.T.);
#150=FACE_BOUND('',#170,.T.);
#151=FACE_BOUND('',#171,.T.);
#152=FACE_BOUND('',#173,.T.);
#153=FACE_BOUND('',#46,.T.);
#154=FACE_BOUND('',#174,.T.);
#155=FACE_BOUND('',#175,.T.);
#156=FACE_BOUND('',#176,.T.);
#157=FACE_BOUND('',#177,.T.);
#158=FACE_BOUND('',#178,.T.);
#159=FACE_BOUND('',#179,.T.);
#160=FACE_BOUND('',#180,.T.);
#161=FACE_BOUND('',#181,.T.);
#162=EDGE_LOOP('',(#182));
#163=EDGE_LOOP('',(#183));
#164=EDGE_LOOP('',(#184));
#165=EDGE_LOOP('',(#185));
#166=EDGE_LOOP('',(#186));
#167=EDGE_LOOP('',(#187));
#168=EDGE_LOOP('',(#188));
#169=EDGE_LOOP('',(#189));
#170=EDGE_LOOP('',(#190));
#171=EDGE_LOOP('',(#191));
#172=EDGE_LOOP('',(#192));
#173=EDGE_LOOP('',(#193));
#174=EDGE_LOOP('',(#194));
#175=EDGE_LOOP('',(#195));
#176=EDGE_LOOP('',(#196));
#177=EDGE_LOOP('',(#197));
#178=EDGE_LOOP('',(#198));
#179=EDGE_LOOP('',(#199));
#180=EDGE_LOOP('',(#200));
#181=EDGE_LOOP('',(#201));
#182=ORIENTED_EDGE('',*,*,#213,.T.);
#183=ORIENTED_EDGE('',*,*,#214,.F.);
#184=ORIENTED_EDGE('',*,*,#214,.T.);
#185=ORIENTED_EDGE('',*,*,#213,.F.);
#186=ORIENTED_EDGE('',*,*,#215,.T.);
#187=ORIENTED_EDGE('',*,*,#216,.F.);
#188=ORIENTED_EDGE('',*,*,#215,.F.);
#189=ORIENTED_EDGE('',*,*,#217,.T.);
#190=ORIENTED_EDGE('',*,*,#218,.F.);
#191=ORIENTED_EDGE('',*,*,#216,.T.);
#192=ORIENTED_EDGE('',*,*,#217,.F.);
#193=ORIENTED_EDGE('',*,*,#219,.T.);
#194=ORIENTED_EDGE('',*,*,#219,.F.);
#195=ORIENTED_EDGE('',*,*,#220,.T.);
#196=ORIENTED_EDGE('',*,*,#220,.F.);
#197=ORIENTED_EDGE('',*,*,#221,.T.);
#198=ORIENTED_EDGE('',*,*,#221,.F.);
#199=ORIENTED_EDGE('',*,*,#222,.T.);
#200=ORIENTED_EDGE('',*,*,#222,.F.);
#201=ORIENTED_EDGE('',*,*,#218,.T.);
#202=VERTEX_POINT('',#293);
#203=VERTEX_POINT('',#295);
#204=VERTEX_POINT('',#374);
#205=VERTEX_POINT('',#376);
#206=VERTEX_POINT('',#379);
#207=VERTEX_POINT('',#382);
#208=VERTEX_POINT('',#386);
#209=VERTEX_POINT('',#387);
#210=VERTEX_POINT('',#390);
#211=VERTEX_POINT('',#457);
#212=VERTEX_POINT('',#460);
#213=EDGE_CURVE('',#202,#202,#223,.T.);
#214=EDGE_CURVE('',#203,#203,#224,.T.);
#215=EDGE_CURVE('',#204,#204,#225,.T.);
#216=EDGE_CURVE('',#205,#205,#226,.T.);
#217=EDGE_CURVE('',#206,#206,#227,.T.);
#218=EDGE_CURVE('',#207,#207,#228,.T.);
#219=EDGE_CURVE('',#208,#208,#229,.T.);
#220=EDGE_CURVE('',#210,#210,#230,.T.);
#221=EDGE_CURVE('',#211,#211,#231,.T.);
#222=EDGE_CURVE('',#212,#212,#232,.T.);
#223=CIRCLE('',#234,5.);
#224=CIRCLE('',#235,5.);
#225=CIRCLE('',#236,18.);
#226=CIRCLE('',#237,18.);
#227=CIRCLE('',#239,16.5);
#228=CIRCLE('',#241,17.8888888888889);
#229=CIRCLE('',#244,11.3314595907585);
#230=CIRCLE('',#246,18.);
#231=CIRCLE('',#247,18.);
#232=CIRCLE('',#249,17.8888888888889);
#233=AXIS2_PLACEMENT_3D('',#291,#252,#253);
#234=AXIS2_PLACEMENT_3D('',#292,#254,#255);
#235=AXIS2_PLACEMENT_3D('',#294,#256,#257);
#236=AXIS2_PLACEMENT_3D('',#373,#258,#259);
#237=AXIS2_PLACEMENT_3D('',#375,#260,#261);
#238=AXIS2_PLACEMENT_3D('',#377,#262,#263);
#239=AXIS2_PLACEMENT_3D('',#378,#264,#265);
#240=AXIS2_PLACEMENT_3D('',#380,#266,#267);
#241=AXIS2_PLACEMENT_3D('',#381,#268,#269);
#242=AXIS2_PLACEMENT_3D('',#383,#270,#271);
#243=AXIS2_PLACEMENT_3D('',#384,#272,#273);
#244=AXIS2_PLACEMENT_3D('',#385,#274,#275);
#245=AXIS2_PLACEMENT_3D('',#388,#276,#277);
#246=AXIS2_PLACEMENT_3D('',#389,#278,#279);
#247=AXIS2_PLACEMENT_3D('',#456,#281,#282);
#248=AXIS2_PLACEMENT_3D('',#458,#283,#284);
#249=AXIS2_PLACEMENT_3D('',#459,#285,#286);
#250=AXIS2_PLACEMENT_3D('',#461,#287,#288);
#251=AXIS2_PLACEMENT_3D('',#462,#289,#290);
#252=DIRECTION('',(0.,0.,1.));
#253=DIRECTION('',(1.,0.,0.));
#254=DIRECTION('',(0.121869343405148,0.990533124109017,0.0631822220314366));
#255=DIRECTION('',(0.992510112580906,-0.122160217259517,0.000746822431764438));
#256=DIRECTION('',(0.121869343405148,-0.0692365195668007,0.990128359101119));
#257=DIRECTION('',(0.992510112580906,0.,-0.122162500075257));
#258=DIRECTION('',(-1.,0.,0.));
#259=DIRECTION('',(0.,0.,1.));
#260=DIRECTION('',(-1.,0.,0.));
#261=DIRECTION('',(0.,0.,1.));
#262=DIRECTION('',(-1.,0.,0.));
#263=DIRECTION('',(0.,0.,1.));
#264=DIRECTION('',(-1.,0.,0.));
#265=DIRECTION('',(0.,0.,1.));
#266=DIRECTION('',(-1.,0.,0.));
#267=DIRECTION('',(0.,0.,1.));
#268=DIRECTION('',(-1.,0.,0.));
#269=DIRECTION('',(0.,0.,1.));
#270=DIRECTION('',(-1.,0.,0.));
#271=DIRECTION('',(0.,0.,1.));
#272=DIRECTION('',(-1.,0.,0.));
#273=DIRECTION('',(0.,0.,1.));
#274=DIRECTION('',(-1.,0.,0.));
#275=DIRECTION('',(0.,0.,1.));
#276=DIRECTION('',(-1.,0.,0.));
#277=DIRECTION('',(-1.25120894709374E-17,0.,1.));
#278=DIRECTION('',(-1.,0.,0.));
#279=DIRECTION('',(0.,0.,1.));
#280=DIRECTION('',(-1.,0.,0.));
#281=DIRECTION('',(-1.,0.,0.));
#282=DIRECTION('',(0.,0.,1.));
#283=DIRECTION('',(-1.,0.,0.));
#284=DIRECTION('',(0.,0.,1.));
#285=DIRECTION('',(-1.,0.,0.));
#286=DIRECTION('',(0.,0.,1.));
#287=DIRECTION('',(-1.,0.,0.));
#288=DIRECTION('',(0.,0.,1.));
#289=DIRECTION('',(-1.,0.,0.));
#290=DIRECTION('',(0.,0.,1.));
#291=CARTESIAN_POINT('',(0.,0.,0.));
#292=CARTESIAN_POINT('',(4.96273075820661,0.483930042199445,15.0135915414696));
#293=CARTESIAN_POINT('',(9.92528132111114,-0.126871044098141,15.0173256536284));
#294=CARTESIAN_POINT('',(4.96273075820661,-15.0162694217327,0.392137620951278));
#295=CARTESIAN_POINT('',(9.92528132111114,-15.0162694217327,-0.218674879425005));
#296=CARTESIAN_POINT('',(9.92528132111114,-15.0162694217327,-0.218674879425005));
#297=CARTESIAN_POINT('',(9.92528132111114,-14.7878990387555,-15.9007285645464));
#298=CARTESIAN_POINT('',(9.92528132111114,-0.221043623057743,-21.7132739719397));
#299=CARTESIAN_POINT('',(9.92528132111114,10.7406984806749,-10.4963594734643));
#300=CARTESIAN_POINT('',(9.92528132111114,21.7024405844076,0.720555025011006));
#301=CARTESIAN_POINT('',(9.92528132111114,15.5562857036301,15.1498218461751));
#302=CARTESIAN_POINT('',(9.92528132111114,-0.12687104409814,15.0173256536284));
#303=CARTESIAN_POINT('',(10.009862384379,-5.0402666933937,0.46850457887455));
#304=CARTESIAN_POINT('',(10.009862384379,-5.52954360707258,-4.79523507930806));
#305=CARTESIAN_POINT('',(10.009862384379,-0.85749538504202,-7.26875736511926));
#306=CARTESIAN_POINT('',(10.009862384379,3.22080219616646,-3.90515276194537));
#307=CARTESIAN_POINT('',(10.009862384379,7.29909977737495,-0.541548158771485));
#308=CARTESIAN_POINT('',(10.009862384379,5.75995892523702,4.51586150672563));
#309=CARTESIAN_POINT('',(10.009862384379,0.499308751323193,5.03730837370638));
#310=CARTESIAN_POINT('',(0.0847612585699754,-5.0402666933937,1.69012957962712));
#311=CARTESIAN_POINT('',(0.0847612585699755,-6.80533244029383,-3.5736100785555));
#312=CARTESIAN_POINT('',(0.0847612585699755,-2.6233083224927,-7.22506000401446));
#313=CARTESIAN_POINT('',(0.0847612585699754,2.35434648119847,-4.7663276201844));
#314=CARTESIAN_POINT('',(0.0847612585699755,7.33200128488966,-2.30759523635436));
#315=CARTESIAN_POINT('',(0.0847612585699755,6.97376175091101,3.2326282894882));
#316=CARTESIAN_POINT('',(0.0847612585699754,1.72091092391837,5.02984014938872));
#317=CARTESIAN_POINT('',(0.000180195302076392,-15.0162694217327,1.00295012132756));
#318=CARTESIAN_POINT('',(0.000180195302076393,-16.0636878719767,-14.6791035637939));
#319=CARTESIAN_POINT('',(0.000180195302076393,-1.98685656050843,-21.6695766108349));
#320=CARTESIAN_POINT('',(0.000180195302076392,9.87424276570691,-11.3575343317034));
#321=CARTESIAN_POINT('',(0.000180195302076393,21.7353420919223,-1.04549205257186));
#322=CARTESIAN_POINT('',(0.000180195302076393,16.7700885293041,13.8665886289377));
#323=CARTESIAN_POINT('',(0.000180195302076392,1.09473112849703,15.0098574293108));
#324=CARTESIAN_POINT('',(-0.0844008679658227,-24.9922721500717,0.315770663028006));
#325=CARTESIAN_POINT('',(-0.0844008679658228,-25.3220433036597,-25.7845970490323));
#326=CARTESIAN_POINT('',(-0.0844008679658228,-1.35040479852415,-36.1140932176554));
#327=CARTESIAN_POINT('',(-0.0844008679658227,17.3941390502153,-17.9487410432223));
#328=CARTESIAN_POINT('',(-0.0844008679658228,36.1386828989548,0.216611131210628));
#329=CARTESIAN_POINT('',(-0.0844008679658228,26.5664153076971,24.5005489683871));
#330=CARTESIAN_POINT('',(-0.0844008679658227,0.468551333075701,24.9898747092328));
#331=CARTESIAN_POINT('',(9.84070025784323,-24.9922721500717,-0.905854337724559));
#332=CARTESIAN_POINT('',(9.84070025784326,-24.0462544704384,-27.0062220497848));
#333=CARTESIAN_POINT('',(9.84070025784326,0.415408138926533,-36.1577905787601));
#334=CARTESIAN_POINT('',(9.84070025784323,18.2605947651833,-17.0875661849833));
#335=CARTESIAN_POINT('',(9.84070025784326,36.1057813914402,1.9826582087935));
#336=CARTESIAN_POINT('',(9.84070025784326,25.3526124820231,25.7837821856245));
#337=CARTESIAN_POINT('',(9.84070025784323,-0.753050839519474,24.9973429335504));
#338=CARTESIAN_POINT('',(9.92528132111114,-15.0162694217327,-0.218674879425005));
#339=CARTESIAN_POINT('',(9.92528132111114,-14.7878990387555,-15.9007285645464));
#340=CARTESIAN_POINT('',(9.92528132111114,-0.221043623057743,-21.7132739719397));
#341=CARTESIAN_POINT('',(9.92528132111114,10.7406984806749,-10.4963594734643));
#342=CARTESIAN_POINT('',(9.92528132111114,21.7024405844076,0.720555025011006));
#343=CARTESIAN_POINT('',(9.92528132111114,15.5562857036301,15.1498218461751));
#344=CARTESIAN_POINT('',(9.92528132111114,-0.12687104409814,15.0173256536284));
#345=CARTESIAN_POINT('',(9.92528132111114,-0.126871044098142,15.0173256536284));
#346=CARTESIAN_POINT('',(9.92528132111115,-8.96651736304603,14.942645568518));
#347=CARTESIAN_POINT('',(9.92528132111115,-15.1449879857128,8.62034970988845));
#348=CARTESIAN_POINT('',(9.92528132111114,-15.0162694217327,-0.218674879425004));
#349=CARTESIAN_POINT('',(10.009862384379,0.499308751323193,5.03730837370638));
#350=CARTESIAN_POINT('',(10.009862384379,-2.46580137880708,5.33121641482195));
#351=CARTESIAN_POINT('',(10.009862384379,-4.76449090803887,3.43535606431252));
#352=CARTESIAN_POINT('',(10.009862384379,-5.0402666933937,0.46850457887455));
#353=CARTESIAN_POINT('',(0.0847612585699754,1.72091092391837,5.02984014938872));
#354=CARTESIAN_POINT('',(0.0847612585699755,-1.23980318636648,6.04281970811441));
#355=CARTESIAN_POINT('',(0.0847612585699755,-4.04540595309364,4.65698106506509));
#356=CARTESIAN_POINT('',(0.0847612585699754,-5.0402666933937,1.69012957962712));
#357=CARTESIAN_POINT('',(0.000180195302076392,1.09473112849703,15.0098574293108));
#358=CARTESIAN_POINT('',(0.000180195302076393,-7.74051917060543,15.6542488618105));
#359=CARTESIAN_POINT('',(0.000180195302076393,-14.4259030307675,9.84197471064102));
#360=CARTESIAN_POINT('',(0.000180195302076392,-15.0162694217327,1.00295012132756));
#361=CARTESIAN_POINT('',(-0.0844008679658227,0.468551333075695,24.9898747092328));
#362=CARTESIAN_POINT('',(-0.0844008679658228,-14.2412351548444,25.2656780155066));
#363=CARTESIAN_POINT('',(-0.0844008679658228,-24.8064001084414,15.026968356217));
#364=CARTESIAN_POINT('',(-0.0844008679658227,-24.9922721500717,0.315770663028007));
#365=CARTESIAN_POINT('',(9.84070025784323,-0.753050839519477,24.9973429335504));
#366=CARTESIAN_POINT('',(9.84070025784324,-15.467233347285,24.5540747222142));
#367=CARTESIAN_POINT('',(9.84070025784324,-25.5254850633867,13.8053433554644));
#368=CARTESIAN_POINT('',(9.84070025784323,-24.9922721500717,-0.905854337724559));
#369=CARTESIAN_POINT('',(9.92528132111114,-0.126871044098142,15.0173256536284));
#370=CARTESIAN_POINT('',(9.92528132111115,-8.96651736304603,14.942645568518));
#371=CARTESIAN_POINT('',(9.92528132111115,-15.1449879857128,8.62034970988845));
#372=CARTESIAN_POINT('',(9.92528132111114,-15.0162694217327,-0.218674879425004));
#373=CARTESIAN_POINT('',(38.5,0.,0.));
#374=CARTESIAN_POINT('',(38.5,0.,18.));
#375=CARTESIAN_POINT('',(33.,0.,0.));
#376=CARTESIAN_POINT('',(33.,0.,18.));
#377=CARTESIAN_POINT('',(0.,0.,0.));
#378=CARTESIAN_POINT('',(40.,0.,0.));
#379=CARTESIAN_POINT('',(40.,0.,16.5));
#380=CARTESIAN_POINT('',(38.5,0.,0.));
#381=CARTESIAN_POINT('',(31.951779874216,0.,0.));
#382=CARTESIAN_POINT('',(31.951779874216,0.,17.8888888888889));
#383=CARTESIAN_POINT('',(33.,0.,0.));
#384=CARTESIAN_POINT('',(40.,9.,0.));
#385=CARTESIAN_POINT('',(3.00000000001859,0.,0.));
#386=CARTESIAN_POINT('',(3.00000000001859,0.,11.3314595907585));
#387=CARTESIAN_POINT('',(6.03625544637935,0.,0.));
#388=CARTESIAN_POINT('',(3.00000000001859,0.,0.));
#389=CARTESIAN_POINT('',(7.34775069944245,0.,0.));
#390=CARTESIAN_POINT('',(7.34775069944245,0.,18.));
#391=CARTESIAN_POINT('',(0.55532993344903,15.2334716624553,0.));
#392=CARTESIAN_POINT('',(0.562089597908048,14.4370529404787,0.));
#393=CARTESIAN_POINT('',(0.672324552384343,13.9104657767372,0.));
#394=CARTESIAN_POINT('',(0.980262129732898,13.1873765276378,0.));
#395=CARTESIAN_POINT('',(1.10856538075832,12.9533583269742,0.));
#396=CARTESIAN_POINT('',(1.4070137528534,12.5193616506212,0.));
#397=CARTESIAN_POINT('',(1.57618613064233,12.319506057746,0.));
#398=CARTESIAN_POINT('',(1.95454376206939,11.9541804718707,0.));
#399=CARTESIAN_POINT('',(2.16478536996138,11.7888738451357,0.));
#400=CARTESIAN_POINT('',(2.60718799598332,11.5082383188371,0.));
#401=CARTESIAN_POINT('',(2.84141171021149,11.3905938677848,0.));
#402=CARTESIAN_POINT('',(3.33669738264159,11.2020330515073,0.));
#403=CARTESIAN_POINT('',(3.59134828691745,11.1337961304446,0.));
#404=CARTESIAN_POINT('',(4.10756308685296,11.0486220596432,0.));
#405=CARTESIAN_POINT('',(4.37270142215662,11.0314365181369,0.));
#406=CARTESIAN_POINT('',(4.90027923716817,11.0495703297333,0.));
#407=CARTESIAN_POINT('',(5.1597219793452,11.0842296668047,0.));
#408=CARTESIAN_POINT('',(5.67022177215172,11.202927556503,0.));
#409=CARTESIAN_POINT('',(5.92367054033494,11.288355089712,0.));
#410=CARTESIAN_POINT('',(6.40309117276378,11.5031516184338,0.));
#411=CARTESIAN_POINT('',(6.63066906880945,11.6323606869942,0.));
#412=CARTESIAN_POINT('',(7.06153097638128,11.934452646084,0.));
#413=CARTESIAN_POINT('',(7.26444036251501,12.1079448585584,0.));
#414=CARTESIAN_POINT('',(7.62845727557769,12.4848188388613,0.));
#415=CARTESIAN_POINT('',(7.79203113170364,12.689723254705,0.));
#416=CARTESIAN_POINT('',(8.08081204260724,13.1338047278574,0.));
#417=CARTESIAN_POINT('',(8.20244869502214,13.3678992089919,0.));
#418=CARTESIAN_POINT('',(8.39822550167608,13.8536324269695,0.));
#419=CARTESIAN_POINT('',(8.47339779534558,14.1087621049491,0.));
#420=CARTESIAN_POINT('',(8.57178467638463,14.6271787276813,0.));
#421=CARTESIAN_POINT('',(8.59512055949945,14.8880430775608,0.));
#422=CARTESIAN_POINT('',(8.59043163346324,15.413061155475,0.));
#423=CARTESIAN_POINT('',(8.56152834677237,15.6791789652784,0.));
#424=CARTESIAN_POINT('',(8.45325088651009,16.1925267578012,0.));
#425=CARTESIAN_POINT('',(8.37423319841301,16.4422795779553,0.));
#426=CARTESIAN_POINT('',(8.16518441451168,16.9275938008527,0.));
#427=CARTESIAN_POINT('',(8.03621865716009,17.1594575837234,0.));
#428=CARTESIAN_POINT('',(7.73772462574373,17.5895340969489,0.));
#429=CARTESIAN_POINT('',(7.56583864185656,17.7912345016446,0.));
#430=CARTESIAN_POINT('',(7.18412241734912,18.1570621761541,0.));
#431=CARTESIAN_POINT('',(6.97779614661335,18.3184339362939,0.));
#432=CARTESIAN_POINT('',(6.53505852403567,18.5992787950137,0.));
#433=CARTESIAN_POINT('',(6.2959099240382,18.719456956597,0.));
#434=CARTESIAN_POINT('',(5.80551180438086,18.9074677533696,0.));
#435=CARTESIAN_POINT('',(5.55311062200871,18.9766680109482,0.));
#436=CARTESIAN_POINT('',(5.03384312397976,19.065248536823,0.));
#437=CARTESIAN_POINT('',(4.76778861714865,19.0837734792724,0.));
#438=CARTESIAN_POINT('',(4.24443655694319,19.0689861514624,0.));
#439=CARTESIAN_POINT('',(3.98422438853153,19.0362969094838,0.));
#440=CARTESIAN_POINT('',(3.46683259396598,18.9185159957681,0.));
#441=CARTESIAN_POINT('',(3.21765989166859,18.8351807107906,0.));
#442=CARTESIAN_POINT('',(2.73940687416767,18.6224298661408,0.));
#443=CARTESIAN_POINT('',(2.50782809300967,18.4913091590065,0.));
#444=CARTESIAN_POINT('',(2.07643888898483,18.1879404435851,0.));
#445=CARTESIAN_POINT('',(1.8779052781765,18.0173241401451,0.));
#446=CARTESIAN_POINT('',(1.51453321808185,17.6389191484255,0.));
#447=CARTESIAN_POINT('',(1.34871611313286,17.4289212317779,0.));
#448=CARTESIAN_POINT('',(1.06475410189132,16.987489109265,0.));
#449=CARTESIAN_POINT('',(0.944821902128692,16.7547995535073,0.));
#450=CARTESIAN_POINT('',(0.7496595574455,16.2651452131525,0.));
#451=CARTESIAN_POINT('',(0.67555802033513,16.0093095757479,0.));
#452=CARTESIAN_POINT('',(0.578959032954121,15.4947498416203,0.));
#453=CARTESIAN_POINT('',(0.55532993344903,15.2334716624553,0.));
#454=CARTESIAN_POINT('',(0.562089597908048,14.4370529404787,0.));
#455=CARTESIAN_POINT('',(0.,0.,0.));
#456=CARTESIAN_POINT('',(14.1320377358868,0.,0.));
#457=CARTESIAN_POINT('',(14.1320377358868,0.,18.));
#458=CARTESIAN_POINT('',(0.,0.,0.));
#459=CARTESIAN_POINT('',(15.180257861671,0.,0.));
#460=CARTESIAN_POINT('',(15.180257861671,0.,17.8888888888889));
#461=CARTESIAN_POINT('',(14.1320377358868,0.,0.));
#462=CARTESIAN_POINT('',(23.5660188679434,0.,0.));
#463=(
GEOMETRIC_REPRESENTATION_CONTEXT(3)
GLOBAL_UNCERTAINTY_ASSIGNED_CONTEXT((#464))
GLOBAL_UNIT_ASSIGNED_CONTEXT((#470,#466,#465))
REPRESENTATION_CONTEXT('model1','TOP_LEVEL_ASSEMBLY_PART')
);
#464=UNCERTAINTY_MEASURE_WITH_UNIT(LENGTH_MEASURE(2.E-5),#470,
'DISTANCE_ACCURACY_VALUE','Maximum Tolerance applied to model');
#465=(
NAMED_UNIT(*)
SI_UNIT($,.STERADIAN.)
SOLID_ANGLE_UNIT()
);
#466=(
CONVERSION_BASED_UNIT('DEGREE',#468)
NAMED_UNIT(#467)
PLANE_ANGLE_UNIT()
);
#467=DIMENSIONAL_EXPONENTS(0.,0.,0.,0.,0.,0.,0.);
#468=PLANE_ANGLE_MEASURE_WITH_UNIT(PLANE_ANGLE_MEASURE(0.0174532925),#469);
#469=(
NAMED_UNIT(*)
PLANE_ANGLE_UNIT()
SI_UNIT($,.RADIAN.)
);
#470=(
LENGTH_UNIT()
NAMED_UNIT(*)
SI_UNIT(.MILLI.,.METRE.)
);
ENDSEC;
END-ISO-10303-21;
