ISO-10303-21;
HEADER;
/* Generated by software containing ST-Developer
 * from STEP Tools, Inc. (www.steptools.com) 
 */
/* OPTION: using custom schema-name function */

FILE_DESCRIPTION(
/* description */ (''),
/* implementation_level */ '2;1');

FILE_NAME(
/* name */ 'model1.stp',
/* time_stamp */ '2023-11-02T15:53:10+03:00',
/* author */ (''),
/* organization */ (''),
/* preprocessor_version */ 'ST-DEVELOPER v19.4',
/* originating_system */ 'SIEMENS PLM Software NX2306.3001',
/* authorisation */ '');

FILE_SCHEMA (('AUTOMOTIVE_DESIGN { 1 0 10303 214 3 1 1 1 }'));
ENDSEC;

DATA;
#10=PROPERTY_DEFINITION_REPRESENTATION(#14,#12);
#11=PROPERTY_DEFINITION_REPRESENTATION(#15,#13);
#12=REPRESENTATION('',(#16),#463);
#13=REPRESENTATION('',(#17),#463);
#14=PROPERTY_DEFINITION('pmi validation property','',#21);
#15=PROPERTY_DEFINITION('pmi validation property','',#21);
#16=VALUE_REPRESENTATION_ITEM('number of annotations',COUNT_MEASURE(0.));
#17=VALUE_REPRESENTATION_ITEM('number of views',COUNT_MEASURE(0.));
#18=SHAPE_REPRESENTATION_RELATIONSHIP('None',
'relationship between model1_objects-None and model1_objects-None',#30,
#19);
#19=ADVANCED_BREP_SHAPE_REPRESENTATION('model1_objects-None',(#125,#126),
#463);
#20=SHAPE_DEFINITION_REPRESENTATION(#21,#30);
#21=PRODUCT_DEFINITION_SHAPE('','',#22);
#22=PRODUCT_DEFINITION(' ','',#24,#23);
#23=PRODUCT_DEFINITION_CONTEXT('part definition',#29,'design');
#24=PRODUCT_DEFINITION_FORMATION_WITH_SPECIFIED_SOURCE(' ',' ',#26,
 .NOT_KNOWN.);
#25=PRODUCT_RELATED_PRODUCT_CATEGORY('part','',(#26));
#26=PRODUCT('model1_objects','model1_objects',' ',(#27));
#27=PRODUCT_CONTEXT(' ',#29,'mechanical');
#28=APPLICATION_PROTOCOL_DEFINITION('international standard',
'automotive_design',2010,#29);
#29=APPLICATION_CONTEXT(
'core data for automotive mechanical design processes');
#30=SHAPE_REPRESENTATION('model1_objects-None',(#233),#463);
#31=OVER_RIDING_STYLED_ITEM('',(#60),#131,#57);
#32=OVER_RIDING_STYLED_ITEM('',(#61),#132,#57);
#33=OVER_RIDING_STYLED_ITEM('',(#62),#133,#57);
#34=OVER_RIDING_STYLED_ITEM('',(#63),#134,#57);
#35=OVER_RIDING_STYLED_ITEM('',(#64),#135,#57);
#36=OVER_RIDING_STYLED_ITEM('',(#65),#136,#57);
#37=OVER_RIDING_STYLED_ITEM('',(#66),#137,#57);
#38=OVER_RIDING_STYLED_ITEM('',(#67),#138,#57);
#39=OVER_RIDING_STYLED_ITEM('',(#68),#139,#57);
#40=COLOUR_RGB('Medium Steel',0.611764705882353,0.658823529411765,0.670588235294118);
#41=COLOUR_RGB('silver gray',0.6,0.6,0.6);
#42=CONICAL_SURFACE('',#251,17.389747484334,75.0000000000347);
#43=VERTEX_LOOP('',#212);
#44=SURFACE_OF_REVOLUTION('',#46,#45);
#45=AXIS1_PLACEMENT('',#460,#288);
#46=B_SPLINE_CURVE_WITH_KNOTS('',3,(#396,#397,#398,#399,#400,#401,#402,
#403,#404,#405,#406,#407,#408,#409,#410,#411,#412,#413,#414,#415,#416,#417,
#418,#419,#420,#421,#422,#423,#424,#425,#426,#427,#428,#429,#430,#431,#432,
#433,#434,#435,#436,#437,#438,#439,#440,#441,#442,#443,#444,#445,#446,#447,
#448,#449,#450,#451,#452,#453,#454,#455,#456,#457,#458,#459),
 .UNSPECIFIED.,.T.,.F.,(2,2,2,2,2,2,2,2,2,2,2,2,2,2,2,2,2,2,2,2,2,2,2,2,
2,2,2,2,2,2,2,2,2,2),(-0.03125,0.,0.0625,0.09375,0.125,0.15625,0.1875,0.21875,
0.25,0.28125,0.3125,0.34375,0.375,0.40625,0.4375,0.46875,0.5,0.53125,0.5625,
0.59375,0.625,0.65625,0.6875,0.71875,0.75,0.78125,0.8125,0.84375,0.875,
0.90625,0.9375,0.96875,1.,1.0625),.UNSPECIFIED.);
#47=TOROIDAL_SURFACE('',#241,19.5,1.5);
#48=TOROIDAL_SURFACE('',#243,16.,5.);
#49=TOROIDAL_SURFACE('',#245,70.2,50.);
#50=TOROIDAL_SURFACE('',#247,19.,5.);
#51=PLANE('',#240);
#52=FACE_OUTER_BOUND('',#168,.T.);
#53=CYLINDRICAL_SURFACE('',#238,21.);
#54=CYLINDRICAL_SURFACE('',#249,24.);
#55=PRESENTATION_LAYER_ASSIGNMENT('1','Layer 1',(#125,#126));
#56=STYLED_ITEM('',(#58),#125);
#57=STYLED_ITEM('',(#59),#126);
#58=PRESENTATION_STYLE_ASSIGNMENT((#69));
#59=PRESENTATION_STYLE_ASSIGNMENT((#70));
#60=PRESENTATION_STYLE_ASSIGNMENT((#71));
#61=PRESENTATION_STYLE_ASSIGNMENT((#72));
#62=PRESENTATION_STYLE_ASSIGNMENT((#73));
#63=PRESENTATION_STYLE_ASSIGNMENT((#74));
#64=PRESENTATION_STYLE_ASSIGNMENT((#75));
#65=PRESENTATION_STYLE_ASSIGNMENT((#76));
#66=PRESENTATION_STYLE_ASSIGNMENT((#77));
#67=PRESENTATION_STYLE_ASSIGNMENT((#78));
#68=PRESENTATION_STYLE_ASSIGNMENT((#79));
#69=SURFACE_STYLE_USAGE(.BOTH.,#80);
#70=SURFACE_STYLE_USAGE(.BOTH.,#81);
#71=SURFACE_STYLE_USAGE(.BOTH.,#82);
#72=SURFACE_STYLE_USAGE(.BOTH.,#83);
#73=SURFACE_STYLE_USAGE(.BOTH.,#84);
#74=SURFACE_STYLE_USAGE(.BOTH.,#85);
#75=SURFACE_STYLE_USAGE(.BOTH.,#86);
#76=SURFACE_STYLE_USAGE(.BOTH.,#87);
#77=SURFACE_STYLE_USAGE(.BOTH.,#88);
#78=SURFACE_STYLE_USAGE(.BOTH.,#89);
#79=SURFACE_STYLE_USAGE(.BOTH.,#90);
#80=SURFACE_SIDE_STYLE('',(#91));
#81=SURFACE_SIDE_STYLE('',(#92));
#82=SURFACE_SIDE_STYLE('',(#93));
#83=SURFACE_SIDE_STYLE('',(#94));
#84=SURFACE_SIDE_STYLE('',(#95));
#85=SURFACE_SIDE_STYLE('',(#96));
#86=SURFACE_SIDE_STYLE('',(#97));
#87=SURFACE_SIDE_STYLE('',(#98));
#88=SURFACE_SIDE_STYLE('',(#99));
#89=SURFACE_SIDE_STYLE('',(#100));
#90=SURFACE_SIDE_STYLE('',(#101));
#91=SURFACE_STYLE_FILL_AREA(#102);
#92=SURFACE_STYLE_FILL_AREA(#103);
#93=SURFACE_STYLE_FILL_AREA(#104);
#94=SURFACE_STYLE_FILL_AREA(#105);
#95=SURFACE_STYLE_FILL_AREA(#106);
#96=SURFACE_STYLE_FILL_AREA(#107);
#97=SURFACE_STYLE_FILL_AREA(#108);
#98=SURFACE_STYLE_FILL_AREA(#109);
#99=SURFACE_STYLE_FILL_AREA(#110);
#100=SURFACE_STYLE_FILL_AREA(#111);
#101=SURFACE_STYLE_FILL_AREA(#112);
#102=FILL_AREA_STYLE('',(#113));
#103=FILL_AREA_STYLE('',(#114));
#104=FILL_AREA_STYLE('',(#115));
#105=FILL_AREA_STYLE('',(#116));
#106=FILL_AREA_STYLE('',(#117));
#107=FILL_AREA_STYLE('',(#118));
#108=FILL_AREA_STYLE('',(#119));
#109=FILL_AREA_STYLE('',(#120));
#110=FILL_AREA_STYLE('',(#121));
#111=FILL_AREA_STYLE('',(#122));
#112=FILL_AREA_STYLE('',(#123));
#113=FILL_AREA_STYLE_COLOUR('',#124);
#114=FILL_AREA_STYLE_COLOUR('',#40);
#115=FILL_AREA_STYLE_COLOUR('',#41);
#116=FILL_AREA_STYLE_COLOUR('',#41);
#117=FILL_AREA_STYLE_COLOUR('',#41);
#118=FILL_AREA_STYLE_COLOUR('',#41);
#119=FILL_AREA_STYLE_COLOUR('',#41);
#120=FILL_AREA_STYLE_COLOUR('',#41);
#121=FILL_AREA_STYLE_COLOUR('',#41);
#122=FILL_AREA_STYLE_COLOUR('',#41);
#123=FILL_AREA_STYLE_COLOUR('',#41);
#124=DRAUGHTING_PRE_DEFINED_COLOUR('yellow');
#125=MANIFOLD_SOLID_BREP('',#127);
#126=MANIFOLD_SOLID_BREP('',#128);
#127=CLOSED_SHELL('',(#129,#130));
#128=CLOSED_SHELL('',(#131,#132,#133,#134,#135,#136,#137,#138,#139));
#129=ADVANCED_FACE('',(#142,#143),#140,.F.);
#130=ADVANCED_FACE('',(#144,#145),#141,.F.);
#131=ADVANCED_FACE('',(#146,#147),#53,.T.);
#132=ADVANCED_FACE('',(#52),#51,.F.);
#133=ADVANCED_FACE('',(#148,#149),#47,.T.);
#134=ADVANCED_FACE('',(#150,#151),#48,.T.);
#135=ADVANCED_FACE('',(#152,#153),#49,.F.);
#136=ADVANCED_FACE('',(#154,#155),#50,.T.);
#137=ADVANCED_FACE('',(#156,#157),#54,.T.);
#138=ADVANCED_FACE('',(#158,#159),#44,.T.);
#139=ADVANCED_FACE('',(#160,#161),#42,.F.);
#140=(
BOUNDED_SURFACE()
B_SPLINE_SURFACE(3,3,((#296,#297,#298,#299,#300,#301,#302),(#303,#304,#305,
#306,#307,#308,#309),(#310,#311,#312,#313,#314,#315,#316),(#317,#318,#319,
#320,#321,#322,#323),(#324,#325,#326,#327,#328,#329,#330),(#331,#332,#333,
#334,#335,#336,#337),(#338,#339,#340,#341,#342,#343,#344)),
 .UNSPECIFIED.,.T.,.F.,.F.)
B_SPLINE_SURFACE_WITH_KNOTS((1,3,3,3,1),(4,3,4),(-0.5,0.,0.5,1.,1.5),(0.,
0.5,1.),.UNSPECIFIED.)
GEOMETRIC_REPRESENTATION_ITEM()
RATIONAL_B_SPLINE_SURFACE(((1.,0.595610462727619,0.595610462727619,1.,0.595610462727619,
0.595610462727619,1.),(0.333333333333334,0.198536820909206,0.198536820909206,
0.333333333333334,0.198536820909206,0.198536820909206,0.333333333333334),
(0.333333333333334,0.198536820909206,0.198536820909206,0.333333333333334,
0.198536820909206,0.198536820909206,0.333333333333334),(1.,0.595610462727619,
0.595610462727619,1.,0.595610462727619,0.595610462727619,1.),(0.333333333333334,
0.198536820909206,0.198536820909206,0.333333333333334,0.198536820909206,
0.198536820909206,0.333333333333334),(0.333333333333334,0.198536820909206,
0.198536820909206,0.333333333333334,0.198536820909206,0.198536820909206,
0.333333333333334),(1.,0.595610462727619,0.595610462727619,1.,0.595610462727619,
0.595610462727619,1.)))
REPRESENTATION_ITEM('')
SURFACE()
);
#141=(
BOUNDED_SURFACE()
B_SPLINE_SURFACE(3,3,((#345,#346,#347,#348),(#349,#350,#351,#352),(#353,
#354,#355,#356),(#357,#358,#359,#360),(#361,#362,#363,#364),(#365,#366,
#367,#368),(#369,#370,#371,#372)),.UNSPECIFIED.,.T.,.F.,.F.)
B_SPLINE_SURFACE_WITH_KNOTS((1,3,3,3,1),(4,4),(-0.5,0.,0.5,1.,1.5),(0.,
1.),.UNSPECIFIED.)
GEOMETRIC_REPRESENTATION_ITEM()
RATIONAL_B_SPLINE_SURFACE(((1.,0.79363212219008,0.79363212219008,1.),(0.333333333333334,
0.264544040730027,0.264544040730027,0.333333333333334),(0.333333333333334,
0.264544040730027,0.264544040730027,0.333333333333334),(1.,0.79363212219008,
0.79363212219008,1.),(0.333333333333334,0.264544040730027,0.264544040730027,
0.333333333333334),(0.333333333333334,0.264544040730027,0.264544040730027,
0.333333333333334),(1.,0.79363212219008,0.79363212219008,1.)))
REPRESENTATION_ITEM('')
SURFACE()
);
#142=FACE_BOUND('',#162,.T.);
#143=FACE_BOUND('',#163,.T.);
#144=FACE_BOUND('',#164,.T.);
#145=FACE_BOUND('',#165,.T.);
#146=FACE_BOUND('',#166,.T.);
#147=FACE_BOUND('',#167,.T.);
#148=FACE_BOUND('',#169,.T.);
#149=FACE_BOUND('',#170,.T.);
#150=FACE_BOUND('',#171,.T.);
#151=FACE_BOUND('',#172,.T.);
#152=FACE_BOUND('',#173,.T.);
#153=FACE_BOUND('',#174,.T.);
#154=FACE_BOUND('',#175,.T.);
#155=FACE_BOUND('',#176,.T.);
#156=FACE_BOUND('',#177,.T.);
#157=FACE_BOUND('',#178,.T.);
#158=FACE_BOUND('',#179,.T.);
#159=FACE_BOUND('',#180,.T.);
#160=FACE_BOUND('',#181,.T.);
#161=FACE_BOUND('',#43,.T.);
#162=EDGE_LOOP('',(#182));
#163=EDGE_LOOP('',(#183));
#164=EDGE_LOOP('',(#184));
#165=EDGE_LOOP('',(#185));
#166=EDGE_LOOP('',(#186));
#167=EDGE_LOOP('',(#187));
#168=EDGE_LOOP('',(#188));
#169=EDGE_LOOP('',(#189));
#170=EDGE_LOOP('',(#190));
#171=EDGE_LOOP('',(#191));
#172=EDGE_LOOP('',(#192));
#173=EDGE_LOOP('',(#193));
#174=EDGE_LOOP('',(#194));
#175=EDGE_LOOP('',(#195));
#176=EDGE_LOOP('',(#196));
#177=EDGE_LOOP('',(#197));
#178=EDGE_LOOP('',(#198));
#179=EDGE_LOOP('',(#199));
#180=EDGE_LOOP('',(#200));
#181=EDGE_LOOP('',(#201));
#182=ORIENTED_EDGE('',*,*,#213,.T.);
#183=ORIENTED_EDGE('',*,*,#214,.F.);
#184=ORIENTED_EDGE('',*,*,#214,.T.);
#185=ORIENTED_EDGE('',*,*,#213,.F.);
#186=ORIENTED_EDGE('',*,*,#215,.T.);
#187=ORIENTED_EDGE('',*,*,#216,.F.);
#188=ORIENTED_EDGE('',*,*,#217,.F.);
#189=ORIENTED_EDGE('',*,*,#215,.F.);
#190=ORIENTED_EDGE('',*,*,#217,.T.);
#191=ORIENTED_EDGE('',*,*,#218,.F.);
#192=ORIENTED_EDGE('',*,*,#216,.T.);
#193=ORIENTED_EDGE('',*,*,#219,.F.);
#194=ORIENTED_EDGE('',*,*,#218,.T.);
#195=ORIENTED_EDGE('',*,*,#220,.F.);
#196=ORIENTED_EDGE('',*,*,#219,.T.);
#197=ORIENTED_EDGE('',*,*,#221,.F.);
#198=ORIENTED_EDGE('',*,*,#220,.T.);
#199=ORIENTED_EDGE('',*,*,#222,.F.);
#200=ORIENTED_EDGE('',*,*,#221,.T.);
#201=ORIENTED_EDGE('',*,*,#222,.T.);
#202=VERTEX_POINT('',#293);
#203=VERTEX_POINT('',#295);
#204=VERTEX_POINT('',#374);
#205=VERTEX_POINT('',#376);
#206=VERTEX_POINT('',#379);
#207=VERTEX_POINT('',#383);
#208=VERTEX_POINT('',#386);
#209=VERTEX_POINT('',#389);
#210=VERTEX_POINT('',#392);
#211=VERTEX_POINT('',#395);
#212=VERTEX_POINT('',#461);
#213=EDGE_CURVE('',#202,#202,#223,.T.);
#214=EDGE_CURVE('',#203,#203,#224,.T.);
#215=EDGE_CURVE('',#204,#204,#225,.T.);
#216=EDGE_CURVE('',#205,#205,#226,.T.);
#217=EDGE_CURVE('',#206,#206,#227,.T.);
#218=EDGE_CURVE('',#207,#207,#228,.T.);
#219=EDGE_CURVE('',#208,#208,#229,.T.);
#220=EDGE_CURVE('',#209,#209,#230,.T.);
#221=EDGE_CURVE('',#210,#210,#231,.T.);
#222=EDGE_CURVE('',#211,#211,#232,.T.);
#223=CIRCLE('',#234,5.);
#224=CIRCLE('',#235,5.);
#225=CIRCLE('',#236,21.);
#226=CIRCLE('',#237,21.);
#227=CIRCLE('',#239,19.5);
#228=CIRCLE('',#242,20.9272727272728);
#229=CIRCLE('',#244,23.6545454545455);
#230=CIRCLE('',#246,24.);
#231=CIRCLE('',#248,24.);
#232=CIRCLE('',#250,17.389747484334);
#233=AXIS2_PLACEMENT_3D('',#291,#252,#253);
#234=AXIS2_PLACEMENT_3D('',#292,#254,#255);
#235=AXIS2_PLACEMENT_3D('',#294,#256,#257);
#236=AXIS2_PLACEMENT_3D('',#373,#258,#259);
#237=AXIS2_PLACEMENT_3D('',#375,#260,#261);
#238=AXIS2_PLACEMENT_3D('',#377,#262,#263);
#239=AXIS2_PLACEMENT_3D('',#378,#264,#265);
#240=AXIS2_PLACEMENT_3D('',#380,#266,#267);
#241=AXIS2_PLACEMENT_3D('',#381,#268,#269);
#242=AXIS2_PLACEMENT_3D('',#382,#270,#271);
#243=AXIS2_PLACEMENT_3D('',#384,#272,#273);
#244=AXIS2_PLACEMENT_3D('',#385,#274,#275);
#245=AXIS2_PLACEMENT_3D('',#387,#276,#277);
#246=AXIS2_PLACEMENT_3D('',#388,#278,#279);
#247=AXIS2_PLACEMENT_3D('',#390,#280,#281);
#248=AXIS2_PLACEMENT_3D('',#391,#282,#283);
#249=AXIS2_PLACEMENT_3D('',#393,#284,#285);
#250=AXIS2_PLACEMENT_3D('',#394,#286,#287);
#251=AXIS2_PLACEMENT_3D('',#462,#289,#290);
#252=DIRECTION('',(0.,0.,1.));
#253=DIRECTION('',(1.,0.,0.));
#254=DIRECTION('',(0.121869343405148,0.99227827272606,0.0230584607852734));
#255=DIRECTION('',(0.992510112580906,-0.122029999372768,0.00568820514039795));
#256=DIRECTION('',(0.121869343405148,-0.0692365195668007,0.990128359101119));
#257=DIRECTION('',(0.992510112580906,0.,-0.122162500075257));
#258=DIRECTION('',(-1.,0.,0.));
#259=DIRECTION('',(0.,0.,1.));
#260=DIRECTION('',(-1.,0.,0.));
#261=DIRECTION('',(0.,0.,1.));
#262=DIRECTION('',(-1.,0.,0.));
#263=DIRECTION('',(0.,0.,1.));
#264=DIRECTION('',(-1.,0.,0.));
#265=DIRECTION('',(0.,0.,1.));
#266=DIRECTION('',(-1.,0.,0.));
#267=DIRECTION('',(0.,0.,1.));
#268=DIRECTION('',(-1.,0.,0.));
#269=DIRECTION('',(0.,0.,1.));
#270=DIRECTION('',(-1.,0.,0.));
#271=DIRECTION('',(0.,0.,1.));
#272=DIRECTION('',(-1.,0.,0.));
#273=DIRECTION('',(0.,0.,1.));
#274=DIRECTION('',(-1.,0.,0.));
#275=DIRECTION('',(0.,0.,1.));
#276=DIRECTION('',(-1.,0.,0.));
#277=DIRECTION('',(0.,0.,1.));
#278=DIRECTION('',(-1.,0.,0.));
#279=DIRECTION('',(0.,0.,1.));
#280=DIRECTION('',(-1.,0.,0.));
#281=DIRECTION('',(0.,0.,1.));
#282=DIRECTION('',(-1.,0.,0.));
#283=DIRECTION('',(0.,0.,1.));
#284=DIRECTION('',(-1.,0.,0.));
#285=DIRECTION('',(0.,0.,1.));
#286=DIRECTION('',(-1.,0.,0.));
#287=DIRECTION('',(0.,0.,1.));
#288=DIRECTION('',(-1.,0.,0.));
#289=DIRECTION('',(-1.,0.,0.));
#290=DIRECTION('',(6.59293277747648E-18,0.,1.));
#291=CARTESIAN_POINT('',(0.,0.,0.));
#292=CARTESIAN_POINT('',(4.96273075820661,0.370355691189299,21.0000324779871));
#293=CARTESIAN_POINT('',(9.92528132111114,-0.239794305674542,21.0284735036891));
#294=CARTESIAN_POINT('',(4.96273075820661,-20.9945000117328,-0.607862379048722));
#295=CARTESIAN_POINT('',(9.92528132111114,-20.9945000117328,-1.218674879425));
#296=CARTESIAN_POINT('',(9.92528132111114,-20.9945000117328,-1.218674879425));
#297=CARTESIAN_POINT('',(9.92528132111114,-19.7404345254475,-22.8228601391976));
#298=CARTESIAN_POINT('',(9.92528132111114,0.614973342154249,-30.1693471585862));
#299=CARTESIAN_POINT('',(9.92528132111114,15.3771816853623,-14.3456084785465));
#300=CARTESIAN_POINT('',(9.92528132111114,30.1393900285704,1.47813020149327));
#301=CARTESIAN_POINT('',(9.92528132111114,21.3993510442996,21.2752314927403));
#302=CARTESIAN_POINT('',(9.92528132111114,-0.239794305674546,21.028473503689));
#303=CARTESIAN_POINT('',(10.009862384379,-11.0184972833937,-0.53149542112545));
#304=CARTESIAN_POINT('',(10.009862384379,-10.4715671094768,-11.8699724728155));
#305=CARTESIAN_POINT('',(10.009862384379,0.167753972475587,-15.8278811860082));
#306=CARTESIAN_POINT('',(10.009862384379,7.99217557479442,-7.6036109414206));
#307=CARTESIAN_POINT('',(10.009862384379,15.8165971771133,0.620659303167048));
#308=CARTESIAN_POINT('',(10.009862384379,11.3337766062413,11.0496819896996));
#309=CARTESIAN_POINT('',(10.009862384379,-0.0178689288313442,11.0312941429469));
#310=CARTESIAN_POINT('',(0.0847612585699754,-11.0184972833937,0.690129579627115));
#311=CARTESIAN_POINT('',(0.0847612585699754,-11.728668389311,-10.648347472063));
#312=CARTESIAN_POINT('',(0.0847612585699754,-1.5839106799078,-15.7619856943942));
#313=CARTESIAN_POINT('',(0.0847612585699754,7.10847421727796,-8.44707970384589));
#314=CARTESIAN_POINT('',(0.0847612585699754,15.8008591144637,-1.13217371329759));
#315=CARTESIAN_POINT('',(0.0847612585699754,12.4955426803329,9.73706214400384));
#316=CARTESIAN_POINT('',(0.0847612585699754,1.20243106489634,10.9744120915429));
#317=CARTESIAN_POINT('',(0.000180195302076392,-20.9945000117328,0.00295012132756122));
#318=CARTESIAN_POINT('',(0.000180195302076392,-20.9975358052817,-21.6012351384451));
#319=CARTESIAN_POINT('',(0.000180195302076392,-1.13669131022914,-30.1034516669722));
#320=CARTESIAN_POINT('',(0.000180195302076392,14.4934803278459,-15.1890772409718));
#321=CARTESIAN_POINT('',(0.000180195302076392,30.1236519659208,-0.274702814971365));
#322=CARTESIAN_POINT('',(0.000180195302076392,22.5611171183911,19.9626116470445));
#323=CARTESIAN_POINT('',(0.000180195302076392,0.980505688053135,20.9715914522851));
#324=CARTESIAN_POINT('',(-0.0844008679658227,-30.9705027400717,-0.684229336971993));
#325=CARTESIAN_POINT('',(-0.0844008679658226,-30.2664032212524,-32.5541228048271));
#326=CARTESIAN_POINT('',(-0.0844008679658226,-0.689471940550481,-44.4449176395501));
#327=CARTESIAN_POINT('',(-0.0844008679658227,21.8784864384138,-21.9310747780976));
#328=CARTESIAN_POINT('',(-0.0844008679658226,44.4464448173779,0.582768083354858));
#329=CARTESIAN_POINT('',(-0.0844008679658226,32.6266915564494,30.1881611500852));
#330=CARTESIAN_POINT('',(-0.0844008679658227,0.758580311209933,30.9687708130272));
#331=CARTESIAN_POINT('',(9.84070025784323,-30.9705027400717,-1.90585433772456));
#332=CARTESIAN_POINT('',(9.84070025784324,-29.0093019414181,-33.7757478055796));
#333=CARTESIAN_POINT('',(9.84070025784324,1.06219271183291,-44.5108131311642));
#334=CARTESIAN_POINT('',(9.84070025784323,22.7621877959302,-21.0876060156723));
#335=CARTESIAN_POINT('',(9.84070025784324,44.4621828800275,2.3356010998195));
#336=CARTESIAN_POINT('',(9.84070025784324,31.4649254823579,31.500780995781));
#337=CARTESIAN_POINT('',(9.84070025784323,-0.461719682517751,31.0256528644313));
#338=CARTESIAN_POINT('',(9.92528132111114,-20.9945000117328,-1.218674879425));
#339=CARTESIAN_POINT('',(9.92528132111114,-19.7404345254475,-22.8228601391976));
#340=CARTESIAN_POINT('',(9.92528132111114,0.614973342154249,-30.1693471585862));
#341=CARTESIAN_POINT('',(9.92528132111114,15.3771816853623,-14.3456084785465));
#342=CARTESIAN_POINT('',(9.92528132111114,30.1393900285704,1.47813020149327));
#343=CARTESIAN_POINT('',(9.92528132111114,21.3993510442996,21.2752314927403));
#344=CARTESIAN_POINT('',(9.92528132111114,-0.239794305674546,21.028473503689));
#345=CARTESIAN_POINT('',(9.92528132111114,-0.239794305674542,21.028473503689));
#346=CARTESIAN_POINT('',(9.92528132111115,-13.0178524826124,20.8827612822161));
#347=CARTESIAN_POINT('',(9.92528132111115,-21.7350339599213,11.5387391334647));
#348=CARTESIAN_POINT('',(9.92528132111114,-20.9945000117328,-1.21867487942501));
#349=CARTESIAN_POINT('',(10.009862384379,-0.0178689288313421,11.0312941429469));
#350=CARTESIAN_POINT('',(10.009862384379,-6.72109055358504,11.0204359980546));
#351=CARTESIAN_POINT('',(10.009862384379,-11.3414631615743,6.16395012726095));
#352=CARTESIAN_POINT('',(10.009862384379,-11.0184972833937,-0.53149542112545));
#353=CARTESIAN_POINT('',(0.0847612585699754,1.20243106489634,10.9744120915429));
#354=CARTESIAN_POINT('',(0.0847612585699755,-5.46622589390877,11.7050754037566));
#355=CARTESIAN_POINT('',(0.0847612585699755,-10.5991365572547,7.38557512801351));
#356=CARTESIAN_POINT('',(0.0847612585699754,-11.0184972833937,0.690129579627115));
#357=CARTESIAN_POINT('',(0.000180195302076392,0.98050568805314,20.9715914522851));
#358=CARTESIAN_POINT('',(0.000180195302076393,-11.7629878229361,21.5674006879181));
#359=CARTESIAN_POINT('',(0.000180195302076393,-20.9927073556017,12.7603641342173));
#360=CARTESIAN_POINT('',(0.000180195302076392,-20.9945000117328,0.002950121327561));
#361=CARTESIAN_POINT('',(-0.0844008679658227,0.758580311209939,30.9687708130272));
#362=CARTESIAN_POINT('',(-0.0844008679658228,-18.0597497519634,31.4297259720796));
#363=CARTESIAN_POINT('',(-0.0844008679658228,-31.3862781539486,18.135153140421));
#364=CARTESIAN_POINT('',(-0.0844008679658227,-30.9705027400717,-0.684229336971994));
#365=CARTESIAN_POINT('',(9.84070025784323,-0.461719682517742,31.0256528644312));
#366=CARTESIAN_POINT('',(9.84070025784324,-19.3146144116397,30.7450865663776));
#367=CARTESIAN_POINT('',(9.84070025784324,-32.1286047582682,16.9135281396685));
#368=CARTESIAN_POINT('',(9.84070025784323,-30.9705027400718,-1.90585433772456));
#369=CARTESIAN_POINT('',(9.92528132111114,-0.239794305674542,21.028473503689));
#370=CARTESIAN_POINT('',(9.92528132111115,-13.0178524826124,20.8827612822161));
#371=CARTESIAN_POINT('',(9.92528132111115,-21.7350339599213,11.5387391334647));
#372=CARTESIAN_POINT('',(9.92528132111114,-20.9945000117328,-1.21867487942501));
#373=CARTESIAN_POINT('',(48.5,0.,0.));
#374=CARTESIAN_POINT('',(48.5,0.,21.));
#375=CARTESIAN_POINT('',(42.,0.,0.));
#376=CARTESIAN_POINT('',(42.,0.,21.));
#377=CARTESIAN_POINT('',(0.,0.,0.));
#378=CARTESIAN_POINT('',(50.,0.,0.));
#379=CARTESIAN_POINT('',(50.,0.,19.5));
#380=CARTESIAN_POINT('',(50.,12.,0.));
#381=CARTESIAN_POINT('',(48.5,0.,0.));
#382=CARTESIAN_POINT('',(41.1503038948693,0.,0.));
#383=CARTESIAN_POINT('',(41.1503038948693,0.,20.9272727272728));
#384=CARTESIAN_POINT('',(42.,0.,0.));
#385=CARTESIAN_POINT('',(14.3907947968891,0.,0.));
#386=CARTESIAN_POINT('',(14.3907947968891,0.,23.6545454545455));
#387=CARTESIAN_POINT('',(32.6533428435617,0.,0.));
#388=CARTESIAN_POINT('',(12.5645399922219,0.,0.));
#389=CARTESIAN_POINT('',(12.5645399922219,0.,24.));
#390=CARTESIAN_POINT('',(12.5645399922219,0.,0.));
#391=CARTESIAN_POINT('',(7.41060865554133,0.,0.));
#392=CARTESIAN_POINT('',(7.41060865554133,0.,24.));
#393=CARTESIAN_POINT('',(0.,0.,0.));
#394=CARTESIAN_POINT('',(3.00000000000564,0.,0.));
#395=CARTESIAN_POINT('',(3.00000000000564,0.,17.389747484334));
#396=CARTESIAN_POINT('',(0.555328165493571,21.29445373432,0.));
#397=CARTESIAN_POINT('',(0.562093133818969,20.4976846834417,0.));
#398=CARTESIAN_POINT('',(0.672525545111348,19.9708908133209,0.));
#399=CARTESIAN_POINT('',(0.980774990498163,19.24765104053,0.));
#400=CARTESIAN_POINT('',(1.10917325857007,19.0136064331443,0.));
#401=CARTESIAN_POINT('',(1.40782126129707,18.5794267706006,0.));
#402=CARTESIAN_POINT('',(1.57705013917591,18.3794947682164,0.));
#403=CARTESIAN_POINT('',(1.95532706426957,18.013954537996,0.));
#404=CARTESIAN_POINT('',(2.16556487447915,17.8483841344517,0.));
#405=CARTESIAN_POINT('',(2.60789079826711,17.567064649198,0.));
#406=CARTESIAN_POINT('',(2.84200328949215,17.449015263156,0.));
#407=CARTESIAN_POINT('',(3.33688373824691,17.2594579199287,0.));
#408=CARTESIAN_POINT('',(3.59174360736863,17.190496662118,0.));
#409=CARTESIAN_POINT('',(4.1080296354969,17.1039888064144,0.));
#410=CARTESIAN_POINT('',(4.37315381178123,17.0861056303008,0.));
#411=CARTESIAN_POINT('',(4.90110268336345,17.1029759384136,0.));
#412=CARTESIAN_POINT('',(5.16075802893824,17.1370882030023,0.));
#413=CARTESIAN_POINT('',(5.67171511603704,17.2549751388006,0.));
#414=CARTESIAN_POINT('',(5.92541259581143,17.3401474772284,0.));
#415=CARTESIAN_POINT('',(6.40512844171586,17.5547139304286,0.));
#416=CARTESIAN_POINT('',(6.63280225394091,17.6839555306618,0.));
#417=CARTESIAN_POINT('',(7.06376167616229,17.9863914880236,0.));
#418=CARTESIAN_POINT('',(7.26658054076476,18.1601323397197,0.));
#419=CARTESIAN_POINT('',(7.63026972753988,18.5375381855934,0.));
#420=CARTESIAN_POINT('',(7.79362395955742,18.7427464939736,0.));
#421=CARTESIAN_POINT('',(8.08193414971353,19.1874392559128,0.));
#422=CARTESIAN_POINT('',(8.20328517444881,19.4217589540328,0.));
#423=CARTESIAN_POINT('',(8.39859962829564,19.9078856167021,0.));
#424=CARTESIAN_POINT('',(8.47357295284148,20.1631286866657,0.));
#425=CARTESIAN_POINT('',(8.57175918880216,20.6818641931246,0.));
#426=CARTESIAN_POINT('',(8.59506714965292,20.9428514812537,0.));
#427=CARTESIAN_POINT('',(8.59050036936035,21.4680407818484,0.));
#428=CARTESIAN_POINT('',(8.56175237046927,21.7342791247156,0.));
#429=CARTESIAN_POINT('',(8.45387344929775,22.2480133355658,0.));
#430=CARTESIAN_POINT('',(8.37511085070707,22.4979579151445,0.));
#431=CARTESIAN_POINT('',(8.1666820808104,22.9836513953466,0.));
#432=CARTESIAN_POINT('',(8.0379614050852,23.2159209141232,0.));
#433=CARTESIAN_POINT('',(7.73999543863063,23.6466649354276,0.));
#434=CARTESIAN_POINT('',(7.56842925362757,23.8486509913101,0.));
#435=CARTESIAN_POINT('',(7.18703811538837,24.2152993529178,0.));
#436=CARTESIAN_POINT('',(6.98084330701649,24.3770509909238,0.));
#437=CARTESIAN_POINT('',(6.53831018339852,24.6585991695576,0.));
#438=CARTESIAN_POINT('',(6.29921078119943,24.779119425085,0.));
#439=CARTESIAN_POINT('',(5.80876872524527,24.9677444909462,0.));
#440=CARTESIAN_POINT('',(5.55632442450434,25.0372006790377,0.));
#441=CARTESIAN_POINT('',(5.0369354607392,25.1262151741645,0.));
#442=CARTESIAN_POINT('',(4.7707479687946,25.1449201020203,0.));
#443=CARTESIAN_POINT('',(4.24716265410406,25.1304025169255,0.));
#444=CARTESIAN_POINT('',(3.98683617715434,25.0978106015533,0.));
#445=CARTESIAN_POINT('',(3.46921843349828,24.980183460198,0.));
#446=CARTESIAN_POINT('',(3.21986436997152,24.8968773526204,0.));
#447=CARTESIAN_POINT('',(2.74135105847649,24.6841841976138,0.));
#448=CARTESIAN_POINT('',(2.50966219293176,24.553093459744,0.));
#449=CARTESIAN_POINT('',(2.07796293642458,24.2497071997609,0.));
#450=CARTESIAN_POINT('',(1.87928587530669,24.0790764133837,0.));
#451=CARTESIAN_POINT('',(1.5156379551641,23.700644132938,0.));
#452=CARTESIAN_POINT('',(1.34967395874534,23.4906202257915,0.));
#453=CARTESIAN_POINT('',(1.06541627493417,23.0490821572993,0.));
#454=CARTESIAN_POINT('',(0.945348330815857,22.816333374069,0.));
#455=CARTESIAN_POINT('',(0.749948117122027,22.3265429543967,0.));
#456=CARTESIAN_POINT('',(0.675738288560441,22.0706054640585,0.));
#457=CARTESIAN_POINT('',(0.578996387154833,21.555840809067,0.));
#458=CARTESIAN_POINT('',(0.555328165493571,21.29445373432,0.));
#459=CARTESIAN_POINT('',(0.562093133818969,20.4976846834417,0.));
#460=CARTESIAN_POINT('',(0.,0.,0.));
#461=CARTESIAN_POINT('',(7.65956879500282,0.,0.));
#462=CARTESIAN_POINT('',(3.00000000000564,0.,0.));
#463=(
GEOMETRIC_REPRESENTATION_CONTEXT(3)
GLOBAL_UNCERTAINTY_ASSIGNED_CONTEXT((#464))
GLOBAL_UNIT_ASSIGNED_CONTEXT((#470,#466,#465))
REPRESENTATION_CONTEXT('model1','TOP_LEVEL_ASSEMBLY_PART')
);
#464=UNCERTAINTY_MEASURE_WITH_UNIT(LENGTH_MEASURE(2.E-5),#470,
'DISTANCE_ACCURACY_VALUE','Maximum Tolerance applied to model');
#465=(
NAMED_UNIT(*)
SI_UNIT($,.STERADIAN.)
SOLID_ANGLE_UNIT()
);
#466=(
CONVERSION_BASED_UNIT('DEGREE',#468)
NAMED_UNIT(#467)
PLANE_ANGLE_UNIT()
);
#467=DIMENSIONAL_EXPONENTS(0.,0.,0.,0.,0.,0.,0.);
#468=PLANE_ANGLE_MEASURE_WITH_UNIT(PLANE_ANGLE_MEASURE(0.0174532925),#469);
#469=(
NAMED_UNIT(*)
PLANE_ANGLE_UNIT()
SI_UNIT($,.RADIAN.)
);
#470=(
LENGTH_UNIT()
NAMED_UNIT(*)
SI_UNIT(.MILLI.,.METRE.)
);
ENDSEC;
END-ISO-10303-21;
