ISO-10303-21;
HEADER;
/* Generated by software containing ST-Developer
 * from STEP Tools, Inc. (www.steptools.com) 
 */
/* OPTION: using custom schema-name function */

FILE_DESCRIPTION(
/* description */ (''),
/* implementation_level */ '2;1');

FILE_NAME(
/* name */ 'model1.stp',
/* time_stamp */ '2023-11-03T10:58:35+03:00',
/* author */ (''),
/* organization */ (''),
/* preprocessor_version */ 'ST-DEVELOPER v19.4',
/* originating_system */ 'SIEMENS PLM Software NX2306.3001',
/* authorisation */ '');

FILE_SCHEMA (('AUTOMOTIVE_DESIGN { 1 0 10303 214 3 1 1 1 }'));
ENDSEC;

DATA;
#10=PROPERTY_DEFINITION_REPRESENTATION(#14,#12);
#11=PROPERTY_DEFINITION_REPRESENTATION(#15,#13);
#12=REPRESENTATION('',(#16),#463);
#13=REPRESENTATION('',(#17),#463);
#14=PROPERTY_DEFINITION('pmi validation property','',#21);
#15=PROPERTY_DEFINITION('pmi validation property','',#21);
#16=VALUE_REPRESENTATION_ITEM('number of annotations',COUNT_MEASURE(0.));
#17=VALUE_REPRESENTATION_ITEM('number of views',COUNT_MEASURE(0.));
#18=SHAPE_REPRESENTATION_RELATIONSHIP('None',
'relationship between model1_objects-None and model1_objects-None',#30,
#19);
#19=ADVANCED_BREP_SHAPE_REPRESENTATION('model1_objects-None',(#125,#126),
#463);
#20=SHAPE_DEFINITION_REPRESENTATION(#21,#30);
#21=PRODUCT_DEFINITION_SHAPE('','',#22);
#22=PRODUCT_DEFINITION(' ','',#24,#23);
#23=PRODUCT_DEFINITION_CONTEXT('part definition',#29,'design');
#24=PRODUCT_DEFINITION_FORMATION_WITH_SPECIFIED_SOURCE(' ',' ',#26,
 .NOT_KNOWN.);
#25=PRODUCT_RELATED_PRODUCT_CATEGORY('part','',(#26));
#26=PRODUCT('model1_objects','model1_objects',' ',(#27));
#27=PRODUCT_CONTEXT(' ',#29,'mechanical');
#28=APPLICATION_PROTOCOL_DEFINITION('international standard',
'automotive_design',2010,#29);
#29=APPLICATION_CONTEXT(
'core data for automotive mechanical design processes');
#30=SHAPE_REPRESENTATION('model1_objects-None',(#233),#463);
#31=OVER_RIDING_STYLED_ITEM('',(#60),#131,#57);
#32=OVER_RIDING_STYLED_ITEM('',(#61),#132,#57);
#33=OVER_RIDING_STYLED_ITEM('',(#62),#133,#57);
#34=OVER_RIDING_STYLED_ITEM('',(#63),#134,#57);
#35=OVER_RIDING_STYLED_ITEM('',(#64),#135,#57);
#36=OVER_RIDING_STYLED_ITEM('',(#65),#136,#57);
#37=OVER_RIDING_STYLED_ITEM('',(#66),#137,#57);
#38=OVER_RIDING_STYLED_ITEM('',(#67),#138,#57);
#39=OVER_RIDING_STYLED_ITEM('',(#68),#139,#57);
#40=COLOUR_RGB('Medium Steel',0.611764705882353,0.658823529411765,0.670588235294118);
#41=COLOUR_RGB('silver gray',0.6,0.6,0.6);
#42=CONICAL_SURFACE('',#244,24.3059191737392,75.0000000000002);
#43=VERTEX_LOOP('',#209);
#44=SURFACE_OF_REVOLUTION('',#46,#45);
#45=AXIS1_PLACEMENT('',#450,#274);
#46=B_SPLINE_CURVE_WITH_KNOTS('',3,(#386,#387,#388,#389,#390,#391,#392,
#393,#394,#395,#396,#397,#398,#399,#400,#401,#402,#403,#404,#405,#406,#407,
#408,#409,#410,#411,#412,#413,#414,#415,#416,#417,#418,#419,#420,#421,#422,
#423,#424,#425,#426,#427,#428,#429,#430,#431,#432,#433,#434,#435,#436,#437,
#438,#439,#440,#441,#442,#443,#444,#445,#446,#447,#448,#449),
 .UNSPECIFIED.,.T.,.F.,(2,2,2,2,2,2,2,2,2,2,2,2,2,2,2,2,2,2,2,2,2,2,2,2,
2,2,2,2,2,2,2,2,2,2),(-0.03125,0.,0.0625,0.09375,0.125,0.15625,0.1875,0.21875,
0.25,0.28125,0.3125,0.34375,0.375,0.40625,0.4375,0.46875,0.5,0.53125,0.5625,
0.59375,0.625,0.65625,0.6875,0.71875,0.75,0.78125,0.8125,0.84375,0.875,
0.90625,0.9375,0.96875,1.,1.0625),.UNSPECIFIED.);
#47=TOROIDAL_SURFACE('',#241,27.,2.);
#48=TOROIDAL_SURFACE('',#246,24.,5.);
#49=TOROIDAL_SURFACE('',#248,63.,35.);
#50=TOROIDAL_SURFACE('',#250,26.,5.);
#51=PLANE('',#240);
#52=FACE_OUTER_BOUND('',#168,.T.);
#53=CYLINDRICAL_SURFACE('',#238,29.);
#54=CYLINDRICAL_SURFACE('',#251,31.);
#55=PRESENTATION_LAYER_ASSIGNMENT('1','Layer 1',(#125,#126));
#56=STYLED_ITEM('',(#58),#125);
#57=STYLED_ITEM('',(#59),#126);
#58=PRESENTATION_STYLE_ASSIGNMENT((#69));
#59=PRESENTATION_STYLE_ASSIGNMENT((#70));
#60=PRESENTATION_STYLE_ASSIGNMENT((#71));
#61=PRESENTATION_STYLE_ASSIGNMENT((#72));
#62=PRESENTATION_STYLE_ASSIGNMENT((#73));
#63=PRESENTATION_STYLE_ASSIGNMENT((#74));
#64=PRESENTATION_STYLE_ASSIGNMENT((#75));
#65=PRESENTATION_STYLE_ASSIGNMENT((#76));
#66=PRESENTATION_STYLE_ASSIGNMENT((#77));
#67=PRESENTATION_STYLE_ASSIGNMENT((#78));
#68=PRESENTATION_STYLE_ASSIGNMENT((#79));
#69=SURFACE_STYLE_USAGE(.BOTH.,#80);
#70=SURFACE_STYLE_USAGE(.BOTH.,#81);
#71=SURFACE_STYLE_USAGE(.BOTH.,#82);
#72=SURFACE_STYLE_USAGE(.BOTH.,#83);
#73=SURFACE_STYLE_USAGE(.BOTH.,#84);
#74=SURFACE_STYLE_USAGE(.BOTH.,#85);
#75=SURFACE_STYLE_USAGE(.BOTH.,#86);
#76=SURFACE_STYLE_USAGE(.BOTH.,#87);
#77=SURFACE_STYLE_USAGE(.BOTH.,#88);
#78=SURFACE_STYLE_USAGE(.BOTH.,#89);
#79=SURFACE_STYLE_USAGE(.BOTH.,#90);
#80=SURFACE_SIDE_STYLE('',(#91));
#81=SURFACE_SIDE_STYLE('',(#92));
#82=SURFACE_SIDE_STYLE('',(#93));
#83=SURFACE_SIDE_STYLE('',(#94));
#84=SURFACE_SIDE_STYLE('',(#95));
#85=SURFACE_SIDE_STYLE('',(#96));
#86=SURFACE_SIDE_STYLE('',(#97));
#87=SURFACE_SIDE_STYLE('',(#98));
#88=SURFACE_SIDE_STYLE('',(#99));
#89=SURFACE_SIDE_STYLE('',(#100));
#90=SURFACE_SIDE_STYLE('',(#101));
#91=SURFACE_STYLE_FILL_AREA(#102);
#92=SURFACE_STYLE_FILL_AREA(#103);
#93=SURFACE_STYLE_FILL_AREA(#104);
#94=SURFACE_STYLE_FILL_AREA(#105);
#95=SURFACE_STYLE_FILL_AREA(#106);
#96=SURFACE_STYLE_FILL_AREA(#107);
#97=SURFACE_STYLE_FILL_AREA(#108);
#98=SURFACE_STYLE_FILL_AREA(#109);
#99=SURFACE_STYLE_FILL_AREA(#110);
#100=SURFACE_STYLE_FILL_AREA(#111);
#101=SURFACE_STYLE_FILL_AREA(#112);
#102=FILL_AREA_STYLE('',(#113));
#103=FILL_AREA_STYLE('',(#114));
#104=FILL_AREA_STYLE('',(#115));
#105=FILL_AREA_STYLE('',(#116));
#106=FILL_AREA_STYLE('',(#117));
#107=FILL_AREA_STYLE('',(#118));
#108=FILL_AREA_STYLE('',(#119));
#109=FILL_AREA_STYLE('',(#120));
#110=FILL_AREA_STYLE('',(#121));
#111=FILL_AREA_STYLE('',(#122));
#112=FILL_AREA_STYLE('',(#123));
#113=FILL_AREA_STYLE_COLOUR('',#124);
#114=FILL_AREA_STYLE_COLOUR('',#40);
#115=FILL_AREA_STYLE_COLOUR('',#41);
#116=FILL_AREA_STYLE_COLOUR('',#41);
#117=FILL_AREA_STYLE_COLOUR('',#41);
#118=FILL_AREA_STYLE_COLOUR('',#41);
#119=FILL_AREA_STYLE_COLOUR('',#41);
#120=FILL_AREA_STYLE_COLOUR('',#41);
#121=FILL_AREA_STYLE_COLOUR('',#41);
#122=FILL_AREA_STYLE_COLOUR('',#41);
#123=FILL_AREA_STYLE_COLOUR('',#41);
#124=DRAUGHTING_PRE_DEFINED_COLOUR('yellow');
#125=MANIFOLD_SOLID_BREP('',#127);
#126=MANIFOLD_SOLID_BREP('',#128);
#127=CLOSED_SHELL('',(#129,#130));
#128=CLOSED_SHELL('',(#131,#132,#133,#134,#135,#136,#137,#138,#139));
#129=ADVANCED_FACE('',(#142,#143),#140,.F.);
#130=ADVANCED_FACE('',(#144,#145),#141,.F.);
#131=ADVANCED_FACE('',(#146,#147),#53,.T.);
#132=ADVANCED_FACE('',(#52),#51,.F.);
#133=ADVANCED_FACE('',(#148,#149),#47,.T.);
#134=ADVANCED_FACE('',(#150,#151),#44,.T.);
#135=ADVANCED_FACE('',(#152,#153),#42,.F.);
#136=ADVANCED_FACE('',(#154,#155),#48,.T.);
#137=ADVANCED_FACE('',(#156,#157),#49,.F.);
#138=ADVANCED_FACE('',(#158,#159),#50,.T.);
#139=ADVANCED_FACE('',(#160,#161),#54,.T.);
#140=(
BOUNDED_SURFACE()
B_SPLINE_SURFACE(3,3,((#296,#297,#298,#299,#300,#301,#302),(#303,#304,#305,
#306,#307,#308,#309),(#310,#311,#312,#313,#314,#315,#316),(#317,#318,#319,
#320,#321,#322,#323),(#324,#325,#326,#327,#328,#329,#330),(#331,#332,#333,
#334,#335,#336,#337),(#338,#339,#340,#341,#342,#343,#344)),
 .UNSPECIFIED.,.T.,.F.,.F.)
B_SPLINE_SURFACE_WITH_KNOTS((1,3,3,3,1),(4,3,4),(-0.5,0.,0.5,1.,1.5),(0.,
0.5,1.),.UNSPECIFIED.)
GEOMETRIC_REPRESENTATION_ITEM()
RATIONAL_B_SPLINE_SURFACE(((1.,0.593945723385872,0.593945723385872,1.,0.593945723385872,
0.593945723385872,1.),(0.333333333333334,0.19798190779529,0.19798190779529,
0.333333333333334,0.19798190779529,0.19798190779529,0.333333333333334),
(0.333333333333334,0.19798190779529,0.19798190779529,0.333333333333334,
0.19798190779529,0.19798190779529,0.333333333333334),(1.,0.593945723385872,
0.593945723385872,1.,0.593945723385872,0.593945723385872,1.),(0.333333333333334,
0.19798190779529,0.19798190779529,0.333333333333334,0.19798190779529,0.19798190779529,
0.333333333333334),(0.333333333333334,0.19798190779529,0.19798190779529,
0.333333333333334,0.19798190779529,0.19798190779529,0.333333333333334),
(1.,0.593945723385872,0.593945723385872,1.,0.593945723385872,0.593945723385872,
1.)))
REPRESENTATION_ITEM('')
SURFACE()
);
#141=(
BOUNDED_SURFACE()
B_SPLINE_SURFACE(3,3,((#345,#346,#347,#348),(#349,#350,#351,#352),(#353,
#354,#355,#356),(#357,#358,#359,#360),(#361,#362,#363,#364),(#365,#366,
#367,#368),(#369,#370,#371,#372)),.UNSPECIFIED.,.T.,.F.,.F.)
B_SPLINE_SURFACE_WITH_KNOTS((1,3,3,3,1),(4,4),(-0.5,0.,0.5,1.,1.5),(0.,
1.),.UNSPECIFIED.)
GEOMETRIC_REPRESENTATION_ITEM()
RATIONAL_B_SPLINE_SURFACE(((1.,0.796243546453311,0.796243546453311,1.),
(0.333333333333334,0.265414515484437,0.265414515484437,0.333333333333334),
(0.333333333333334,0.265414515484437,0.265414515484437,0.333333333333334),
(1.,0.796243546453311,0.796243546453311,1.),(0.333333333333334,0.265414515484437,
0.265414515484437,0.333333333333334),(0.333333333333334,0.265414515484437,
0.265414515484437,0.333333333333334),(1.,0.796243546453311,0.796243546453311,
1.)))
REPRESENTATION_ITEM('')
SURFACE()
);
#142=FACE_BOUND('',#162,.T.);
#143=FACE_BOUND('',#163,.T.);
#144=FACE_BOUND('',#164,.T.);
#145=FACE_BOUND('',#165,.T.);
#146=FACE_BOUND('',#166,.T.);
#147=FACE_BOUND('',#167,.T.);
#148=FACE_BOUND('',#169,.T.);
#149=FACE_BOUND('',#170,.T.);
#150=FACE_BOUND('',#171,.T.);
#151=FACE_BOUND('',#172,.T.);
#152=FACE_BOUND('',#173,.T.);
#153=FACE_BOUND('',#43,.T.);
#154=FACE_BOUND('',#174,.T.);
#155=FACE_BOUND('',#175,.T.);
#156=FACE_BOUND('',#176,.T.);
#157=FACE_BOUND('',#177,.T.);
#158=FACE_BOUND('',#178,.T.);
#159=FACE_BOUND('',#179,.T.);
#160=FACE_BOUND('',#180,.T.);
#161=FACE_BOUND('',#181,.T.);
#162=EDGE_LOOP('',(#182));
#163=EDGE_LOOP('',(#183));
#164=EDGE_LOOP('',(#184));
#165=EDGE_LOOP('',(#185));
#166=EDGE_LOOP('',(#186));
#167=EDGE_LOOP('',(#187));
#168=EDGE_LOOP('',(#188));
#169=EDGE_LOOP('',(#189));
#170=EDGE_LOOP('',(#190));
#171=EDGE_LOOP('',(#191));
#172=EDGE_LOOP('',(#192));
#173=EDGE_LOOP('',(#193));
#174=EDGE_LOOP('',(#194));
#175=EDGE_LOOP('',(#195));
#176=EDGE_LOOP('',(#196));
#177=EDGE_LOOP('',(#197));
#178=EDGE_LOOP('',(#198));
#179=EDGE_LOOP('',(#199));
#180=EDGE_LOOP('',(#200));
#181=EDGE_LOOP('',(#201));
#182=ORIENTED_EDGE('',*,*,#213,.T.);
#183=ORIENTED_EDGE('',*,*,#214,.F.);
#184=ORIENTED_EDGE('',*,*,#214,.T.);
#185=ORIENTED_EDGE('',*,*,#213,.F.);
#186=ORIENTED_EDGE('',*,*,#215,.T.);
#187=ORIENTED_EDGE('',*,*,#216,.F.);
#188=ORIENTED_EDGE('',*,*,#217,.F.);
#189=ORIENTED_EDGE('',*,*,#217,.T.);
#190=ORIENTED_EDGE('',*,*,#215,.F.);
#191=ORIENTED_EDGE('',*,*,#218,.F.);
#192=ORIENTED_EDGE('',*,*,#219,.T.);
#193=ORIENTED_EDGE('',*,*,#218,.T.);
#194=ORIENTED_EDGE('',*,*,#220,.F.);
#195=ORIENTED_EDGE('',*,*,#216,.T.);
#196=ORIENTED_EDGE('',*,*,#221,.F.);
#197=ORIENTED_EDGE('',*,*,#220,.T.);
#198=ORIENTED_EDGE('',*,*,#222,.F.);
#199=ORIENTED_EDGE('',*,*,#221,.T.);
#200=ORIENTED_EDGE('',*,*,#219,.F.);
#201=ORIENTED_EDGE('',*,*,#222,.T.);
#202=VERTEX_POINT('',#293);
#203=VERTEX_POINT('',#295);
#204=VERTEX_POINT('',#374);
#205=VERTEX_POINT('',#376);
#206=VERTEX_POINT('',#379);
#207=VERTEX_POINT('',#383);
#208=VERTEX_POINT('',#385);
#209=VERTEX_POINT('',#451);
#210=VERTEX_POINT('',#454);
#211=VERTEX_POINT('',#457);
#212=VERTEX_POINT('',#460);
#213=EDGE_CURVE('',#202,#202,#223,.T.);
#214=EDGE_CURVE('',#203,#203,#224,.T.);
#215=EDGE_CURVE('',#204,#204,#225,.T.);
#216=EDGE_CURVE('',#205,#205,#226,.T.);
#217=EDGE_CURVE('',#206,#206,#227,.T.);
#218=EDGE_CURVE('',#207,#207,#228,.T.);
#219=EDGE_CURVE('',#208,#208,#229,.T.);
#220=EDGE_CURVE('',#210,#210,#230,.T.);
#221=EDGE_CURVE('',#211,#211,#231,.T.);
#222=EDGE_CURVE('',#212,#212,#232,.T.);
#223=CIRCLE('',#234,5.);
#224=CIRCLE('',#235,5.);
#225=CIRCLE('',#236,29.);
#226=CIRCLE('',#237,29.);
#227=CIRCLE('',#239,27.);
#228=CIRCLE('',#242,24.3059191737392);
#229=CIRCLE('',#243,31.);
#230=CIRCLE('',#245,28.875);
#231=CIRCLE('',#247,30.625);
#232=CIRCLE('',#249,31.);
#233=AXIS2_PLACEMENT_3D('',#291,#252,#253);
#234=AXIS2_PLACEMENT_3D('',#292,#254,#255);
#235=AXIS2_PLACEMENT_3D('',#294,#256,#257);
#236=AXIS2_PLACEMENT_3D('',#373,#258,#259);
#237=AXIS2_PLACEMENT_3D('',#375,#260,#261);
#238=AXIS2_PLACEMENT_3D('',#377,#262,#263);
#239=AXIS2_PLACEMENT_3D('',#378,#264,#265);
#240=AXIS2_PLACEMENT_3D('',#380,#266,#267);
#241=AXIS2_PLACEMENT_3D('',#381,#268,#269);
#242=AXIS2_PLACEMENT_3D('',#382,#270,#271);
#243=AXIS2_PLACEMENT_3D('',#384,#272,#273);
#244=AXIS2_PLACEMENT_3D('',#452,#275,#276);
#245=AXIS2_PLACEMENT_3D('',#453,#277,#278);
#246=AXIS2_PLACEMENT_3D('',#455,#279,#280);
#247=AXIS2_PLACEMENT_3D('',#456,#281,#282);
#248=AXIS2_PLACEMENT_3D('',#458,#283,#284);
#249=AXIS2_PLACEMENT_3D('',#459,#285,#286);
#250=AXIS2_PLACEMENT_3D('',#461,#287,#288);
#251=AXIS2_PLACEMENT_3D('',#462,#289,#290);
#252=DIRECTION('',(0.,0.,1.));
#253=DIRECTION('',(1.,0.,0.));
#254=DIRECTION('',(0.121869343405148,0.991969408021483,0.0338312974552646));
#255=DIRECTION('',(0.992510112580906,-0.122084568426969,0.00436286335308636));
#256=DIRECTION('',(0.121869343405148,-0.0692365195668007,0.990128359101119));
#257=DIRECTION('',(0.992510112580906,0.,-0.122162500075257));
#258=DIRECTION('',(-1.,0.,0.));
#259=DIRECTION('',(0.,0.,1.));
#260=DIRECTION('',(-1.,0.,0.));
#261=DIRECTION('',(0.,0.,1.));
#262=DIRECTION('',(-1.,0.,0.));
#263=DIRECTION('',(0.,0.,1.));
#264=DIRECTION('',(-1.,0.,0.));
#265=DIRECTION('',(0.,0.,1.));
#266=DIRECTION('',(-1.,0.,0.));
#267=DIRECTION('',(0.,0.,1.));
#268=DIRECTION('',(-1.,0.,0.));
#269=DIRECTION('',(0.,0.,1.));
#270=DIRECTION('',(-1.,0.,0.));
#271=DIRECTION('',(0.,0.,1.));
#272=DIRECTION('',(-1.,0.,0.));
#273=DIRECTION('',(0.,0.,1.));
#274=DIRECTION('',(-1.,0.,0.));
#275=DIRECTION('',(-1.,0.,0.));
#276=DIRECTION('',(6.92715150145396E-19,0.,1.));
#277=DIRECTION('',(-1.,0.,0.));
#278=DIRECTION('',(0.,0.,1.));
#279=DIRECTION('',(-1.,0.,0.));
#280=DIRECTION('',(0.,0.,1.));
#281=DIRECTION('',(-1.,0.,0.));
#282=DIRECTION('',(0.,0.,1.));
#283=DIRECTION('',(-1.,0.,0.));
#284=DIRECTION('',(0.,0.,1.));
#285=DIRECTION('',(-1.,0.,0.));
#286=DIRECTION('',(0.,0.,1.));
#287=DIRECTION('',(-1.,0.,0.));
#288=DIRECTION('',(0.,0.,1.));
#289=DIRECTION('',(-1.,0.,0.));
#290=DIRECTION('',(0.,0.,1.));
#291=CARTESIAN_POINT('',(0.,0.,0.));
#292=CARTESIAN_POINT('',(4.96273075820661,0.392570884283574,28.0056524861391));
#293=CARTESIAN_POINT('',(9.92528132111114,-0.217851957851273,28.0274668029045));
#294=CARTESIAN_POINT('',(4.96273075820661,-28.0018068417328,-0.607862379048722));
#295=CARTESIAN_POINT('',(9.92528132111114,-28.0018068417328,-1.218674879425));
#296=CARTESIAN_POINT('',(9.92528132111114,-28.0018068417328,-1.218674879425));
#297=CARTESIAN_POINT('',(9.92528132111114,-26.7427702003047,-30.1478843307309));
#298=CARTESIAN_POINT('',(9.92528132111114,0.376585762270815,-40.2980008284417));
#299=CARTESIAN_POINT('',(9.92528132111114,20.3204696431199,-19.3045297364762));
#300=CARTESIAN_POINT('',(9.92528132111114,40.2643535239689,1.68894135548929));
#301=CARTESIAN_POINT('',(9.92528132111114,28.7378672967485,28.2525338835281));
#302=CARTESIAN_POINT('',(9.92528132111114,-0.217851957851276,28.0274668029045));
#303=CARTESIAN_POINT('',(10.009862384379,-18.0258041133937,-0.531495421125451));
#304=CARTESIAN_POINT('',(10.0098623843791,-17.4767058910164,-19.1543030732158));
#305=CARTESIAN_POINT('',(10.0098623843791,-0.121150609741783,-25.9289008164915));
#306=CARTESIAN_POINT('',(10.009862384379,12.8989693955067,-12.6027254929599));
#307=CARTESIAN_POINT('',(10.0098623843791,25.9190894007552,0.723449830571741));
#308=CARTESIAN_POINT('',(10.0098623843791,18.7431478994966,17.9169467778216));
#309=CARTESIAN_POINT('',(10.009862384379,0.112610097687486,18.0332864526413));
#310=CARTESIAN_POINT('',(0.0847612585699773,-18.0258041133937,0.690129579627115));
#311=CARTESIAN_POINT('',(0.0847612585699772,-18.7387903599748,-17.9326780724633));
#312=CARTESIAN_POINT('',(0.0847612585699772,-1.87660735355527,-25.868930241629));
#313=CARTESIAN_POINT('',(0.0847612585699773,12.0198603374446,-13.4509795271365));
#314=CARTESIAN_POINT('',(0.0847612585699772,25.9163280284444,-1.03302881264387));
#315=CARTESIAN_POINT('',(0.0847612585699772,19.918919996743,16.6120388022975));
#316=CARTESIAN_POINT('',(0.0847612585699773,1.33345578195718,17.9896578191105));
#317=CARTESIAN_POINT('',(0.000180195302078127,-28.0018068417328,0.00295012132756068));
#318=CARTESIAN_POINT('',(0.000180195302078127,-28.004854669263,-28.9262593299783));
#319=CARTESIAN_POINT('',(0.000180195302078127,-1.37887098154268,-40.2380302535793));
#320=CARTESIAN_POINT('',(0.000180195302078127,19.4413605850578,-20.1527837706528));
#321=CARTESIAN_POINT('',(0.000180195302078127,40.2615921516582,-0.0675372877263248));
#322=CARTESIAN_POINT('',(0.000180195302078127,29.9136393939949,26.9476259080041));
#323=CARTESIAN_POINT('',(0.000180195302078127,1.00299372641842,27.9838381693736));
#324=CARTESIAN_POINT('',(-0.0844008679658209,-37.9778095700718,-0.684229336971994));
#325=CARTESIAN_POINT('',(-0.084400867965821,-37.2709189785514,-39.9198405874933));
#326=CARTESIAN_POINT('',(-0.084400867965821,-0.881134609530082,-54.6071302655296));
#327=CARTESIAN_POINT('',(-0.0844008679658209,26.862860832671,-26.8545880141692));
#328=CARTESIAN_POINT('',(-0.084400867965821,54.6068562748721,0.897954237191227));
#329=CARTESIAN_POINT('',(-0.084400867965821,39.908358791247,37.2832130137107));
#330=CARTESIAN_POINT('',(-0.0844008679658209,0.672531670879657,37.9780185196367));
#331=CARTESIAN_POINT('',(9.84070025784323,-37.9778095700718,-1.90585433772456));
#332=CARTESIAN_POINT('',(9.84070025784326,-36.0088345095931,-41.1414655882459));
#333=CARTESIAN_POINT('',(9.84070025784326,0.874322134283412,-54.6671008403919));
#334=CARTESIAN_POINT('',(9.84070025784323,27.7419698907331,-26.0063339799926));
#335=CARTESIAN_POINT('',(9.84070025784326,54.6096176471827,2.65443288040683));
#336=CARTESIAN_POINT('',(9.84070025784326,38.7325866940005,38.5881209892347));
#337=CARTESIAN_POINT('',(9.84070025784323,-0.548314013390037,38.0216471531676));
#338=CARTESIAN_POINT('',(9.92528132111114,-28.0018068417328,-1.218674879425));
#339=CARTESIAN_POINT('',(9.92528132111114,-26.7427702003047,-30.1478843307309));
#340=CARTESIAN_POINT('',(9.92528132111114,0.376585762270815,-40.2980008284417));
#341=CARTESIAN_POINT('',(9.92528132111114,20.3204696431199,-19.3045297364762));
#342=CARTESIAN_POINT('',(9.92528132111114,40.2643535239689,1.68894135548929));
#343=CARTESIAN_POINT('',(9.92528132111114,28.7378672967485,28.2525338835281));
#344=CARTESIAN_POINT('',(9.92528132111114,-0.217851957851276,28.0274668029045));
#345=CARTESIAN_POINT('',(9.92528132111114,-0.217851957851273,28.0274668029045));
#346=CARTESIAN_POINT('',(9.92528132111114,-17.1048131467177,27.8962077924836));
#347=CARTESIAN_POINT('',(9.92528132111114,-28.7360763900804,15.6528258052345));
#348=CARTESIAN_POINT('',(9.92528132111114,-28.0018068417328,-1.218674879425));
#349=CARTESIAN_POINT('',(10.009862384379,0.112610097687485,18.0332864526413));
#350=CARTESIAN_POINT('',(10.009862384379,-10.7527103600967,18.1011356936197));
#351=CARTESIAN_POINT('',(10.009862384379,-18.3460379258792,10.3293168171551));
#352=CARTESIAN_POINT('',(10.009862384379,-18.0258041133937,-0.53149542112545));
#353=CARTESIAN_POINT('',(0.0847612585699773,1.33345578195718,17.9896578191105));
#354=CARTESIAN_POINT('',(0.0847612585699773,-9.50557778210448,18.7930845503));
#355=CARTESIAN_POINT('',(0.0847612585699773,-17.6099908860191,11.5509418179077));
#356=CARTESIAN_POINT('',(0.0847612585699773,-18.0258041133937,0.690129579627115));
#357=CARTESIAN_POINT('',(0.000180195302078127,1.00299372641842,27.9838381693736));
#358=CARTESIAN_POINT('',(0.000180195302078128,-15.8576805687255,28.5881566491639));
#359=CARTESIAN_POINT('',(0.000180195302078128,-28.0000293502202,16.874450805987));
#360=CARTESIAN_POINT('',(0.000180195302078127,-28.0018068417328,0.00295012132756089));
#361=CARTESIAN_POINT('',(-0.0844008679658209,0.672531670879663,37.9780185196367));
#362=CARTESIAN_POINT('',(-0.0844008679658211,-22.2097833553464,38.3832287480278));
#363=CARTESIAN_POINT('',(-0.0844008679658211,-38.3900678144213,22.1979597940664));
#364=CARTESIAN_POINT('',(-0.0844008679658209,-37.9778095700718,-0.684229336971994));
#365=CARTESIAN_POINT('',(9.84070025784323,-0.548314013390031,38.0216471531676));
#366=CARTESIAN_POINT('',(9.84070025784325,-23.4569159333387,37.6912798913475));
#367=CARTESIAN_POINT('',(9.84070025784325,-39.1261148542814,20.9763347933138));
#368=CARTESIAN_POINT('',(9.84070025784323,-37.9778095700718,-1.90585433772456));
#369=CARTESIAN_POINT('',(9.92528132111114,-0.217851957851273,28.0274668029045));
#370=CARTESIAN_POINT('',(9.92528132111114,-17.1048131467177,27.8962077924836));
#371=CARTESIAN_POINT('',(9.92528132111114,-28.7360763900804,15.6528258052345));
#372=CARTESIAN_POINT('',(9.92528132111114,-28.0018068417328,-1.218674879425));
#373=CARTESIAN_POINT('',(48.,0.,0.));
#374=CARTESIAN_POINT('',(48.,0.,29.));
#375=CARTESIAN_POINT('',(40.5815705543975,0.,0.));
#376=CARTESIAN_POINT('',(40.5815705543975,0.,29.));
#377=CARTESIAN_POINT('',(0.,0.,0.));
#378=CARTESIAN_POINT('',(50.,0.,0.));
#379=CARTESIAN_POINT('',(50.,0.,27.));
#380=CARTESIAN_POINT('',(50.,14.5,0.));
#381=CARTESIAN_POINT('',(48.,0.,0.));
#382=CARTESIAN_POINT('',(3.,0.,0.));
#383=CARTESIAN_POINT('',(3.,0.,24.3059191737392));
#384=CARTESIAN_POINT('',(7.32686630052721,0.,0.));
#385=CARTESIAN_POINT('',(7.32686630052721,0.,31.));
#386=CARTESIAN_POINT('',(0.555329674059416,28.2385910623232,0.));
#387=CARTESIAN_POINT('',(0.562090116687277,27.440258636786,0.));
#388=CARTESIAN_POINT('',(0.672389522026016,26.9123335717891,0.));
#389=CARTESIAN_POINT('',(0.979235986845223,26.1870711623002,0.));
#390=CARTESIAN_POINT('',(1.10677397471992,25.9525007633362,0.));
#391=CARTESIAN_POINT('',(1.40420918151041,25.515577977161,0.));
#392=CARTESIAN_POINT('',(1.57263581871102,25.314245887004,0.));
#393=CARTESIAN_POINT('',(1.94868784288975,24.9456497014009,0.));
#394=CARTESIAN_POINT('',(2.1580641089669,24.777882886732,0.));
#395=CARTESIAN_POINT('',(2.59900783272816,24.4917475839005,0.));
#396=CARTESIAN_POINT('',(2.83232980946911,24.3712034647584,0.));
#397=CARTESIAN_POINT('',(3.32536011046618,24.1763649103332,0.));
#398=CARTESIAN_POINT('',(3.58085833043784,24.104180982698,0.));
#399=CARTESIAN_POINT('',(4.09734501282468,24.0119834483818,0.));
#400=CARTESIAN_POINT('',(4.36233334398523,23.9913059146823,0.));
#401=CARTESIAN_POINT('',(4.89199628367228,24.0031113766365,0.));
#402=CARTESIAN_POINT('',(5.15255137751809,24.0350395092117,0.));
#403=CARTESIAN_POINT('',(5.66537937981326,24.1492999486372,0.));
#404=CARTESIAN_POINT('',(5.92014872628784,24.233053024881,0.));
#405=CARTESIAN_POINT('',(6.40191396760935,24.4457314295129,0.));
#406=CARTESIAN_POINT('',(6.63047605769135,24.574433637789,0.));
#407=CARTESIAN_POINT('',(7.06297658188591,24.8765324740895,0.));
#408=CARTESIAN_POINT('',(7.2663809331326,25.0504526338965,0.));
#409=CARTESIAN_POINT('',(7.63073836411974,25.4285165600708,0.));
#410=CARTESIAN_POINT('',(7.79423237484516,25.6342373041781,0.));
#411=CARTESIAN_POINT('',(8.08259035515223,26.0801823237809,0.));
#412=CARTESIAN_POINT('',(8.20378779033218,26.3151283419103,0.));
#413=CARTESIAN_POINT('',(8.39874964847186,26.8023957404846,0.));
#414=CARTESIAN_POINT('',(8.47350927118796,27.0580711790127,0.));
#415=CARTESIAN_POINT('',(8.57156886724974,27.5780477675895,0.));
#416=CARTESIAN_POINT('',(8.59488349540878,27.8395507175681,0.));
#417=CARTESIAN_POINT('',(8.59073501717785,28.3655474896429,0.));
#418=CARTESIAN_POINT('',(8.56241166943532,28.632324209817,0.));
#419=CARTESIAN_POINT('',(8.45568130825481,29.1475881635755,0.));
#420=CARTESIAN_POINT('',(8.37768890600281,29.3982514804764,0.));
#421=CARTESIAN_POINT('',(8.17142118641497,29.8853497720496,0.));
#422=CARTESIAN_POINT('',(8.04355827458875,30.1193115565951,0.));
#423=CARTESIAN_POINT('',(7.74779108305305,30.552916971319,0.));
#424=CARTESIAN_POINT('',(7.57794512763576,30.7559627200806,0.));
#425=CARTESIAN_POINT('',(7.19821460400556,31.126933372523,0.));
#426=CARTESIAN_POINT('',(6.99285984404743,31.2908206578173,0.));
#427=CARTESIAN_POINT('',(6.55209901862841,31.5766926877191,0.));
#428=CARTESIAN_POINT('',(6.31380709680434,31.6995512155515,0.));
#429=CARTESIAN_POINT('',(5.82368060125234,31.8931292636287,0.));
#430=CARTESIAN_POINT('',(5.57134062527589,31.9649452678288,0.));
#431=CARTESIAN_POINT('',(5.05208264673778,32.058546914082,0.));
#432=CARTESIAN_POINT('',(4.78521890359191,32.0795435435478,0.));
#433=CARTESIAN_POINT('',(4.26033022053531,32.0690325360514,0.));
#434=CARTESIAN_POINT('',(3.999319631314,32.0382323333072,0.));
#435=CARTESIAN_POINT('',(3.48026242685898,31.9238237663418,0.));
#436=CARTESIAN_POINT('',(3.22949216244708,31.8416685897886,0.));
#437=CARTESIAN_POINT('',(2.74896823964098,31.630940402442,0.));
#438=CARTESIAN_POINT('',(2.51633484536977,31.5006154089566,0.));
#439=CARTESIAN_POINT('',(2.08261881550891,31.1980449051383,0.));
#440=CARTESIAN_POINT('',(1.88308825616668,31.0275999708313,0.));
#441=CARTESIAN_POINT('',(1.51797701702584,30.6491703199803,0.));
#442=CARTESIAN_POINT('',(1.35137969506714,30.4389230751213,0.));
#443=CARTESIAN_POINT('',(1.0662019502872,29.9967428241212,0.));
#444=CARTESIAN_POINT('',(0.945834088023847,29.7635821944566,0.));
#445=CARTESIAN_POINT('',(0.750048780395745,29.2728437645629,0.));
#446=CARTESIAN_POINT('',(0.675753629754338,29.0163496895509,0.));
#447=CARTESIAN_POINT('',(0.578965743915571,28.5005138855,0.));
#448=CARTESIAN_POINT('',(0.555329674059416,28.2385910623232,0.));
#449=CARTESIAN_POINT('',(0.562090116687277,27.440258636786,0.));
#450=CARTESIAN_POINT('',(0.,0.,0.));
#451=CARTESIAN_POINT('',(9.51275141389948,0.,0.));
#452=CARTESIAN_POINT('',(3.,0.,0.));
#453=CARTESIAN_POINT('',(39.470546252233,0.,0.));
#454=CARTESIAN_POINT('',(39.470546252233,0.,28.875));
#455=CARTESIAN_POINT('',(40.5815705543975,0.,0.));
#456=CARTESIAN_POINT('',(18.3945275027076,0.,0.));
#457=CARTESIAN_POINT('',(18.3945275027076,0.,30.625));
#458=CARTESIAN_POINT('',(31.6933761370819,0.,0.));
#459=CARTESIAN_POINT('',(16.4946919835112,0.,0.));
#460=CARTESIAN_POINT('',(16.4946919835112,0.,31.));
#461=CARTESIAN_POINT('',(16.4946919835112,0.,0.));
#462=CARTESIAN_POINT('',(0.,0.,0.));
#463=(
GEOMETRIC_REPRESENTATION_CONTEXT(3)
GLOBAL_UNCERTAINTY_ASSIGNED_CONTEXT((#464))
GLOBAL_UNIT_ASSIGNED_CONTEXT((#470,#466,#465))
REPRESENTATION_CONTEXT('model1','TOP_LEVEL_ASSEMBLY_PART')
);
#464=UNCERTAINTY_MEASURE_WITH_UNIT(LENGTH_MEASURE(2.E-5),#470,
'DISTANCE_ACCURACY_VALUE','Maximum Tolerance applied to model');
#465=(
NAMED_UNIT(*)
SI_UNIT($,.STERADIAN.)
SOLID_ANGLE_UNIT()
);
#466=(
CONVERSION_BASED_UNIT('DEGREE',#468)
NAMED_UNIT(#467)
PLANE_ANGLE_UNIT()
);
#467=DIMENSIONAL_EXPONENTS(0.,0.,0.,0.,0.,0.,0.);
#468=PLANE_ANGLE_MEASURE_WITH_UNIT(PLANE_ANGLE_MEASURE(0.0174532925),#469);
#469=(
NAMED_UNIT(*)
PLANE_ANGLE_UNIT()
SI_UNIT($,.RADIAN.)
);
#470=(
LENGTH_UNIT()
NAMED_UNIT(*)
SI_UNIT(.MILLI.,.METRE.)
);
ENDSEC;
END-ISO-10303-21;
