ISO-10303-21;
HEADER;
/* Generated by software containing ST-Developer
 * from STEP Tools, Inc. (www.steptools.com) 
 */
/* OPTION: using custom schema-name function */

FILE_DESCRIPTION(
/* description */ (''),
/* implementation_level */ '2;1');

FILE_NAME(
/* name */ 'model1.stp',
/* time_stamp */ '2023-11-02T16:09:03+03:00',
/* author */ (''),
/* organization */ (''),
/* preprocessor_version */ 'ST-DEVELOPER v19.4',
/* originating_system */ 'SIEMENS PLM Software NX2306.3001',
/* authorisation */ '');

FILE_SCHEMA (('AUTOMOTIVE_DESIGN { 1 0 10303 214 3 1 1 1 }'));
ENDSEC;

DATA;
#10=PROPERTY_DEFINITION_REPRESENTATION(#14,#12);
#11=PROPERTY_DEFINITION_REPRESENTATION(#15,#13);
#12=REPRESENTATION('',(#16),#492);
#13=REPRESENTATION('',(#17),#492);
#14=PROPERTY_DEFINITION('pmi validation property','',#21);
#15=PROPERTY_DEFINITION('pmi validation property','',#21);
#16=VALUE_REPRESENTATION_ITEM('number of annotations',COUNT_MEASURE(0.));
#17=VALUE_REPRESENTATION_ITEM('number of views',COUNT_MEASURE(0.));
#18=SHAPE_REPRESENTATION_RELATIONSHIP('None',
'relationship between model1_objects-None and model1_objects-None',#30,
#19);
#19=ADVANCED_BREP_SHAPE_REPRESENTATION('model1_objects-None',(#133,#134),
#492);
#20=SHAPE_DEFINITION_REPRESENTATION(#21,#30);
#21=PRODUCT_DEFINITION_SHAPE('','',#22);
#22=PRODUCT_DEFINITION(' ','',#24,#23);
#23=PRODUCT_DEFINITION_CONTEXT('part definition',#29,'design');
#24=PRODUCT_DEFINITION_FORMATION_WITH_SPECIFIED_SOURCE(' ',' ',#26,
 .NOT_KNOWN.);
#25=PRODUCT_RELATED_PRODUCT_CATEGORY('part','',(#26));
#26=PRODUCT('model1_objects','model1_objects',' ',(#27));
#27=PRODUCT_CONTEXT(' ',#29,'mechanical');
#28=APPLICATION_PROTOCOL_DEFINITION('international standard',
'automotive_design',2010,#29);
#29=APPLICATION_CONTEXT(
'core data for automotive mechanical design processes');
#30=SHAPE_REPRESENTATION('model1_objects-None',(#251),#492);
#31=OVER_RIDING_STYLED_ITEM('',(#62),#139,#59);
#32=OVER_RIDING_STYLED_ITEM('',(#63),#140,#59);
#33=OVER_RIDING_STYLED_ITEM('',(#64),#141,#59);
#34=OVER_RIDING_STYLED_ITEM('',(#65),#142,#59);
#35=OVER_RIDING_STYLED_ITEM('',(#66),#143,#59);
#36=OVER_RIDING_STYLED_ITEM('',(#67),#144,#59);
#37=OVER_RIDING_STYLED_ITEM('',(#68),#145,#59);
#38=OVER_RIDING_STYLED_ITEM('',(#69),#146,#59);
#39=OVER_RIDING_STYLED_ITEM('',(#70),#147,#59);
#40=OVER_RIDING_STYLED_ITEM('',(#71),#148,#59);
#41=COLOUR_RGB('Medium Steel',0.611764705882353,0.658823529411765,0.670588235294118);
#42=COLOUR_RGB('silver gray',0.6,0.6,0.6);
#43=VERTEX_LOOP('',#228);
#44=SURFACE_OF_REVOLUTION('',#46,#45);
#45=AXIS1_PLACEMENT('',#489,#312);
#46=B_SPLINE_CURVE_WITH_KNOTS('',3,(#423,#424,#425,#426,#427,#428,#429,
#430,#431,#432,#433,#434,#435,#436,#437,#438,#439,#440,#441,#442,#443,#444,
#445,#446,#447,#448,#449,#450,#451,#452,#453,#454,#455,#456,#457,#458,#459,
#460,#461,#462,#463,#464,#465,#466,#467,#468,#469,#470,#471,#472,#473,#474,
#475,#476,#477,#478,#479,#480,#481,#482,#483,#484,#485,#486,#487,#488),
 .UNSPECIFIED.,.T.,.F.,(2,2,2,2,2,2,2,2,2,2,2,2,2,2,2,2,2,2,2,2,2,2,2,2,
2,2,2,2,2,2,2,2,2,2,2),(-0.03125,0.,0.03125,0.0625,0.09375,0.125,0.15625,
0.1875,0.21875,0.25,0.28125,0.3125,0.34375,0.375,0.40625,0.4375,0.46875,
0.5,0.53125,0.5625,0.59375,0.625,0.65625,0.6875,0.71875,0.75,0.78125,0.8125,
0.84375,0.875,0.90625,0.9375,0.96875,1.,1.03125),.UNSPECIFIED.);
#47=CONICAL_SURFACE('',#261,29.,30.0000000000005);
#48=CONICAL_SURFACE('',#271,31.327672470914,80.0000000000564);
#49=CYLINDRICAL_SURFACE('',#259,29.);
#50=CYLINDRICAL_SURFACE('',#263,28.8);
#51=CYLINDRICAL_SURFACE('',#269,38.);
#52=TOROIDAL_SURFACE('',#257,27.,2.);
#53=TOROIDAL_SURFACE('',#265,58.8,30.);
#54=TOROIDAL_SURFACE('',#267,34.,4.);
#55=PLANE('',#255);
#56=FACE_OUTER_BOUND('',#177,.T.);
#57=PRESENTATION_LAYER_ASSIGNMENT('1','Layer 1',(#133,#134));
#58=STYLED_ITEM('',(#60),#133);
#59=STYLED_ITEM('',(#61),#134);
#60=PRESENTATION_STYLE_ASSIGNMENT((#72));
#61=PRESENTATION_STYLE_ASSIGNMENT((#73));
#62=PRESENTATION_STYLE_ASSIGNMENT((#74));
#63=PRESENTATION_STYLE_ASSIGNMENT((#75));
#64=PRESENTATION_STYLE_ASSIGNMENT((#76));
#65=PRESENTATION_STYLE_ASSIGNMENT((#77));
#66=PRESENTATION_STYLE_ASSIGNMENT((#78));
#67=PRESENTATION_STYLE_ASSIGNMENT((#79));
#68=PRESENTATION_STYLE_ASSIGNMENT((#80));
#69=PRESENTATION_STYLE_ASSIGNMENT((#81));
#70=PRESENTATION_STYLE_ASSIGNMENT((#82));
#71=PRESENTATION_STYLE_ASSIGNMENT((#83));
#72=SURFACE_STYLE_USAGE(.BOTH.,#84);
#73=SURFACE_STYLE_USAGE(.BOTH.,#85);
#74=SURFACE_STYLE_USAGE(.BOTH.,#86);
#75=SURFACE_STYLE_USAGE(.BOTH.,#87);
#76=SURFACE_STYLE_USAGE(.BOTH.,#88);
#77=SURFACE_STYLE_USAGE(.BOTH.,#89);
#78=SURFACE_STYLE_USAGE(.BOTH.,#90);
#79=SURFACE_STYLE_USAGE(.BOTH.,#91);
#80=SURFACE_STYLE_USAGE(.BOTH.,#92);
#81=SURFACE_STYLE_USAGE(.BOTH.,#93);
#82=SURFACE_STYLE_USAGE(.BOTH.,#94);
#83=SURFACE_STYLE_USAGE(.BOTH.,#95);
#84=SURFACE_SIDE_STYLE('',(#96));
#85=SURFACE_SIDE_STYLE('',(#97));
#86=SURFACE_SIDE_STYLE('',(#98));
#87=SURFACE_SIDE_STYLE('',(#99));
#88=SURFACE_SIDE_STYLE('',(#100));
#89=SURFACE_SIDE_STYLE('',(#101));
#90=SURFACE_SIDE_STYLE('',(#102));
#91=SURFACE_SIDE_STYLE('',(#103));
#92=SURFACE_SIDE_STYLE('',(#104));
#93=SURFACE_SIDE_STYLE('',(#105));
#94=SURFACE_SIDE_STYLE('',(#106));
#95=SURFACE_SIDE_STYLE('',(#107));
#96=SURFACE_STYLE_FILL_AREA(#108);
#97=SURFACE_STYLE_FILL_AREA(#109);
#98=SURFACE_STYLE_FILL_AREA(#110);
#99=SURFACE_STYLE_FILL_AREA(#111);
#100=SURFACE_STYLE_FILL_AREA(#112);
#101=SURFACE_STYLE_FILL_AREA(#113);
#102=SURFACE_STYLE_FILL_AREA(#114);
#103=SURFACE_STYLE_FILL_AREA(#115);
#104=SURFACE_STYLE_FILL_AREA(#116);
#105=SURFACE_STYLE_FILL_AREA(#117);
#106=SURFACE_STYLE_FILL_AREA(#118);
#107=SURFACE_STYLE_FILL_AREA(#119);
#108=FILL_AREA_STYLE('',(#120));
#109=FILL_AREA_STYLE('',(#121));
#110=FILL_AREA_STYLE('',(#122));
#111=FILL_AREA_STYLE('',(#123));
#112=FILL_AREA_STYLE('',(#124));
#113=FILL_AREA_STYLE('',(#125));
#114=FILL_AREA_STYLE('',(#126));
#115=FILL_AREA_STYLE('',(#127));
#116=FILL_AREA_STYLE('',(#128));
#117=FILL_AREA_STYLE('',(#129));
#118=FILL_AREA_STYLE('',(#130));
#119=FILL_AREA_STYLE('',(#131));
#120=FILL_AREA_STYLE_COLOUR('',#132);
#121=FILL_AREA_STYLE_COLOUR('',#41);
#122=FILL_AREA_STYLE_COLOUR('',#42);
#123=FILL_AREA_STYLE_COLOUR('',#42);
#124=FILL_AREA_STYLE_COLOUR('',#42);
#125=FILL_AREA_STYLE_COLOUR('',#42);
#126=FILL_AREA_STYLE_COLOUR('',#42);
#127=FILL_AREA_STYLE_COLOUR('',#42);
#128=FILL_AREA_STYLE_COLOUR('',#42);
#129=FILL_AREA_STYLE_COLOUR('',#42);
#130=FILL_AREA_STYLE_COLOUR('',#42);
#131=FILL_AREA_STYLE_COLOUR('',#42);
#132=DRAUGHTING_PRE_DEFINED_COLOUR('yellow');
#133=MANIFOLD_SOLID_BREP('',#135);
#134=MANIFOLD_SOLID_BREP('',#136);
#135=CLOSED_SHELL('',(#137,#138));
#136=CLOSED_SHELL('',(#139,#140,#141,#142,#143,#144,#145,#146,#147,#148));
#137=ADVANCED_FACE('',(#151,#152),#149,.F.);
#138=ADVANCED_FACE('',(#153,#154),#150,.F.);
#139=ADVANCED_FACE('',(#56),#55,.F.);
#140=ADVANCED_FACE('',(#155,#156),#52,.T.);
#141=ADVANCED_FACE('',(#157,#158),#49,.T.);
#142=ADVANCED_FACE('',(#159,#160),#47,.T.);
#143=ADVANCED_FACE('',(#161,#162),#50,.T.);
#144=ADVANCED_FACE('',(#163,#164),#53,.F.);
#145=ADVANCED_FACE('',(#165,#166),#54,.T.);
#146=ADVANCED_FACE('',(#167,#168),#51,.T.);
#147=ADVANCED_FACE('',(#169,#170),#44,.T.);
#148=ADVANCED_FACE('',(#171,#172),#48,.F.);
#149=(
BOUNDED_SURFACE()
B_SPLINE_SURFACE(3,3,((#320,#321,#322,#323,#324,#325,#326),(#327,#328,#329,
#330,#331,#332,#333),(#334,#335,#336,#337,#338,#339,#340),(#341,#342,#343,
#344,#345,#346,#347),(#348,#349,#350,#351,#352,#353,#354),(#355,#356,#357,
#358,#359,#360,#361),(#362,#363,#364,#365,#366,#367,#368)),
 .UNSPECIFIED.,.T.,.F.,.F.)
B_SPLINE_SURFACE_WITH_KNOTS((1,3,3,3,1),(4,3,4),(-0.5,0.,0.5,1.,1.5),(0.,
0.5,1.),.UNSPECIFIED.)
GEOMETRIC_REPRESENTATION_ITEM()
RATIONAL_B_SPLINE_SURFACE(((1.,0.591800234122339,0.591800234122339,1.,0.591800234122339,
0.591800234122339,1.),(0.333333333333334,0.197266744707446,0.197266744707446,
0.333333333333334,0.197266744707446,0.197266744707446,0.333333333333334),
(0.333333333333334,0.197266744707446,0.197266744707446,0.333333333333334,
0.197266744707446,0.197266744707446,0.333333333333334),(1.,0.591800234122339,
0.591800234122339,1.,0.591800234122339,0.591800234122339,1.),(0.333333333333334,
0.197266744707446,0.197266744707446,0.333333333333334,0.197266744707446,
0.197266744707446,0.333333333333334),(0.333333333333334,0.197266744707446,
0.197266744707446,0.333333333333334,0.197266744707446,0.197266744707446,
0.333333333333334),(1.,0.591800234122339,0.591800234122339,1.,0.591800234122339,
0.591800234122339,1.)))
REPRESENTATION_ITEM('')
SURFACE()
);
#150=(
BOUNDED_SURFACE()
B_SPLINE_SURFACE(3,3,((#369,#370,#371,#372),(#373,#374,#375,#376),(#377,
#378,#379,#380),(#381,#382,#383,#384),(#385,#386,#387,#388),(#389,#390,
#391,#392),(#393,#394,#395,#396)),.UNSPECIFIED.,.T.,.F.,.F.)
B_SPLINE_SURFACE_WITH_KNOTS((1,3,3,3,1),(4,4),(-0.5,0.,0.5,1.,1.5),(0.,
1.),.UNSPECIFIED.)
GEOMETRIC_REPRESENTATION_ITEM()
RATIONAL_B_SPLINE_SURFACE(((1.,0.799584583589579,0.799584583589579,1.),
(0.333333333333334,0.266528194529859,0.266528194529859,0.333333333333334),
(0.333333333333334,0.266528194529859,0.266528194529859,0.333333333333334),
(1.,0.799584583589579,0.799584583589579,1.),(0.333333333333334,0.266528194529859,
0.266528194529859,0.333333333333334),(0.333333333333334,0.266528194529859,
0.266528194529859,0.333333333333334),(1.,0.799584583589579,0.799584583589579,
1.)))
REPRESENTATION_ITEM('')
SURFACE()
);
#151=FACE_BOUND('',#173,.T.);
#152=FACE_BOUND('',#174,.T.);
#153=FACE_BOUND('',#175,.T.);
#154=FACE_BOUND('',#176,.T.);
#155=FACE_BOUND('',#178,.T.);
#156=FACE_BOUND('',#179,.T.);
#157=FACE_BOUND('',#180,.T.);
#158=FACE_BOUND('',#181,.T.);
#159=FACE_BOUND('',#182,.T.);
#160=FACE_BOUND('',#183,.T.);
#161=FACE_BOUND('',#184,.T.);
#162=FACE_BOUND('',#185,.T.);
#163=FACE_BOUND('',#186,.T.);
#164=FACE_BOUND('',#187,.T.);
#165=FACE_BOUND('',#188,.T.);
#166=FACE_BOUND('',#189,.T.);
#167=FACE_BOUND('',#190,.T.);
#168=FACE_BOUND('',#191,.T.);
#169=FACE_BOUND('',#192,.T.);
#170=FACE_BOUND('',#193,.T.);
#171=FACE_BOUND('',#194,.T.);
#172=FACE_BOUND('',#43,.T.);
#173=EDGE_LOOP('',(#195));
#174=EDGE_LOOP('',(#196));
#175=EDGE_LOOP('',(#197));
#176=EDGE_LOOP('',(#198));
#177=EDGE_LOOP('',(#199));
#178=EDGE_LOOP('',(#200));
#179=EDGE_LOOP('',(#201));
#180=EDGE_LOOP('',(#202));
#181=EDGE_LOOP('',(#203));
#182=EDGE_LOOP('',(#204));
#183=EDGE_LOOP('',(#205));
#184=EDGE_LOOP('',(#206));
#185=EDGE_LOOP('',(#207));
#186=EDGE_LOOP('',(#208));
#187=EDGE_LOOP('',(#209));
#188=EDGE_LOOP('',(#210));
#189=EDGE_LOOP('',(#211));
#190=EDGE_LOOP('',(#212));
#191=EDGE_LOOP('',(#213));
#192=EDGE_LOOP('',(#214));
#193=EDGE_LOOP('',(#215));
#194=EDGE_LOOP('',(#216));
#195=ORIENTED_EDGE('',*,*,#229,.T.);
#196=ORIENTED_EDGE('',*,*,#230,.F.);
#197=ORIENTED_EDGE('',*,*,#230,.T.);
#198=ORIENTED_EDGE('',*,*,#229,.F.);
#199=ORIENTED_EDGE('',*,*,#231,.F.);
#200=ORIENTED_EDGE('',*,*,#232,.F.);
#201=ORIENTED_EDGE('',*,*,#231,.T.);
#202=ORIENTED_EDGE('',*,*,#232,.T.);
#203=ORIENTED_EDGE('',*,*,#233,.F.);
#204=ORIENTED_EDGE('',*,*,#234,.F.);
#205=ORIENTED_EDGE('',*,*,#233,.T.);
#206=ORIENTED_EDGE('',*,*,#235,.F.);
#207=ORIENTED_EDGE('',*,*,#234,.T.);
#208=ORIENTED_EDGE('',*,*,#236,.F.);
#209=ORIENTED_EDGE('',*,*,#235,.T.);
#210=ORIENTED_EDGE('',*,*,#237,.F.);
#211=ORIENTED_EDGE('',*,*,#236,.T.);
#212=ORIENTED_EDGE('',*,*,#238,.F.);
#213=ORIENTED_EDGE('',*,*,#237,.T.);
#214=ORIENTED_EDGE('',*,*,#239,.F.);
#215=ORIENTED_EDGE('',*,*,#238,.T.);
#216=ORIENTED_EDGE('',*,*,#239,.T.);
#217=VERTEX_POINT('',#317);
#218=VERTEX_POINT('',#319);
#219=VERTEX_POINT('',#398);
#220=VERTEX_POINT('',#401);
#221=VERTEX_POINT('',#404);
#222=VERTEX_POINT('',#407);
#223=VERTEX_POINT('',#410);
#224=VERTEX_POINT('',#413);
#225=VERTEX_POINT('',#416);
#226=VERTEX_POINT('',#419);
#227=VERTEX_POINT('',#422);
#228=VERTEX_POINT('',#490);
#229=EDGE_CURVE('',#217,#217,#240,.T.);
#230=EDGE_CURVE('',#218,#218,#241,.T.);
#231=EDGE_CURVE('',#219,#219,#242,.T.);
#232=EDGE_CURVE('',#220,#220,#243,.T.);
#233=EDGE_CURVE('',#221,#221,#244,.T.);
#234=EDGE_CURVE('',#222,#222,#245,.T.);
#235=EDGE_CURVE('',#223,#223,#246,.T.);
#236=EDGE_CURVE('',#224,#224,#247,.T.);
#237=EDGE_CURVE('',#225,#225,#248,.T.);
#238=EDGE_CURVE('',#226,#226,#249,.T.);
#239=EDGE_CURVE('',#227,#227,#250,.T.);
#240=CIRCLE('',#252,5.);
#241=CIRCLE('',#253,5.);
#242=CIRCLE('',#254,27.);
#243=CIRCLE('',#256,29.);
#244=CIRCLE('',#258,29.);
#245=CIRCLE('',#260,28.8);
#246=CIRCLE('',#262,28.8);
#247=CIRCLE('',#264,36.9176470588235);
#248=CIRCLE('',#266,38.);
#249=CIRCLE('',#268,38.);
#250=CIRCLE('',#270,31.327672470914);
#251=AXIS2_PLACEMENT_3D('',#315,#272,#273);
#252=AXIS2_PLACEMENT_3D('',#316,#274,#275);
#253=AXIS2_PLACEMENT_3D('',#318,#276,#277);
#254=AXIS2_PLACEMENT_3D('',#397,#278,#279);
#255=AXIS2_PLACEMENT_3D('',#399,#280,#281);
#256=AXIS2_PLACEMENT_3D('',#400,#282,#283);
#257=AXIS2_PLACEMENT_3D('',#402,#284,#285);
#258=AXIS2_PLACEMENT_3D('',#403,#286,#287);
#259=AXIS2_PLACEMENT_3D('',#405,#288,#289);
#260=AXIS2_PLACEMENT_3D('',#406,#290,#291);
#261=AXIS2_PLACEMENT_3D('',#408,#292,#293);
#262=AXIS2_PLACEMENT_3D('',#409,#294,#295);
#263=AXIS2_PLACEMENT_3D('',#411,#296,#297);
#264=AXIS2_PLACEMENT_3D('',#412,#298,#299);
#265=AXIS2_PLACEMENT_3D('',#414,#300,#301);
#266=AXIS2_PLACEMENT_3D('',#415,#302,#303);
#267=AXIS2_PLACEMENT_3D('',#417,#304,#305);
#268=AXIS2_PLACEMENT_3D('',#418,#306,#307);
#269=AXIS2_PLACEMENT_3D('',#420,#308,#309);
#270=AXIS2_PLACEMENT_3D('',#421,#310,#311);
#271=AXIS2_PLACEMENT_3D('',#491,#313,#314);
#272=DIRECTION('',(0.,0.,1.));
#273=DIRECTION('',(1.,0.,0.));
#274=DIRECTION('',(0.0871557427476584,0.995490759133643,0.0374436240984686));
#275=DIRECTION('',(0.996181343504645,-0.0872876097942207,0.00189842821612385));
#276=DIRECTION('',(0.0871557427476584,-0.0590806949194215,0.994441224001671));
#277=DIRECTION('',(0.996181343504645,0.,-0.087308251919735));
#278=DIRECTION('',(-1.,0.,0.));
#279=DIRECTION('',(0.,0.,1.));
#280=DIRECTION('',(-1.,0.,0.));
#281=DIRECTION('',(0.,0.,1.));
#282=DIRECTION('',(-1.,0.,0.));
#283=DIRECTION('',(0.,0.,1.));
#284=DIRECTION('',(-1.,0.,0.));
#285=DIRECTION('',(0.,0.,1.));
#286=DIRECTION('',(-1.,0.,0.));
#287=DIRECTION('',(0.,0.,1.));
#288=DIRECTION('',(-1.,0.,0.));
#289=DIRECTION('',(0.,0.,1.));
#290=DIRECTION('',(-1.,0.,0.));
#291=DIRECTION('',(0.,0.,1.));
#292=DIRECTION('',(1.,0.,0.));
#293=DIRECTION('',(5.72185274460319E-17,0.,-1.));
#294=DIRECTION('',(-1.,0.,0.));
#295=DIRECTION('',(0.,0.,1.));
#296=DIRECTION('',(-1.,0.,0.));
#297=DIRECTION('',(0.,0.,1.));
#298=DIRECTION('',(-1.,0.,0.));
#299=DIRECTION('',(0.,0.,1.));
#300=DIRECTION('',(-1.,0.,0.));
#301=DIRECTION('',(0.,0.,1.));
#302=DIRECTION('',(-1.,0.,0.));
#303=DIRECTION('',(0.,0.,1.));
#304=DIRECTION('',(-1.,0.,0.));
#305=DIRECTION('',(0.,0.,1.));
#306=DIRECTION('',(-1.,0.,0.));
#307=DIRECTION('',(0.,0.,1.));
#308=DIRECTION('',(-1.,0.,0.));
#309=DIRECTION('',(0.,0.,1.));
#310=DIRECTION('',(-1.,0.,0.));
#311=DIRECTION('',(0.,0.,1.));
#312=DIRECTION('',(-1.,0.,0.));
#313=DIRECTION('',(-1.,0.,0.));
#314=DIRECTION('',(-7.22470697167162E-18,0.,1.));
#315=CARTESIAN_POINT('',(0.,0.,0.));
#316=CARTESIAN_POINT('',(4.98097349045873,0.326175324007967,35.0032580419318));
#317=CARTESIAN_POINT('',(9.96188020798196,-0.110262724963137,35.0127501830124));
#318=CARTESIAN_POINT('',(4.98097349045873,-35.0020746348066,-0.435011668214953));
#319=CARTESIAN_POINT('',(9.96188020798196,-35.0020746348066,-0.871552927813628));
#320=CARTESIAN_POINT('',(9.96188020798196,-35.0020746348066,-0.871552927813629));
#321=CARTESIAN_POINT('',(9.96188020798196,-34.0970566103944,-37.2176053882035));
#322=CARTESIAN_POINT('',(9.96188020798196,-0.242918050598301,-50.4747502336086));
#323=CARTESIAN_POINT('',(9.96188020798196,25.1025867422858,-24.4082971977271));
#324=CARTESIAN_POINT('',(9.96188020798196,50.4480915351698,1.65815583815443));
#325=CARTESIAN_POINT('',(9.96188020798196,36.2468751936226,35.1272466757989));
#326=CARTESIAN_POINT('',(9.96188020798196,-0.110262724963141,35.0127501830124));
#327=CARTESIAN_POINT('',(10.0134625299381,-25.019542533742,-0.283002067413454));
#328=CARTESIAN_POINT('',(10.0134625299381,-24.7256740103495,-26.2632222387647));
#329=CARTESIAN_POINT('',(10.0134625299381,-0.663551830815023,-36.0648789904616));
#330=CARTESIAN_POINT('',(10.0134625299381,17.7003660842444,-17.6848703487365));
#331=CARTESIAN_POINT('',(10.0134625299381,36.0642839993037,0.695138292988578));
#332=CARTESIAN_POINT('',(10.0134625299381,26.2415566693166,24.7486666549909));
#333=CARTESIAN_POINT('',(10.0134625299381,0.261089083425517,25.0197807995674));
#334=CARTESIAN_POINT('',(0.0516490948916758,-25.019542533742,0.590080451783896));
#335=CARTESIAN_POINT('',(0.0516490948916758,-25.632280358004,-25.3901397195674));
#336=CARTESIAN_POINT('',(0.0516490948916758,-1.92164977784053,-36.0274930221602));
#337=CARTESIAN_POINT('',(0.0516490948916758,17.0763276518452,-18.2954840729655));
#338=CARTESIAN_POINT('',(0.0516490948916758,36.0743050815309,-0.563475123770768));
#339=CARTESIAN_POINT('',(0.0516490948916758,27.0947195438984,23.8232903724058));
#340=CARTESIAN_POINT('',(0.0516490948916758,1.13396518136773,25.0007965174062));
#341=CARTESIAN_POINT('',(6.67729354959443E-5,-35.0020746348066,0.00152959138372211));
#342=CARTESIAN_POINT('',(6.67729354959442E-5,-35.003662958049,-36.3445228690062));
#343=CARTESIAN_POINT('',(6.67729354959442E-5,-1.50101599762381,-50.4373642653072));
#344=CARTESIAN_POINT('',(6.67729354959443E-5,24.4785483098865,-25.0189109219561));
#345=CARTESIAN_POINT('',(6.67729354959442E-5,50.4581126173969,0.399542421395085));
#346=CARTESIAN_POINT('',(6.67729354959442E-5,37.1000380682044,34.2018703932138));
#347=CARTESIAN_POINT('',(6.67729354959443E-5,0.762613372979067,34.9937659008512));
#348=CARTESIAN_POINT('',(-0.0515155490206839,-44.9846067358711,-0.587021269016452));
#349=CARTESIAN_POINT('',(-0.0515155490206839,-44.375045558094,-47.2989060184449));
#350=CARTESIAN_POINT('',(-0.0515155490206839,-1.08038221740709,-64.8472355084541));
#351=CARTESIAN_POINT('',(-0.0515155490206839,31.8807689679279,-31.7423377709466));
#352=CARTESIAN_POINT('',(-0.0515155490206839,64.8419201532629,1.36255996656093));
#353=CARTESIAN_POINT('',(-0.0515155490206839,47.1053565925103,44.5804504140217));
#354=CARTESIAN_POINT('',(-0.0515155490206839,0.391261564590406,44.9867352842961));
#355=CARTESIAN_POINT('',(9.91029788602577,-44.9846067358711,-1.4601037882138));
#356=CARTESIAN_POINT('',(9.91029788602579,-43.4684392104393,-48.1719885376423));
#357=CARTESIAN_POINT('',(9.91029788602579,0.177715729618423,-64.8846214767556));
#358=CARTESIAN_POINT('',(9.91029788602577,32.5048074003271,-31.1317240467177));
#359=CARTESIAN_POINT('',(9.91029788602579,64.8318990710358,2.62117338332028));
#360=CARTESIAN_POINT('',(9.91029788602579,46.2521937179285,45.5058266966068));
#361=CARTESIAN_POINT('',(9.91029788602577,-0.481614533351805,45.0057195664573));
#362=CARTESIAN_POINT('',(9.96188020798196,-35.0020746348066,-0.871552927813629));
#363=CARTESIAN_POINT('',(9.96188020798196,-34.0970566103944,-37.2176053882035));
#364=CARTESIAN_POINT('',(9.96188020798196,-0.242918050598301,-50.4747502336086));
#365=CARTESIAN_POINT('',(9.96188020798196,25.1025867422858,-24.4082971977271));
#366=CARTESIAN_POINT('',(9.96188020798196,50.4480915351698,1.65815583815443));
#367=CARTESIAN_POINT('',(9.96188020798196,36.2468751936226,35.1272466757989));
#368=CARTESIAN_POINT('',(9.96188020798196,-0.110262724963141,35.0127501830124));
#369=CARTESIAN_POINT('',(9.96188020798196,-0.110262724963137,35.0127501830124));
#370=CARTESIAN_POINT('',(9.96188020798195,-20.9756571275438,34.9470405420321));
#371=CARTESIAN_POINT('',(9.96188020798195,-35.5214652992503,19.9874795202615));
#372=CARTESIAN_POINT('',(9.96188020798196,-35.0020746348066,-0.871552927813629));
#373=CARTESIAN_POINT('',(10.0134625299381,0.261089083425523,25.0197807995674));
#374=CARTESIAN_POINT('',(10.0134625299381,-14.6491248106655,25.1753734528554));
#375=CARTESIAN_POINT('',(10.0134625299381,-25.1881939456552,14.6270698352489));
#376=CARTESIAN_POINT('',(10.0134625299381,-25.0195425337421,-0.283002067413454));
#377=CARTESIAN_POINT('',(0.0516490948916758,1.13396518136773,25.0007965174062));
#378=CARTESIAN_POINT('',(0.0516490948916758,-13.7649352759703,25.6765683612162));
#379=CARTESIAN_POINT('',(0.0516490948916758,-24.6678917410632,15.5001523544463));
#380=CARTESIAN_POINT('',(0.0516490948916758,-25.0195425337421,0.590080451783896));
#381=CARTESIAN_POINT('',(6.67729354959443E-5,0.762613372979071,34.9937659008512));
#382=CARTESIAN_POINT('',(6.67729354959442E-5,-20.0914675928486,35.4482354503929));
#383=CARTESIAN_POINT('',(6.67729354959442E-5,-35.0011630946582,20.8605620394589));
#384=CARTESIAN_POINT('',(6.67729354959443E-5,-35.0020746348066,0.00152959138372227));
#385=CARTESIAN_POINT('',(-0.0515155490206839,0.391261564590411,44.9867352842961));
#386=CARTESIAN_POINT('',(-0.0515155490206839,-26.4179999097269,45.2199025395696));
#387=CARTESIAN_POINT('',(-0.0515155490206839,-45.3344344482533,26.2209717244714));
#388=CARTESIAN_POINT('',(-0.0515155490206839,-44.9846067358711,-0.587021269016451));
#389=CARTESIAN_POINT('',(9.91029788602577,-0.481614533351797,45.0057195664573));
#390=CARTESIAN_POINT('',(9.91029788602578,-27.3021894444221,44.7187076312088));
#391=CARTESIAN_POINT('',(9.91029788602578,-45.8547366528453,25.3478892052741));
#392=CARTESIAN_POINT('',(9.91029788602577,-44.9846067358711,-1.4601037882138));
#393=CARTESIAN_POINT('',(9.96188020798196,-0.110262724963137,35.0127501830124));
#394=CARTESIAN_POINT('',(9.96188020798195,-20.9756571275438,34.9470405420321));
#395=CARTESIAN_POINT('',(9.96188020798195,-35.5214652992503,19.9874795202615));
#396=CARTESIAN_POINT('',(9.96188020798196,-35.0020746348066,-0.871552927813629));
#397=CARTESIAN_POINT('',(50.,0.,0.));
#398=CARTESIAN_POINT('',(50.,0.,27.));
#399=CARTESIAN_POINT('',(50.,14.5,0.));
#400=CARTESIAN_POINT('',(48.,0.,0.));
#401=CARTESIAN_POINT('',(48.,0.,29.));
#402=CARTESIAN_POINT('',(48.,0.,0.));
#403=CARTESIAN_POINT('',(40.,0.,0.));
#404=CARTESIAN_POINT('',(40.,0.,29.));
#405=CARTESIAN_POINT('',(0.,0.,0.));
#406=CARTESIAN_POINT('',(39.6535898384862,0.,0.));
#407=CARTESIAN_POINT('',(39.6535898384862,0.,28.8));
#408=CARTESIAN_POINT('',(40.,0.,0.));
#409=CARTESIAN_POINT('',(39.,0.,0.));
#410=CARTESIAN_POINT('',(39.,0.,28.8));
#411=CARTESIAN_POINT('',(0.,0.,0.));
#412=CARTESIAN_POINT('',(18.4777528092612,0.,0.));
#413=CARTESIAN_POINT('',(18.4777528092612,0.,36.9176470588235));
#414=CARTESIAN_POINT('',(39.,0.,0.));
#415=CARTESIAN_POINT('',(15.7414531838294,0.,0.));
#416=CARTESIAN_POINT('',(15.7414531838294,0.,38.));
#417=CARTESIAN_POINT('',(15.7414531838294,0.,0.));
#418=CARTESIAN_POINT('',(7.41908754709152,0.,0.));
#419=CARTESIAN_POINT('',(7.41908754709152,0.,38.));
#420=CARTESIAN_POINT('',(0.,0.,0.));
#421=CARTESIAN_POINT('',(3.00000000002081,0.,0.));
#422=CARTESIAN_POINT('',(3.00000000002081,0.,31.327672470914));
#423=CARTESIAN_POINT('',(0.669977396038472,35.2317742141322,0.));
#424=CARTESIAN_POINT('',(0.672731168843008,34.698230414606,0.));
#425=CARTESIAN_POINT('',(0.700142423112181,34.43430450618,0.));
#426=CARTESIAN_POINT('',(0.806973059986913,33.9121673418206,0.));
#427=CARTESIAN_POINT('',(0.885429941885805,33.6594116028925,0.));
#428=CARTESIAN_POINT('',(1.08930838561047,33.1743598907263,0.));
#429=CARTESIAN_POINT('',(1.21647775071434,32.9390918591795,0.));
#430=CARTESIAN_POINT('',(1.51352236876325,32.5001233251707,0.));
#431=CARTESIAN_POINT('',(1.68172736648098,32.297800786821,0.));
#432=CARTESIAN_POINT('',(2.05705736573946,31.9270908373424,0.));
#433=CARTESIAN_POINT('',(2.26618557429852,31.7579427103407,0.));
#434=CARTESIAN_POINT('',(2.70682246133294,31.468642439874,0.));
#435=CARTESIAN_POINT('',(2.93988739761966,31.3464299217008,0.));
#436=CARTESIAN_POINT('',(3.43204955986468,31.1478294550946,0.));
#437=CARTESIAN_POINT('',(3.68819431466818,31.0731898174166,0.));
#438=CARTESIAN_POINT('',(4.2051597178635,30.9762283472585,0.));
#439=CARTESIAN_POINT('',(4.46980066696393,30.9530008517986,0.));
#440=CARTESIAN_POINT('',(5.00156871922406,30.959512156913,0.));
#441=CARTESIAN_POINT('',(5.26321330383102,30.9888523310665,0.));
#442=CARTESIAN_POINT('',(5.77830065150663,31.0979970129133,0.));
#443=CARTESIAN_POINT('',(6.03439642751638,31.1791986626245,0.));
#444=CARTESIAN_POINT('',(6.51982465777839,31.3876423769807,0.));
#445=CARTESIAN_POINT('',(6.75019728903158,31.5144478423913,0.));
#446=CARTESIAN_POINT('',(7.18629165174184,31.8131673087083,0.));
#447=CARTESIAN_POINT('',(7.39181713739715,31.9858849012698,0.));
#448=CARTESIAN_POINT('',(7.76002155751515,32.3621232400857,0.));
#449=CARTESIAN_POINT('',(7.92529421200233,32.5671860344634,0.));
#450=CARTESIAN_POINT('',(8.21696767888145,33.0122901394049,0.));
#451=CARTESIAN_POINT('',(8.33980736088249,33.2473594232119,0.));
#452=CARTESIAN_POINT('',(8.53745708947753,33.7348655556273,0.));
#453=CARTESIAN_POINT('',(8.61338093456253,33.9907823778621,0.));
#454=CARTESIAN_POINT('',(8.71348870926979,34.5117690321876,0.));
#455=CARTESIAN_POINT('',(8.73762899449337,34.7738195492509,0.));
#456=CARTESIAN_POINT('',(8.73493789264341,35.3009835528912,0.));
#457=CARTESIAN_POINT('',(8.70724559699769,35.5684797080558,0.));
#458=CARTESIAN_POINT('',(8.6016193872028,36.0853176710214,0.));
#459=CARTESIAN_POINT('',(8.52412684251945,36.3367492223969,0.));
#460=CARTESIAN_POINT('',(8.31896194909834,36.8254050385696,0.));
#461=CARTESIAN_POINT('',(8.19148896727356,37.0605544604031,0.));
#462=CARTESIAN_POINT('',(7.89667563422275,37.4963329301925,0.));
#463=CARTESIAN_POINT('',(7.72767937913679,37.700190688625,0.));
#464=CARTESIAN_POINT('',(7.34855103464231,38.074271013834,0.));
#465=CARTESIAN_POINT('',(7.14352735957019,38.2397154960817,0.));
#466=CARTESIAN_POINT('',(6.70360264743502,38.5288681921622,0.));
#467=CARTESIAN_POINT('',(6.46579991367661,38.6535342814607,0.));
#468=CARTESIAN_POINT('',(5.9755489976323,38.851303414741,0.));
#469=CARTESIAN_POINT('',(5.72315801150084,38.9252350701956,0.));
#470=CARTESIAN_POINT('',(5.20387295807286,39.0232886369569,0.));
#471=CARTESIAN_POINT('',(4.93630024782576,39.0467184720628,0.));
#472=CARTESIAN_POINT('',(4.40985924532745,39.0408959078802,0.));
#473=CARTESIAN_POINT('',(4.1480506330116,39.0124181085167,0.));
#474=CARTESIAN_POINT('',(3.62734326113021,38.9027708292722,0.));
#475=CARTESIAN_POINT('',(3.37445941875583,38.8225929581234,0.));
#476=CARTESIAN_POINT('',(2.89083504872518,38.6158246752465,0.));
#477=CARTESIAN_POINT('',(2.65679342558382,38.4875398418155,0.));
#478=CARTESIAN_POINT('',(2.21898090506377,38.1878495348908,0.));
#479=CARTESIAN_POINT('',(2.01748354033297,38.0186375222128,0.));
#480=CARTESIAN_POINT('',(1.64854458901379,37.6423274942868,0.));
#481=CARTESIAN_POINT('',(1.47995248032935,37.4328484966626,0.));
#482=CARTESIAN_POINT('',(1.19092238727751,36.9914456750875,0.));
#483=CARTESIAN_POINT('',(1.06879798972128,36.7584858353543,0.));
#484=CARTESIAN_POINT('',(0.869788918181134,36.2677983192039,0.));
#485=CARTESIAN_POINT('',(0.793977288768615,36.0109383403846,0.));
#486=CARTESIAN_POINT('',(0.694667857671184,35.4942429605294,0.));
#487=CARTESIAN_POINT('',(0.669977396038472,35.2317742141322,0.));
#488=CARTESIAN_POINT('',(0.672731168843008,34.698230414606,0.));
#489=CARTESIAN_POINT('',(0.,0.,0.));
#490=CARTESIAN_POINT('',(8.52391389940898,0.,0.));
#491=CARTESIAN_POINT('',(3.00000000002081,0.,0.));
#492=(
GEOMETRIC_REPRESENTATION_CONTEXT(3)
GLOBAL_UNCERTAINTY_ASSIGNED_CONTEXT((#493))
GLOBAL_UNIT_ASSIGNED_CONTEXT((#499,#495,#494))
REPRESENTATION_CONTEXT('model1','TOP_LEVEL_ASSEMBLY_PART')
);
#493=UNCERTAINTY_MEASURE_WITH_UNIT(LENGTH_MEASURE(2.E-5),#499,
'DISTANCE_ACCURACY_VALUE','Maximum Tolerance applied to model');
#494=(
NAMED_UNIT(*)
SI_UNIT($,.STERADIAN.)
SOLID_ANGLE_UNIT()
);
#495=(
CONVERSION_BASED_UNIT('DEGREE',#497)
NAMED_UNIT(#496)
PLANE_ANGLE_UNIT()
);
#496=DIMENSIONAL_EXPONENTS(0.,0.,0.,0.,0.,0.,0.);
#497=PLANE_ANGLE_MEASURE_WITH_UNIT(PLANE_ANGLE_MEASURE(0.0174532925),#498);
#498=(
NAMED_UNIT(*)
PLANE_ANGLE_UNIT()
SI_UNIT($,.RADIAN.)
);
#499=(
LENGTH_UNIT()
NAMED_UNIT(*)
SI_UNIT(.MILLI.,.METRE.)
);
ENDSEC;
END-ISO-10303-21;
