ISO-10303-21;
HEADER;
/* Generated by software containing ST-Developer
 * from STEP Tools, Inc. (www.steptools.com) 
 */
/* OPTION: using custom schema-name function */

FILE_DESCRIPTION(
/* description */ (''),
/* implementation_level */ '2;1');

FILE_NAME(
/* name */ 'model1.stp',
/* time_stamp */ '2023-11-03T11:04:57+03:00',
/* author */ (''),
/* organization */ (''),
/* preprocessor_version */ 'ST-DEVELOPER v19.4',
/* originating_system */ 'SIEMENS PLM Software NX2306.3001',
/* authorisation */ '');

FILE_SCHEMA (('AUTOMOTIVE_DESIGN { 1 0 10303 214 3 1 1 1 }'));
ENDSEC;

DATA;
#10=PROPERTY_DEFINITION_REPRESENTATION(#14,#12);
#11=PROPERTY_DEFINITION_REPRESENTATION(#15,#13);
#12=REPRESENTATION('',(#16),#519);
#13=REPRESENTATION('',(#17),#519);
#14=PROPERTY_DEFINITION('pmi validation property','',#21);
#15=PROPERTY_DEFINITION('pmi validation property','',#21);
#16=VALUE_REPRESENTATION_ITEM('number of annotations',COUNT_MEASURE(0.));
#17=VALUE_REPRESENTATION_ITEM('number of views',COUNT_MEASURE(0.));
#18=SHAPE_REPRESENTATION_RELATIONSHIP('None',
'relationship between model1_objects-None and model1_objects-None',#30,
#19);
#19=ADVANCED_BREP_SHAPE_REPRESENTATION('model1_objects-None',(#141,#142),
#519);
#20=SHAPE_DEFINITION_REPRESENTATION(#21,#30);
#21=PRODUCT_DEFINITION_SHAPE('','',#22);
#22=PRODUCT_DEFINITION(' ','',#24,#23);
#23=PRODUCT_DEFINITION_CONTEXT('part definition',#29,'design');
#24=PRODUCT_DEFINITION_FORMATION_WITH_SPECIFIED_SOURCE(' ',' ',#26,
 .NOT_KNOWN.);
#25=PRODUCT_RELATED_PRODUCT_CATEGORY('part','',(#26));
#26=PRODUCT('model1_objects','model1_objects',' ',(#27));
#27=PRODUCT_CONTEXT(' ',#29,'mechanical');
#28=APPLICATION_PROTOCOL_DEFINITION('international standard',
'automotive_design',2010,#29);
#29=APPLICATION_CONTEXT(
'core data for automotive mechanical design processes');
#30=SHAPE_REPRESENTATION('model1_objects-None',(#269),#519);
#31=OVER_RIDING_STYLED_ITEM('',(#64),#147,#61);
#32=OVER_RIDING_STYLED_ITEM('',(#65),#148,#61);
#33=OVER_RIDING_STYLED_ITEM('',(#66),#149,#61);
#34=OVER_RIDING_STYLED_ITEM('',(#67),#150,#61);
#35=OVER_RIDING_STYLED_ITEM('',(#68),#151,#61);
#36=OVER_RIDING_STYLED_ITEM('',(#69),#152,#61);
#37=OVER_RIDING_STYLED_ITEM('',(#70),#153,#61);
#38=OVER_RIDING_STYLED_ITEM('',(#71),#154,#61);
#39=OVER_RIDING_STYLED_ITEM('',(#72),#155,#61);
#40=OVER_RIDING_STYLED_ITEM('',(#73),#156,#61);
#41=OVER_RIDING_STYLED_ITEM('',(#74),#157,#61);
#42=COLOUR_RGB('Medium Steel',0.611764705882353,0.658823529411765,0.670588235294118);
#43=COLOUR_RGB('silver gray',0.6,0.6,0.6);
#44=SURFACE_OF_REVOLUTION('',#46,#45);
#45=AXIS1_PLACEMENT('',#502,#316);
#46=B_SPLINE_CURVE_WITH_KNOTS('',3,(#436,#437,#438,#439,#440,#441,#442,
#443,#444,#445,#446,#447,#448,#449,#450,#451,#452,#453,#454,#455,#456,#457,
#458,#459,#460,#461,#462,#463,#464,#465,#466,#467,#468,#469,#470,#471,#472,
#473,#474,#475,#476,#477,#478,#479,#480,#481,#482,#483,#484,#485,#486,#487,
#488,#489,#490,#491,#492,#493,#494,#495,#496,#497,#498,#499,#500,#501),
 .UNSPECIFIED.,.T.,.F.,(2,2,2,2,2,2,2,2,2,2,2,2,2,2,2,2,2,2,2,2,2,2,2,2,
2,2,2,2,2,2,2,2,2,2,2),(-0.03125,0.,0.03125,0.0625,0.09375,0.125,0.15625,
0.1875,0.21875,0.25,0.28125,0.3125,0.34375,0.375,0.40625,0.4375,0.46875,
0.5,0.53125,0.5625,0.59375,0.625,0.65625,0.6875,0.71875,0.75,0.78125,0.8125,
0.84375,0.875,0.90625,0.9375,0.96875,1.,1.03125),.UNSPECIFIED.);
#47=CONICAL_SURFACE('',#279,11.791682966546,74.9999999996108);
#48=CONICAL_SURFACE('',#282,18.1206147584282,20.0000000000001);
#49=VERTEX_LOOP('',#238);
#50=CYLINDRICAL_SURFACE('',#277,18.);
#51=CYLINDRICAL_SURFACE('',#286,18.);
#52=PLANE('',#275);
#53=FACE_OUTER_BOUND('',#190,.T.);
#54=TOROIDAL_SURFACE('',#274,17.,1.);
#55=TOROIDAL_SURFACE('',#284,20.,2.);
#56=TOROIDAL_SURFACE('',#288,13.,5.);
#57=TOROIDAL_SURFACE('',#290,57.,40.);
#58=TOROIDAL_SURFACE('',#291,13.,5.);
#59=PRESENTATION_LAYER_ASSIGNMENT('1','Layer 1',(#141,#142));
#60=STYLED_ITEM('',(#62),#141);
#61=STYLED_ITEM('',(#63),#142);
#62=PRESENTATION_STYLE_ASSIGNMENT((#75));
#63=PRESENTATION_STYLE_ASSIGNMENT((#76));
#64=PRESENTATION_STYLE_ASSIGNMENT((#77));
#65=PRESENTATION_STYLE_ASSIGNMENT((#78));
#66=PRESENTATION_STYLE_ASSIGNMENT((#79));
#67=PRESENTATION_STYLE_ASSIGNMENT((#80));
#68=PRESENTATION_STYLE_ASSIGNMENT((#81));
#69=PRESENTATION_STYLE_ASSIGNMENT((#82));
#70=PRESENTATION_STYLE_ASSIGNMENT((#83));
#71=PRESENTATION_STYLE_ASSIGNMENT((#84));
#72=PRESENTATION_STYLE_ASSIGNMENT((#85));
#73=PRESENTATION_STYLE_ASSIGNMENT((#86));
#74=PRESENTATION_STYLE_ASSIGNMENT((#87));
#75=SURFACE_STYLE_USAGE(.BOTH.,#88);
#76=SURFACE_STYLE_USAGE(.BOTH.,#89);
#77=SURFACE_STYLE_USAGE(.BOTH.,#90);
#78=SURFACE_STYLE_USAGE(.BOTH.,#91);
#79=SURFACE_STYLE_USAGE(.BOTH.,#92);
#80=SURFACE_STYLE_USAGE(.BOTH.,#93);
#81=SURFACE_STYLE_USAGE(.BOTH.,#94);
#82=SURFACE_STYLE_USAGE(.BOTH.,#95);
#83=SURFACE_STYLE_USAGE(.BOTH.,#96);
#84=SURFACE_STYLE_USAGE(.BOTH.,#97);
#85=SURFACE_STYLE_USAGE(.BOTH.,#98);
#86=SURFACE_STYLE_USAGE(.BOTH.,#99);
#87=SURFACE_STYLE_USAGE(.BOTH.,#100);
#88=SURFACE_SIDE_STYLE('',(#101));
#89=SURFACE_SIDE_STYLE('',(#102));
#90=SURFACE_SIDE_STYLE('',(#103));
#91=SURFACE_SIDE_STYLE('',(#104));
#92=SURFACE_SIDE_STYLE('',(#105));
#93=SURFACE_SIDE_STYLE('',(#106));
#94=SURFACE_SIDE_STYLE('',(#107));
#95=SURFACE_SIDE_STYLE('',(#108));
#96=SURFACE_SIDE_STYLE('',(#109));
#97=SURFACE_SIDE_STYLE('',(#110));
#98=SURFACE_SIDE_STYLE('',(#111));
#99=SURFACE_SIDE_STYLE('',(#112));
#100=SURFACE_SIDE_STYLE('',(#113));
#101=SURFACE_STYLE_FILL_AREA(#114);
#102=SURFACE_STYLE_FILL_AREA(#115);
#103=SURFACE_STYLE_FILL_AREA(#116);
#104=SURFACE_STYLE_FILL_AREA(#117);
#105=SURFACE_STYLE_FILL_AREA(#118);
#106=SURFACE_STYLE_FILL_AREA(#119);
#107=SURFACE_STYLE_FILL_AREA(#120);
#108=SURFACE_STYLE_FILL_AREA(#121);
#109=SURFACE_STYLE_FILL_AREA(#122);
#110=SURFACE_STYLE_FILL_AREA(#123);
#111=SURFACE_STYLE_FILL_AREA(#124);
#112=SURFACE_STYLE_FILL_AREA(#125);
#113=SURFACE_STYLE_FILL_AREA(#126);
#114=FILL_AREA_STYLE('',(#127));
#115=FILL_AREA_STYLE('',(#128));
#116=FILL_AREA_STYLE('',(#129));
#117=FILL_AREA_STYLE('',(#130));
#118=FILL_AREA_STYLE('',(#131));
#119=FILL_AREA_STYLE('',(#132));
#120=FILL_AREA_STYLE('',(#133));
#121=FILL_AREA_STYLE('',(#134));
#122=FILL_AREA_STYLE('',(#135));
#123=FILL_AREA_STYLE('',(#136));
#124=FILL_AREA_STYLE('',(#137));
#125=FILL_AREA_STYLE('',(#138));
#126=FILL_AREA_STYLE('',(#139));
#127=FILL_AREA_STYLE_COLOUR('',#140);
#128=FILL_AREA_STYLE_COLOUR('',#42);
#129=FILL_AREA_STYLE_COLOUR('',#43);
#130=FILL_AREA_STYLE_COLOUR('',#43);
#131=FILL_AREA_STYLE_COLOUR('',#43);
#132=FILL_AREA_STYLE_COLOUR('',#43);
#133=FILL_AREA_STYLE_COLOUR('',#43);
#134=FILL_AREA_STYLE_COLOUR('',#43);
#135=FILL_AREA_STYLE_COLOUR('',#43);
#136=FILL_AREA_STYLE_COLOUR('',#43);
#137=FILL_AREA_STYLE_COLOUR('',#43);
#138=FILL_AREA_STYLE_COLOUR('',#43);
#139=FILL_AREA_STYLE_COLOUR('',#43);
#140=DRAUGHTING_PRE_DEFINED_COLOUR('yellow');
#141=MANIFOLD_SOLID_BREP('',#143);
#142=MANIFOLD_SOLID_BREP('',#144);
#143=CLOSED_SHELL('',(#145,#146));
#144=CLOSED_SHELL('',(#147,#148,#149,#150,#151,#152,#153,#154,#155,#156,
#157));
#145=ADVANCED_FACE('',(#160,#161),#158,.F.);
#146=ADVANCED_FACE('',(#162,#163),#159,.F.);
#147=ADVANCED_FACE('',(#164,#165),#54,.T.);
#148=ADVANCED_FACE('',(#53),#52,.F.);
#149=ADVANCED_FACE('',(#166,#167),#50,.T.);
#150=ADVANCED_FACE('',(#168,#169),#47,.F.);
#151=ADVANCED_FACE('',(#170,#171),#44,.T.);
#152=ADVANCED_FACE('',(#172,#173),#48,.T.);
#153=ADVANCED_FACE('',(#174,#175),#55,.F.);
#154=ADVANCED_FACE('',(#176,#177),#51,.T.);
#155=ADVANCED_FACE('',(#178,#179),#56,.T.);
#156=ADVANCED_FACE('',(#180,#181),#57,.F.);
#157=ADVANCED_FACE('',(#182,#183),#58,.T.);
#158=(
BOUNDED_SURFACE()
B_SPLINE_SURFACE(3,3,((#344,#345,#346,#347,#348,#349,#350),(#351,#352,#353,
#354,#355,#356,#357),(#358,#359,#360,#361,#362,#363,#364),(#365,#366,#367,
#368,#369,#370,#371),(#372,#373,#374,#375,#376,#377,#378),(#379,#380,#381,
#382,#383,#384,#385),(#386,#387,#388,#389,#390,#391,#392)),
 .UNSPECIFIED.,.T.,.F.,.F.)
B_SPLINE_SURFACE_WITH_KNOTS((1,3,3,3,1),(4,3,4),(-0.5,0.,0.5,1.,1.5),(0.,
0.5,1.),.UNSPECIFIED.)
GEOMETRIC_REPRESENTATION_ITEM()
RATIONAL_B_SPLINE_SURFACE(((1.,0.571214726515393,0.571214726515393,1.,0.571214726515393,
0.571214726515393,1.),(0.333333333333334,0.190404908838465,0.190404908838465,
0.333333333333334,0.190404908838465,0.190404908838465,0.333333333333334),
(0.333333333333334,0.190404908838465,0.190404908838465,0.333333333333334,
0.190404908838465,0.190404908838465,0.333333333333334),(1.,0.571214726515393,
0.571214726515393,1.,0.571214726515393,0.571214726515393,1.),(0.333333333333334,
0.190404908838465,0.190404908838465,0.333333333333334,0.190404908838465,
0.190404908838465,0.333333333333334),(0.333333333333334,0.190404908838465,
0.190404908838465,0.333333333333334,0.190404908838465,0.190404908838465,
0.333333333333334),(1.,0.571214726515393,0.571214726515393,1.,0.571214726515393,
0.571214726515393,1.)))
REPRESENTATION_ITEM('')
SURFACE()
);
#159=(
BOUNDED_SURFACE()
B_SPLINE_SURFACE(3,3,((#393,#394,#395,#396),(#397,#398,#399,#400),(#401,
#402,#403,#404),(#405,#406,#407,#408),(#409,#410,#411,#412),(#413,#414,
#415,#416),(#417,#418,#419,#420)),.UNSPECIFIED.,.T.,.F.,.F.)
B_SPLINE_SURFACE_WITH_KNOTS((1,3,3,3,1),(4,4),(-0.5,0.,0.5,1.,1.5),(0.,
1.),.UNSPECIFIED.)
GEOMETRIC_REPRESENTATION_ITEM()
RATIONAL_B_SPLINE_SURFACE(((1.,0.830237328333287,0.830237328333287,1.),
(0.333333333333334,0.276745776111096,0.276745776111096,0.333333333333334),
(0.333333333333334,0.276745776111096,0.276745776111096,0.333333333333334),
(1.,0.830237328333287,0.830237328333287,1.),(0.333333333333334,0.276745776111096,
0.276745776111096,0.333333333333334),(0.333333333333334,0.276745776111096,
0.276745776111096,0.333333333333334),(1.,0.830237328333287,0.830237328333287,
1.)))
REPRESENTATION_ITEM('')
SURFACE()
);
#160=FACE_BOUND('',#184,.T.);
#161=FACE_BOUND('',#185,.T.);
#162=FACE_BOUND('',#186,.T.);
#163=FACE_BOUND('',#187,.T.);
#164=FACE_BOUND('',#188,.T.);
#165=FACE_BOUND('',#189,.T.);
#166=FACE_BOUND('',#191,.T.);
#167=FACE_BOUND('',#192,.T.);
#168=FACE_BOUND('',#193,.T.);
#169=FACE_BOUND('',#49,.T.);
#170=FACE_BOUND('',#194,.T.);
#171=FACE_BOUND('',#195,.T.);
#172=FACE_BOUND('',#196,.T.);
#173=FACE_BOUND('',#197,.T.);
#174=FACE_BOUND('',#198,.T.);
#175=FACE_BOUND('',#199,.T.);
#176=FACE_BOUND('',#200,.T.);
#177=FACE_BOUND('',#201,.T.);
#178=FACE_BOUND('',#202,.T.);
#179=FACE_BOUND('',#203,.T.);
#180=FACE_BOUND('',#204,.T.);
#181=FACE_BOUND('',#205,.T.);
#182=FACE_BOUND('',#206,.T.);
#183=FACE_BOUND('',#207,.T.);
#184=EDGE_LOOP('',(#208));
#185=EDGE_LOOP('',(#209));
#186=EDGE_LOOP('',(#210));
#187=EDGE_LOOP('',(#211));
#188=EDGE_LOOP('',(#212));
#189=EDGE_LOOP('',(#213));
#190=EDGE_LOOP('',(#214));
#191=EDGE_LOOP('',(#215));
#192=EDGE_LOOP('',(#216));
#193=EDGE_LOOP('',(#217));
#194=EDGE_LOOP('',(#218));
#195=EDGE_LOOP('',(#219));
#196=EDGE_LOOP('',(#220));
#197=EDGE_LOOP('',(#221));
#198=EDGE_LOOP('',(#222));
#199=EDGE_LOOP('',(#223));
#200=EDGE_LOOP('',(#224));
#201=EDGE_LOOP('',(#225));
#202=EDGE_LOOP('',(#226));
#203=EDGE_LOOP('',(#227));
#204=EDGE_LOOP('',(#228));
#205=EDGE_LOOP('',(#229));
#206=EDGE_LOOP('',(#230));
#207=EDGE_LOOP('',(#231));
#208=ORIENTED_EDGE('',*,*,#245,.T.);
#209=ORIENTED_EDGE('',*,*,#246,.F.);
#210=ORIENTED_EDGE('',*,*,#246,.T.);
#211=ORIENTED_EDGE('',*,*,#245,.F.);
#212=ORIENTED_EDGE('',*,*,#247,.T.);
#213=ORIENTED_EDGE('',*,*,#248,.F.);
#214=ORIENTED_EDGE('',*,*,#247,.F.);
#215=ORIENTED_EDGE('',*,*,#248,.T.);
#216=ORIENTED_EDGE('',*,*,#249,.F.);
#217=ORIENTED_EDGE('',*,*,#250,.T.);
#218=ORIENTED_EDGE('',*,*,#250,.F.);
#219=ORIENTED_EDGE('',*,*,#251,.T.);
#220=ORIENTED_EDGE('',*,*,#251,.F.);
#221=ORIENTED_EDGE('',*,*,#252,.T.);
#222=ORIENTED_EDGE('',*,*,#252,.F.);
#223=ORIENTED_EDGE('',*,*,#253,.T.);
#224=ORIENTED_EDGE('',*,*,#253,.F.);
#225=ORIENTED_EDGE('',*,*,#254,.T.);
#226=ORIENTED_EDGE('',*,*,#254,.F.);
#227=ORIENTED_EDGE('',*,*,#255,.T.);
#228=ORIENTED_EDGE('',*,*,#255,.F.);
#229=ORIENTED_EDGE('',*,*,#256,.T.);
#230=ORIENTED_EDGE('',*,*,#256,.F.);
#231=ORIENTED_EDGE('',*,*,#249,.T.);
#232=VERTEX_POINT('',#341);
#233=VERTEX_POINT('',#343);
#234=VERTEX_POINT('',#422);
#235=VERTEX_POINT('',#424);
#236=VERTEX_POINT('',#428);
#237=VERTEX_POINT('',#431);
#238=VERTEX_POINT('',#432);
#239=VERTEX_POINT('',#435);
#240=VERTEX_POINT('',#504);
#241=VERTEX_POINT('',#507);
#242=VERTEX_POINT('',#510);
#243=VERTEX_POINT('',#513);
#244=VERTEX_POINT('',#516);
#245=EDGE_CURVE('',#232,#232,#257,.T.);
#246=EDGE_CURVE('',#233,#233,#258,.T.);
#247=EDGE_CURVE('',#234,#234,#259,.T.);
#248=EDGE_CURVE('',#235,#235,#260,.T.);
#249=EDGE_CURVE('',#236,#236,#261,.T.);
#250=EDGE_CURVE('',#237,#237,#262,.T.);
#251=EDGE_CURVE('',#239,#239,#263,.T.);
#252=EDGE_CURVE('',#240,#240,#264,.T.);
#253=EDGE_CURVE('',#241,#241,#265,.T.);
#254=EDGE_CURVE('',#242,#242,#266,.T.);
#255=EDGE_CURVE('',#243,#243,#267,.T.);
#256=EDGE_CURVE('',#244,#244,#268,.T.);
#257=CIRCLE('',#270,5.);
#258=CIRCLE('',#271,5.);
#259=CIRCLE('',#272,17.);
#260=CIRCLE('',#273,18.);
#261=CIRCLE('',#276,18.);
#262=CIRCLE('',#278,11.791682966546);
#263=CIRCLE('',#280,18.4398034667164);
#264=CIRCLE('',#281,18.1206147584282);
#265=CIRCLE('',#283,18.);
#266=CIRCLE('',#285,18.);
#267=CIRCLE('',#287,17.8888888888889);
#268=CIRCLE('',#289,17.8888888888889);
#269=AXIS2_PLACEMENT_3D('',#339,#292,#293);
#270=AXIS2_PLACEMENT_3D('',#340,#294,#295);
#271=AXIS2_PLACEMENT_3D('',#342,#296,#297);
#272=AXIS2_PLACEMENT_3D('',#421,#298,#299);
#273=AXIS2_PLACEMENT_3D('',#423,#300,#301);
#274=AXIS2_PLACEMENT_3D('',#425,#302,#303);
#275=AXIS2_PLACEMENT_3D('',#426,#304,#305);
#276=AXIS2_PLACEMENT_3D('',#427,#306,#307);
#277=AXIS2_PLACEMENT_3D('',#429,#308,#309);
#278=AXIS2_PLACEMENT_3D('',#430,#310,#311);
#279=AXIS2_PLACEMENT_3D('',#433,#312,#313);
#280=AXIS2_PLACEMENT_3D('',#434,#314,#315);
#281=AXIS2_PLACEMENT_3D('',#503,#317,#318);
#282=AXIS2_PLACEMENT_3D('',#505,#319,#320);
#283=AXIS2_PLACEMENT_3D('',#506,#321,#322);
#284=AXIS2_PLACEMENT_3D('',#508,#323,#324);
#285=AXIS2_PLACEMENT_3D('',#509,#325,#326);
#286=AXIS2_PLACEMENT_3D('',#511,#327,#328);
#287=AXIS2_PLACEMENT_3D('',#512,#329,#330);
#288=AXIS2_PLACEMENT_3D('',#514,#331,#332);
#289=AXIS2_PLACEMENT_3D('',#515,#333,#334);
#290=AXIS2_PLACEMENT_3D('',#517,#335,#336);
#291=AXIS2_PLACEMENT_3D('',#518,#337,#338);
#292=DIRECTION('',(0.,0.,1.));
#293=DIRECTION('',(1.,0.,0.));
#294=DIRECTION('',(0.,0.993807989999906,0.111111111111111));
#295=DIRECTION('',(1.,0.,0.));
#296=DIRECTION('',(0.,0.,1.));
#297=DIRECTION('',(1.,0.,0.));
#298=DIRECTION('',(-1.,0.,0.));
#299=DIRECTION('',(0.,0.,1.));
#300=DIRECTION('',(-1.,0.,0.));
#301=DIRECTION('',(0.,0.,1.));
#302=DIRECTION('',(-1.,0.,0.));
#303=DIRECTION('',(0.,0.,1.));
#304=DIRECTION('',(-1.,0.,0.));
#305=DIRECTION('',(0.,0.,1.));
#306=DIRECTION('',(-1.,0.,0.));
#307=DIRECTION('',(0.,0.,1.));
#308=DIRECTION('',(-1.,0.,0.));
#309=DIRECTION('',(0.,0.,1.));
#310=DIRECTION('',(-1.,0.,0.));
#311=DIRECTION('',(0.,0.,1.));
#312=DIRECTION('',(-1.,0.,0.));
#313=DIRECTION('',(1.11204901193952E-17,0.,1.));
#314=DIRECTION('',(-1.,0.,0.));
#315=DIRECTION('',(0.,0.,1.));
#316=DIRECTION('',(-1.,0.,0.));
#317=DIRECTION('',(-1.,0.,0.));
#318=DIRECTION('',(0.,0.,1.));
#319=DIRECTION('',(-1.,0.,0.));
#320=DIRECTION('',(-6.81012178283669E-18,0.,1.));
#321=DIRECTION('',(-1.,0.,0.));
#322=DIRECTION('',(0.,0.,1.));
#323=DIRECTION('',(-1.,0.,0.));
#324=DIRECTION('',(0.,0.,1.));
#325=DIRECTION('',(-1.,0.,0.));
#326=DIRECTION('',(0.,0.,1.));
#327=DIRECTION('',(-1.,0.,0.));
#328=DIRECTION('',(0.,0.,1.));
#329=DIRECTION('',(-1.,0.,0.));
#330=DIRECTION('',(0.,0.,1.));
#331=DIRECTION('',(-1.,0.,0.));
#332=DIRECTION('',(0.,0.,1.));
#333=DIRECTION('',(-1.,0.,0.));
#334=DIRECTION('',(0.,0.,1.));
#335=DIRECTION('',(-1.,0.,0.));
#336=DIRECTION('',(0.,0.,1.));
#337=DIRECTION('',(-1.,0.,0.));
#338=DIRECTION('',(0.,0.,1.));
#339=CARTESIAN_POINT('',(0.,0.,0.));
#340=CARTESIAN_POINT('',(5.,0.332102353333145,15.0295862498377));
#341=CARTESIAN_POINT('',(10.,0.332102353333145,15.0295862498377));
#342=CARTESIAN_POINT('',(5.,-14.89962264,2.));
#343=CARTESIAN_POINT('',(10.,-14.89962264,2.));
#344=CARTESIAN_POINT('',(10.,-14.89962264,2.));
#345=CARTESIAN_POINT('',(10.,-17.080174168988,-14.2446974644984));
#346=CARTESIAN_POINT('',(10.,-2.68289577137338,-22.0781753271868));
#347=CARTESIAN_POINT('',(10.,9.77218968737829,-11.4237937449999));
#348=CARTESIAN_POINT('',(10.,22.22727514613,-0.769412162812958));
#349=CARTESIAN_POINT('',(10.,16.7184959919037,14.6675031026672));
#350=CARTESIAN_POINT('',(10.,0.332102353333148,15.0295862498377));
#351=CARTESIAN_POINT('',(10.,-4.89962263999999,2.));
#352=CARTESIAN_POINT('',(10.,-7.08017416898802,-3.34193981955819));
#353=CARTESIAN_POINT('',(10.,-2.86795059974591,-7.28507291508952));
#354=CARTESIAN_POINT('',(10.,2.31862976237899,-4.75712707833319));
#355=CARTESIAN_POINT('',(10.,7.50521012450389,-2.22918124157686));
#356=CARTESIAN_POINT('',(10.,6.99435944244073,3.51800568656364));
#357=CARTESIAN_POINT('',(10.,1.44321346444426,5.09150634983865));
#358=CARTESIAN_POINT('',(-5.10076676829453E-16,-4.89962263999999,2.));
#359=CARTESIAN_POINT('',(-5.10076676829453E-16,-7.08017416898802,-3.34193981955819));
#360=CARTESIAN_POINT('',(-5.10076676829453E-16,-2.86795059974591,-7.28507291508952));
#361=CARTESIAN_POINT('',(-5.10076676829453E-16,2.31862976237899,-4.75712707833319));
#362=CARTESIAN_POINT('',(-5.10076676829453E-16,7.50521012450389,-2.22918124157686));
#363=CARTESIAN_POINT('',(-5.10076676829453E-16,6.99435944244073,3.51800568656364));
#364=CARTESIAN_POINT('',(-5.10076676829453E-16,1.44321346444426,5.09150634983865));
#365=CARTESIAN_POINT('',(-1.7347234759768E-15,-14.89962264,2.));
#366=CARTESIAN_POINT('',(-1.73472347597681E-15,-17.080174168988,-14.2446974644984));
#367=CARTESIAN_POINT('',(-1.73472347597681E-15,-2.68289577137338,-22.0781753271868));
#368=CARTESIAN_POINT('',(-1.7347234759768E-15,9.77218968737829,-11.4237937449999));
#369=CARTESIAN_POINT('',(-1.73472347597681E-15,22.22727514613,-0.769412162812958));
#370=CARTESIAN_POINT('',(-1.73472347597681E-15,16.7184959919037,14.6675031026672));
#371=CARTESIAN_POINT('',(-1.7347234759768E-15,0.332102353333148,15.0295862498377));
#372=CARTESIAN_POINT('',(-2.95937027512416E-15,-24.89962264,2.));
#373=CARTESIAN_POINT('',(-2.95937027512416E-15,-27.080174168988,-25.1474551094385));
#374=CARTESIAN_POINT('',(-2.95937027512416E-15,-2.49784094300085,-36.871277739284));
#375=CARTESIAN_POINT('',(-2.95937027512416E-15,17.2257496123776,-18.0904604116665));
#376=CARTESIAN_POINT('',(-2.95937027512416E-15,36.949340167756,0.690356915950946));
#377=CARTESIAN_POINT('',(-2.95937027512416E-15,26.4426325413667,25.8170005187707));
#378=CARTESIAN_POINT('',(-2.95937027512416E-15,-0.779008757777967,24.9676661498368));
#379=CARTESIAN_POINT('',(10.,-24.89962264,2.));
#380=CARTESIAN_POINT('',(10.,-27.080174168988,-25.1474551094385));
#381=CARTESIAN_POINT('',(10.,-2.49784094300085,-36.871277739284));
#382=CARTESIAN_POINT('',(10.,17.2257496123776,-18.0904604116665));
#383=CARTESIAN_POINT('',(10.,36.949340167756,0.690356915950946));
#384=CARTESIAN_POINT('',(10.,26.4426325413667,25.8170005187707));
#385=CARTESIAN_POINT('',(10.,-0.779008757777967,24.9676661498368));
#386=CARTESIAN_POINT('',(10.,-14.89962264,2.));
#387=CARTESIAN_POINT('',(10.,-17.080174168988,-14.2446974644984));
#388=CARTESIAN_POINT('',(10.,-2.68289577137338,-22.0781753271868));
#389=CARTESIAN_POINT('',(10.,9.77218968737829,-11.4237937449999));
#390=CARTESIAN_POINT('',(10.,22.22727514613,-0.769412162812958));
#391=CARTESIAN_POINT('',(10.,16.7184959919037,14.6675031026672));
#392=CARTESIAN_POINT('',(10.,0.332102353333148,15.0295862498377));
#393=CARTESIAN_POINT('',(10.,0.332102353333145,15.0295862498377));
#394=CARTESIAN_POINT('',(10.,-7.71356830381354,15.2073680007765));
#395=CARTESIAN_POINT('',(10.,-13.8289783090912,9.97609825609809));
#396=CARTESIAN_POINT('',(10.,-14.89962264,2.));
#397=CARTESIAN_POINT('',(10.,1.44321346444426,5.09150634983865));
#398=CARTESIAN_POINT('',(10.,-1.28238274017616,5.86409050683789));
#399=CARTESIAN_POINT('',(10.,-3.82897830909121,4.62287660155417));
#400=CARTESIAN_POINT('',(10.,-4.89962263999999,2.));
#401=CARTESIAN_POINT('',(-5.10076676829453E-16,1.44321346444426,5.09150634983865));
#402=CARTESIAN_POINT('',(-5.10076676829454E-16,-1.28238274017616,5.86409050683789));
#403=CARTESIAN_POINT('',(-5.10076676829454E-16,-3.82897830909121,4.62287660155417));
#404=CARTESIAN_POINT('',(-5.10076676829453E-16,-4.89962263999999,2.));
#405=CARTESIAN_POINT('',(-1.7347234759768E-15,0.332102353333145,15.0295862498377));
#406=CARTESIAN_POINT('',(-1.73472347597681E-15,-7.71356830381354,15.2073680007765));
#407=CARTESIAN_POINT('',(-1.73472347597681E-15,-13.8289783090912,9.97609825609809));
#408=CARTESIAN_POINT('',(-1.7347234759768E-15,-14.89962264,2.));
#409=CARTESIAN_POINT('',(-2.95937027512416E-15,-0.779008757777967,24.9676661498368));
#410=CARTESIAN_POINT('',(-2.95937027512416E-15,-14.1447538674509,24.5506454947152));
#411=CARTESIAN_POINT('',(-2.95937027512416E-15,-23.8289783090912,15.329319910642));
#412=CARTESIAN_POINT('',(-2.95937027512416E-15,-24.89962264,2.));
#413=CARTESIAN_POINT('',(10.,-0.779008757777967,24.9676661498368));
#414=CARTESIAN_POINT('',(10.,-14.1447538674509,24.5506454947152));
#415=CARTESIAN_POINT('',(10.,-23.8289783090912,15.329319910642));
#416=CARTESIAN_POINT('',(10.,-24.89962264,2.));
#417=CARTESIAN_POINT('',(10.,0.332102353333145,15.0295862498377));
#418=CARTESIAN_POINT('',(10.,-7.71356830381354,15.2073680007765));
#419=CARTESIAN_POINT('',(10.,-13.8289783090912,9.97609825609809));
#420=CARTESIAN_POINT('',(10.,-14.89962264,2.));
#421=CARTESIAN_POINT('',(40.,0.,0.));
#422=CARTESIAN_POINT('',(40.,0.,17.));
#423=CARTESIAN_POINT('',(39.,0.,0.));
#424=CARTESIAN_POINT('',(39.,0.,18.));
#425=CARTESIAN_POINT('',(39.,0.,0.));
#426=CARTESIAN_POINT('',(40.,17.,0.));
#427=CARTESIAN_POINT('',(33.,0.,0.));
#428=CARTESIAN_POINT('',(33.,0.,18.));
#429=CARTESIAN_POINT('',(0.,0.,0.));
#430=CARTESIAN_POINT('',(2.99999999996021,0.,0.));
#431=CARTESIAN_POINT('',(2.99999999996021,0.,11.791682966546));
#432=CARTESIAN_POINT('',(6.15957192833589,0.,0.));
#433=CARTESIAN_POINT('',(2.99999999996021,0.,0.));
#434=CARTESIAN_POINT('',(6.70880505997762,0.,0.));
#435=CARTESIAN_POINT('',(6.70880505997762,0.,18.4398034667164));
#436=CARTESIAN_POINT('',(4.74775813245978,11.237406181576,0.));
#437=CARTESIAN_POINT('',(5.25224186754021,11.237406181576,0.));
#438=CARTESIAN_POINT('',(5.50194627220381,11.2616626772827,0.));
#439=CARTESIAN_POINT('',(5.99624135179802,11.3585725964924,0.));
#440=CARTESIAN_POINT('',(6.2363393969248,11.4305430264105,0.));
#441=CARTESIAN_POINT('',(6.69712195764444,11.6183958009253,0.));
#442=CARTESIAN_POINT('',(6.9207167147384,11.7358039105895,0.));
#443=CARTESIAN_POINT('',(7.33967217699939,12.0116538312167,0.));
#444=CARTESIAN_POINT('',(7.53313799825617,12.1682388879299,0.));
#445=CARTESIAN_POINT('',(7.8883345563466,12.518392705315,0.));
#446=CARTESIAN_POINT('',(8.05095510928993,12.7139863590378,0.));
#447=CARTESIAN_POINT('',(8.33009400845558,13.1272011986347,0.));
#448=CARTESIAN_POINT('',(8.44847855074003,13.3461142504819,0.));
#449=CARTESIAN_POINT('',(8.6419367520371,13.8090982548335,0.));
#450=CARTESIAN_POINT('',(8.71538992953605,14.0506238992312,0.));
#451=CARTESIAN_POINT('',(8.81242563854621,14.5385168792861,0.));
#452=CARTESIAN_POINT('',(8.83694436180457,14.7886203626961,0.));
#453=CARTESIAN_POINT('',(8.83550830321918,15.2915000433835,0.));
#454=CARTESIAN_POINT('',(8.80989659239938,15.5391519327561,0.));
#455=CARTESIAN_POINT('',(8.71048039799248,16.0271224506409,0.));
#456=CARTESIAN_POINT('',(8.6353530446103,16.2699378928256,0.));
#457=CARTESIAN_POINT('',(8.44118724167855,16.7300800207371,0.));
#458=CARTESIAN_POINT('',(8.3225016881475,16.9486072648927,0.));
#459=CARTESIAN_POINT('',(8.04193241636768,17.3625779286947,0.));
#460=CARTESIAN_POINT('',(7.87950381408614,17.5575413051442,0.));
#461=CARTESIAN_POINT('',(7.52516176444298,17.9070307665017,0.));
#462=CARTESIAN_POINT('',(7.331765089537,18.0640303564141,0.));
#463=CARTESIAN_POINT('',(6.91146593810218,18.341386001885,0.));
#464=CARTESIAN_POINT('',(6.68984314421157,18.4580378917431,0.));
#465=CARTESIAN_POINT('',(6.22947393546901,18.6463805744278,0.));
#466=CARTESIAN_POINT('',(5.98758930188489,18.7189905484295,0.));
#467=CARTESIAN_POINT('',(5.49540344217219,18.8154165720385,0.));
#468=CARTESIAN_POINT('',(5.24772988925043,18.8392446759979,0.));
#469=CARTESIAN_POINT('',(4.74928120355579,18.8390515639247,0.));
#470=CARTESIAN_POINT('',(4.49622023524635,18.8142383947103,0.));
#471=CARTESIAN_POINT('',(4.00681087090971,18.7174171975781,0.));
#472=CARTESIAN_POINT('',(3.76856130398376,18.6458396405351,0.));
#473=CARTESIAN_POINT('',(3.30514763657006,18.4557216998783,0.));
#474=CARTESIAN_POINT('',(3.08149416049986,18.337142690031,0.));
#475=CARTESIAN_POINT('',(2.66653415291061,18.0624971417824,0.));
#476=CARTESIAN_POINT('',(2.47242801188455,17.9052212882389,0.));
#477=CARTESIAN_POINT('',(2.11406325270772,17.550614557245,0.));
#478=CARTESIAN_POINT('',(1.95509124252312,17.3586254421666,0.));
#479=CARTESIAN_POINT('',(1.67621083047702,16.9462618639678,0.));
#480=CARTESIAN_POINT('',(1.55533985694702,16.7231989568698,0.));
#481=CARTESIAN_POINT('',(1.36184118607475,16.2618951191359,0.));
#482=CARTESIAN_POINT('',(1.28864556035264,16.0241328493397,0.));
#483=CARTESIAN_POINT('',(1.18939961561401,15.5343761705464,0.));
#484=CARTESIAN_POINT('',(1.16397768391644,15.2815822308463,0.));
#485=CARTESIAN_POINT('',(1.16354179279771,14.7836047660793,0.));
#486=CARTESIAN_POINT('',(1.18774578619633,14.5356718939239,0.));
#487=CARTESIAN_POINT('',(1.28673037121143,14.0419927826492,0.));
#488=CARTESIAN_POINT('',(1.36048670139927,13.8024707578789,0.));
#489=CARTESIAN_POINT('',(1.55286637735877,13.3437396589139,0.));
#490=CARTESIAN_POINT('',(1.67321747213265,13.1213665941894,0.));
#491=CARTESIAN_POINT('',(1.95470034139542,12.7065772741049,0.));
#492=CARTESIAN_POINT('',(2.11411119534434,12.5156601809587,0.));
#493=CARTESIAN_POINT('',(2.46942743169007,12.1660359431181,0.));
#494=CARTESIAN_POINT('',(2.66745894912141,12.0063941923507,0.));
#495=CARTESIAN_POINT('',(3.0844429471541,11.7329879057613,0.));
#496=CARTESIAN_POINT('',(3.30465429986219,11.6174182141468,0.));
#497=CARTESIAN_POINT('',(3.76864014073083,11.42877011479,0.));
#498=CARTESIAN_POINT('',(4.01128860729421,11.356796571256,0.));
#499=CARTESIAN_POINT('',(4.499631026832,11.261658805474,0.));
#500=CARTESIAN_POINT('',(4.74775813245978,11.237406181576,0.));
#501=CARTESIAN_POINT('',(5.25224186754021,11.237406181576,0.));
#502=CARTESIAN_POINT('',(0.,0.,0.));
#503=CARTESIAN_POINT('',(7.58576882854434,0.,0.));
#504=CARTESIAN_POINT('',(7.58576882854434,0.,18.1206147584282));
#505=CARTESIAN_POINT('',(7.58576882854434,0.,0.));
#506=CARTESIAN_POINT('',(8.26980911519568,0.,0.));
#507=CARTESIAN_POINT('',(8.26980911519568,0.,18.));
#508=CARTESIAN_POINT('',(8.26980911519568,0.,0.));
#509=CARTESIAN_POINT('',(14.1320377358868,0.,0.));
#510=CARTESIAN_POINT('',(14.1320377358868,0.,18.));
#511=CARTESIAN_POINT('',(0.,0.,0.));
#512=CARTESIAN_POINT('',(15.1802578616708,0.,0.));
#513=CARTESIAN_POINT('',(15.1802578616708,0.,17.8888888888889));
#514=CARTESIAN_POINT('',(14.1320377358868,0.,0.));
#515=CARTESIAN_POINT('',(31.951779874216,0.,0.));
#516=CARTESIAN_POINT('',(31.951779874216,0.,17.8888888888889));
#517=CARTESIAN_POINT('',(23.5660188679434,0.,0.));
#518=CARTESIAN_POINT('',(33.,0.,0.));
#519=(
GEOMETRIC_REPRESENTATION_CONTEXT(3)
GLOBAL_UNCERTAINTY_ASSIGNED_CONTEXT((#520))
GLOBAL_UNIT_ASSIGNED_CONTEXT((#526,#522,#521))
REPRESENTATION_CONTEXT('model1','TOP_LEVEL_ASSEMBLY_PART')
);
#520=UNCERTAINTY_MEASURE_WITH_UNIT(LENGTH_MEASURE(2.E-5),#526,
'DISTANCE_ACCURACY_VALUE','Maximum Tolerance applied to model');
#521=(
NAMED_UNIT(*)
SI_UNIT($,.STERADIAN.)
SOLID_ANGLE_UNIT()
);
#522=(
CONVERSION_BASED_UNIT('DEGREE',#524)
NAMED_UNIT(#523)
PLANE_ANGLE_UNIT()
);
#523=DIMENSIONAL_EXPONENTS(0.,0.,0.,0.,0.,0.,0.);
#524=PLANE_ANGLE_MEASURE_WITH_UNIT(PLANE_ANGLE_MEASURE(0.0174532925),#525);
#525=(
NAMED_UNIT(*)
PLANE_ANGLE_UNIT()
SI_UNIT($,.RADIAN.)
);
#526=(
LENGTH_UNIT()
NAMED_UNIT(*)
SI_UNIT(.MILLI.,.METRE.)
);
ENDSEC;
END-ISO-10303-21;
