ISO-10303-21;
HEADER;
/* Generated by software containing ST-Developer
 * from STEP Tools, Inc. (www.steptools.com) 
 */
/* OPTION: using custom schema-name function */

FILE_DESCRIPTION(
/* description */ (''),
/* implementation_level */ '2;1');

FILE_NAME(
/* name */ 'model1.stp',
/* time_stamp */ '2023-11-03T11:11:35+03:00',
/* author */ (''),
/* organization */ (''),
/* preprocessor_version */ 'ST-DEVELOPER v19.4',
/* originating_system */ 'SIEMENS PLM Software NX2306.3001',
/* authorisation */ '');

FILE_SCHEMA (('AUTOMOTIVE_DESIGN { 1 0 10303 214 3 1 1 1 }'));
ENDSEC;

DATA;
#10=PROPERTY_DEFINITION_REPRESENTATION(#14,#12);
#11=PROPERTY_DEFINITION_REPRESENTATION(#15,#13);
#12=REPRESENTATION('',(#16),#492);
#13=REPRESENTATION('',(#17),#492);
#14=PROPERTY_DEFINITION('pmi validation property','',#21);
#15=PROPERTY_DEFINITION('pmi validation property','',#21);
#16=VALUE_REPRESENTATION_ITEM('number of annotations',COUNT_MEASURE(0.));
#17=VALUE_REPRESENTATION_ITEM('number of views',COUNT_MEASURE(0.));
#18=SHAPE_REPRESENTATION_RELATIONSHIP('None',
'relationship between model1_objects-None and model1_objects-None',#30,
#19);
#19=ADVANCED_BREP_SHAPE_REPRESENTATION('model1_objects-None',(#133,#134),
#492);
#20=SHAPE_DEFINITION_REPRESENTATION(#21,#30);
#21=PRODUCT_DEFINITION_SHAPE('','',#22);
#22=PRODUCT_DEFINITION(' ','',#24,#23);
#23=PRODUCT_DEFINITION_CONTEXT('part definition',#29,'design');
#24=PRODUCT_DEFINITION_FORMATION_WITH_SPECIFIED_SOURCE(' ',' ',#26,
 .NOT_KNOWN.);
#25=PRODUCT_RELATED_PRODUCT_CATEGORY('part','',(#26));
#26=PRODUCT('model1_objects','model1_objects',' ',(#27));
#27=PRODUCT_CONTEXT(' ',#29,'mechanical');
#28=APPLICATION_PROTOCOL_DEFINITION('international standard',
'automotive_design',2010,#29);
#29=APPLICATION_CONTEXT(
'core data for automotive mechanical design processes');
#30=SHAPE_REPRESENTATION('model1_objects-None',(#251),#492);
#31=OVER_RIDING_STYLED_ITEM('',(#62),#139,#59);
#32=OVER_RIDING_STYLED_ITEM('',(#63),#140,#59);
#33=OVER_RIDING_STYLED_ITEM('',(#64),#141,#59);
#34=OVER_RIDING_STYLED_ITEM('',(#65),#142,#59);
#35=OVER_RIDING_STYLED_ITEM('',(#66),#143,#59);
#36=OVER_RIDING_STYLED_ITEM('',(#67),#144,#59);
#37=OVER_RIDING_STYLED_ITEM('',(#68),#145,#59);
#38=OVER_RIDING_STYLED_ITEM('',(#69),#146,#59);
#39=OVER_RIDING_STYLED_ITEM('',(#70),#147,#59);
#40=OVER_RIDING_STYLED_ITEM('',(#71),#148,#59);
#41=COLOUR_RGB('Medium Steel',0.611764705882353,0.658823529411765,0.670588235294118);
#42=COLOUR_RGB('silver gray',0.6,0.6,0.6);
#43=SURFACE_OF_REVOLUTION('',#45,#44);
#44=AXIS1_PLACEMENT('',#478,#296);
#45=B_SPLINE_CURVE_WITH_KNOTS('',3,(#412,#413,#414,#415,#416,#417,#418,
#419,#420,#421,#422,#423,#424,#425,#426,#427,#428,#429,#430,#431,#432,#433,
#434,#435,#436,#437,#438,#439,#440,#441,#442,#443,#444,#445,#446,#447,#448,
#449,#450,#451,#452,#453,#454,#455,#456,#457,#458,#459,#460,#461,#462,#463,
#464,#465,#466,#467,#468,#469,#470,#471,#472,#473,#474,#475,#476,#477),
 .UNSPECIFIED.,.T.,.F.,(2,2,2,2,2,2,2,2,2,2,2,2,2,2,2,2,2,2,2,2,2,2,2,2,
2,2,2,2,2,2,2,2,2,2,2),(-0.03125,0.,0.0312499999999996,0.0624999999999993,
0.0937499999999989,0.124999999999998,0.15625,0.1875,0.218749999999998,0.249999999999998,
0.28125,0.3125,0.34375,0.375,0.40625,0.4375,0.46875,0.5,0.53125,0.5625,
0.59375,0.625,0.65625,0.6875,0.71875,0.75,0.78125,0.8125,0.84375,0.875,
0.90625,0.9375,0.96875,1.,1.03125),.UNSPECIFIED.);
#46=CONICAL_SURFACE('',#261,12.7836607297052,74.9999999996436);
#47=VERTEX_LOOP('',#223);
#48=CYLINDRICAL_SURFACE('',#259,18.);
#49=CYLINDRICAL_SURFACE('',#266,19.);
#50=PLANE('',#257);
#51=FACE_OUTER_BOUND('',#179,.T.);
#52=TOROIDAL_SURFACE('',#256,17.,1.);
#53=TOROIDAL_SURFACE('',#264,21.,1.99999999999995);
#54=TOROIDAL_SURFACE('',#268,14.,5.);
#55=TOROIDAL_SURFACE('',#270,57.5,40.);
#56=TOROIDAL_SURFACE('',#271,13.,5.);
#57=PRESENTATION_LAYER_ASSIGNMENT('1','Layer 1',(#133,#134));
#58=STYLED_ITEM('',(#60),#133);
#59=STYLED_ITEM('',(#61),#134);
#60=PRESENTATION_STYLE_ASSIGNMENT((#72));
#61=PRESENTATION_STYLE_ASSIGNMENT((#73));
#62=PRESENTATION_STYLE_ASSIGNMENT((#74));
#63=PRESENTATION_STYLE_ASSIGNMENT((#75));
#64=PRESENTATION_STYLE_ASSIGNMENT((#76));
#65=PRESENTATION_STYLE_ASSIGNMENT((#77));
#66=PRESENTATION_STYLE_ASSIGNMENT((#78));
#67=PRESENTATION_STYLE_ASSIGNMENT((#79));
#68=PRESENTATION_STYLE_ASSIGNMENT((#80));
#69=PRESENTATION_STYLE_ASSIGNMENT((#81));
#70=PRESENTATION_STYLE_ASSIGNMENT((#82));
#71=PRESENTATION_STYLE_ASSIGNMENT((#83));
#72=SURFACE_STYLE_USAGE(.BOTH.,#84);
#73=SURFACE_STYLE_USAGE(.BOTH.,#85);
#74=SURFACE_STYLE_USAGE(.BOTH.,#86);
#75=SURFACE_STYLE_USAGE(.BOTH.,#87);
#76=SURFACE_STYLE_USAGE(.BOTH.,#88);
#77=SURFACE_STYLE_USAGE(.BOTH.,#89);
#78=SURFACE_STYLE_USAGE(.BOTH.,#90);
#79=SURFACE_STYLE_USAGE(.BOTH.,#91);
#80=SURFACE_STYLE_USAGE(.BOTH.,#92);
#81=SURFACE_STYLE_USAGE(.BOTH.,#93);
#82=SURFACE_STYLE_USAGE(.BOTH.,#94);
#83=SURFACE_STYLE_USAGE(.BOTH.,#95);
#84=SURFACE_SIDE_STYLE('',(#96));
#85=SURFACE_SIDE_STYLE('',(#97));
#86=SURFACE_SIDE_STYLE('',(#98));
#87=SURFACE_SIDE_STYLE('',(#99));
#88=SURFACE_SIDE_STYLE('',(#100));
#89=SURFACE_SIDE_STYLE('',(#101));
#90=SURFACE_SIDE_STYLE('',(#102));
#91=SURFACE_SIDE_STYLE('',(#103));
#92=SURFACE_SIDE_STYLE('',(#104));
#93=SURFACE_SIDE_STYLE('',(#105));
#94=SURFACE_SIDE_STYLE('',(#106));
#95=SURFACE_SIDE_STYLE('',(#107));
#96=SURFACE_STYLE_FILL_AREA(#108);
#97=SURFACE_STYLE_FILL_AREA(#109);
#98=SURFACE_STYLE_FILL_AREA(#110);
#99=SURFACE_STYLE_FILL_AREA(#111);
#100=SURFACE_STYLE_FILL_AREA(#112);
#101=SURFACE_STYLE_FILL_AREA(#113);
#102=SURFACE_STYLE_FILL_AREA(#114);
#103=SURFACE_STYLE_FILL_AREA(#115);
#104=SURFACE_STYLE_FILL_AREA(#116);
#105=SURFACE_STYLE_FILL_AREA(#117);
#106=SURFACE_STYLE_FILL_AREA(#118);
#107=SURFACE_STYLE_FILL_AREA(#119);
#108=FILL_AREA_STYLE('',(#120));
#109=FILL_AREA_STYLE('',(#121));
#110=FILL_AREA_STYLE('',(#122));
#111=FILL_AREA_STYLE('',(#123));
#112=FILL_AREA_STYLE('',(#124));
#113=FILL_AREA_STYLE('',(#125));
#114=FILL_AREA_STYLE('',(#126));
#115=FILL_AREA_STYLE('',(#127));
#116=FILL_AREA_STYLE('',(#128));
#117=FILL_AREA_STYLE('',(#129));
#118=FILL_AREA_STYLE('',(#130));
#119=FILL_AREA_STYLE('',(#131));
#120=FILL_AREA_STYLE_COLOUR('',#132);
#121=FILL_AREA_STYLE_COLOUR('',#41);
#122=FILL_AREA_STYLE_COLOUR('',#42);
#123=FILL_AREA_STYLE_COLOUR('',#42);
#124=FILL_AREA_STYLE_COLOUR('',#42);
#125=FILL_AREA_STYLE_COLOUR('',#42);
#126=FILL_AREA_STYLE_COLOUR('',#42);
#127=FILL_AREA_STYLE_COLOUR('',#42);
#128=FILL_AREA_STYLE_COLOUR('',#42);
#129=FILL_AREA_STYLE_COLOUR('',#42);
#130=FILL_AREA_STYLE_COLOUR('',#42);
#131=FILL_AREA_STYLE_COLOUR('',#42);
#132=DRAUGHTING_PRE_DEFINED_COLOUR('yellow');
#133=MANIFOLD_SOLID_BREP('',#135);
#134=MANIFOLD_SOLID_BREP('',#136);
#135=CLOSED_SHELL('',(#137,#138));
#136=CLOSED_SHELL('',(#139,#140,#141,#142,#143,#144,#145,#146,#147,#148));
#137=ADVANCED_FACE('',(#151,#152),#149,.F.);
#138=ADVANCED_FACE('',(#153,#154),#150,.F.);
#139=ADVANCED_FACE('',(#155,#156),#52,.T.);
#140=ADVANCED_FACE('',(#51),#50,.F.);
#141=ADVANCED_FACE('',(#157,#158),#48,.T.);
#142=ADVANCED_FACE('',(#159,#160),#46,.F.);
#143=ADVANCED_FACE('',(#161,#162),#43,.T.);
#144=ADVANCED_FACE('',(#163,#164),#53,.F.);
#145=ADVANCED_FACE('',(#165,#166),#49,.T.);
#146=ADVANCED_FACE('',(#167,#168),#54,.T.);
#147=ADVANCED_FACE('',(#169,#170),#55,.F.);
#148=ADVANCED_FACE('',(#171,#172),#56,.T.);
#149=(
BOUNDED_SURFACE()
B_SPLINE_SURFACE(3,3,((#320,#321,#322,#323,#324,#325,#326),(#327,#328,#329,
#330,#331,#332,#333),(#334,#335,#336,#337,#338,#339,#340),(#341,#342,#343,
#344,#345,#346,#347),(#348,#349,#350,#351,#352,#353,#354),(#355,#356,#357,
#358,#359,#360,#361),(#362,#363,#364,#365,#366,#367,#368)),
 .UNSPECIFIED.,.T.,.F.,.F.)
B_SPLINE_SURFACE_WITH_KNOTS((1,3,3,3,1),(4,3,4),(-0.5,0.,0.5,1.,1.5),(0.,
0.5,1.),.UNSPECIFIED.)
GEOMETRIC_REPRESENTATION_ITEM()
RATIONAL_B_SPLINE_SURFACE(((1.,0.572130345377255,0.572130345377255,1.,0.572130345377255,
0.572130345377255,1.),(0.333333333333334,0.190710115125752,0.190710115125752,
0.333333333333334,0.190710115125752,0.190710115125752,0.333333333333334),
(0.333333333333334,0.190710115125752,0.190710115125752,0.333333333333334,
0.190710115125752,0.190710115125752,0.333333333333334),(1.,0.572130345377255,
0.572130345377255,1.,0.572130345377255,0.572130345377255,1.),(0.333333333333334,
0.190710115125752,0.190710115125752,0.333333333333334,0.190710115125752,
0.190710115125752,0.333333333333334),(0.333333333333334,0.190710115125752,
0.190710115125752,0.333333333333334,0.190710115125752,0.190710115125752,
0.333333333333334),(1.,0.572130345377255,0.572130345377255,1.,0.572130345377255,
0.572130345377255,1.)))
REPRESENTATION_ITEM('')
SURFACE()
);
#150=(
BOUNDED_SURFACE()
B_SPLINE_SURFACE(3,3,((#369,#370,#371,#372),(#373,#374,#375,#376),(#377,
#378,#379,#380),(#381,#382,#383,#384),(#385,#386,#387,#388),(#389,#390,
#391,#392),(#393,#394,#395,#396)),.UNSPECIFIED.,.T.,.F.,.F.)
B_SPLINE_SURFACE_WITH_KNOTS((1,3,3,3,1),(4,4),(-0.5,0.,0.5,1.,1.5),(0.,
1.),.UNSPECIFIED.)
GEOMETRIC_REPRESENTATION_ITEM()
RATIONAL_B_SPLINE_SURFACE(((1.,0.828927961116685,0.828927961116685,1.),
(0.333333333333334,0.276309320372229,0.276309320372229,0.333333333333334),
(0.333333333333334,0.276309320372229,0.276309320372229,0.333333333333334),
(1.,0.828927961116685,0.828927961116685,1.),(0.333333333333334,0.276309320372229,
0.276309320372229,0.333333333333334),(0.333333333333334,0.276309320372229,
0.276309320372229,0.333333333333334),(1.,0.828927961116685,0.828927961116685,
1.)))
REPRESENTATION_ITEM('')
SURFACE()
);
#151=FACE_BOUND('',#173,.T.);
#152=FACE_BOUND('',#174,.T.);
#153=FACE_BOUND('',#175,.T.);
#154=FACE_BOUND('',#176,.T.);
#155=FACE_BOUND('',#177,.T.);
#156=FACE_BOUND('',#178,.T.);
#157=FACE_BOUND('',#180,.T.);
#158=FACE_BOUND('',#181,.T.);
#159=FACE_BOUND('',#182,.T.);
#160=FACE_BOUND('',#47,.T.);
#161=FACE_BOUND('',#183,.T.);
#162=FACE_BOUND('',#184,.T.);
#163=FACE_BOUND('',#185,.T.);
#164=FACE_BOUND('',#186,.T.);
#165=FACE_BOUND('',#187,.T.);
#166=FACE_BOUND('',#188,.T.);
#167=FACE_BOUND('',#189,.T.);
#168=FACE_BOUND('',#190,.T.);
#169=FACE_BOUND('',#191,.T.);
#170=FACE_BOUND('',#192,.T.);
#171=FACE_BOUND('',#193,.T.);
#172=FACE_BOUND('',#194,.T.);
#173=EDGE_LOOP('',(#195));
#174=EDGE_LOOP('',(#196));
#175=EDGE_LOOP('',(#197));
#176=EDGE_LOOP('',(#198));
#177=EDGE_LOOP('',(#199));
#178=EDGE_LOOP('',(#200));
#179=EDGE_LOOP('',(#201));
#180=EDGE_LOOP('',(#202));
#181=EDGE_LOOP('',(#203));
#182=EDGE_LOOP('',(#204));
#183=EDGE_LOOP('',(#205));
#184=EDGE_LOOP('',(#206));
#185=EDGE_LOOP('',(#207));
#186=EDGE_LOOP('',(#208));
#187=EDGE_LOOP('',(#209));
#188=EDGE_LOOP('',(#210));
#189=EDGE_LOOP('',(#211));
#190=EDGE_LOOP('',(#212));
#191=EDGE_LOOP('',(#213));
#192=EDGE_LOOP('',(#214));
#193=EDGE_LOOP('',(#215));
#194=EDGE_LOOP('',(#216));
#195=ORIENTED_EDGE('',*,*,#229,.T.);
#196=ORIENTED_EDGE('',*,*,#230,.F.);
#197=ORIENTED_EDGE('',*,*,#230,.T.);
#198=ORIENTED_EDGE('',*,*,#229,.F.);
#199=ORIENTED_EDGE('',*,*,#231,.T.);
#200=ORIENTED_EDGE('',*,*,#232,.F.);
#201=ORIENTED_EDGE('',*,*,#231,.F.);
#202=ORIENTED_EDGE('',*,*,#232,.T.);
#203=ORIENTED_EDGE('',*,*,#233,.F.);
#204=ORIENTED_EDGE('',*,*,#234,.T.);
#205=ORIENTED_EDGE('',*,*,#234,.F.);
#206=ORIENTED_EDGE('',*,*,#235,.T.);
#207=ORIENTED_EDGE('',*,*,#235,.F.);
#208=ORIENTED_EDGE('',*,*,#236,.T.);
#209=ORIENTED_EDGE('',*,*,#236,.F.);
#210=ORIENTED_EDGE('',*,*,#237,.T.);
#211=ORIENTED_EDGE('',*,*,#237,.F.);
#212=ORIENTED_EDGE('',*,*,#238,.T.);
#213=ORIENTED_EDGE('',*,*,#238,.F.);
#214=ORIENTED_EDGE('',*,*,#239,.T.);
#215=ORIENTED_EDGE('',*,*,#239,.F.);
#216=ORIENTED_EDGE('',*,*,#233,.T.);
#217=VERTEX_POINT('',#317);
#218=VERTEX_POINT('',#319);
#219=VERTEX_POINT('',#398);
#220=VERTEX_POINT('',#400);
#221=VERTEX_POINT('',#404);
#222=VERTEX_POINT('',#407);
#223=VERTEX_POINT('',#408);
#224=VERTEX_POINT('',#411);
#225=VERTEX_POINT('',#480);
#226=VERTEX_POINT('',#483);
#227=VERTEX_POINT('',#486);
#228=VERTEX_POINT('',#489);
#229=EDGE_CURVE('',#217,#217,#240,.T.);
#230=EDGE_CURVE('',#218,#218,#241,.T.);
#231=EDGE_CURVE('',#219,#219,#242,.T.);
#232=EDGE_CURVE('',#220,#220,#243,.T.);
#233=EDGE_CURVE('',#221,#221,#244,.T.);
#234=EDGE_CURVE('',#222,#222,#245,.T.);
#235=EDGE_CURVE('',#224,#224,#246,.T.);
#236=EDGE_CURVE('',#225,#225,#247,.T.);
#237=EDGE_CURVE('',#226,#226,#248,.T.);
#238=EDGE_CURVE('',#227,#227,#249,.T.);
#239=EDGE_CURVE('',#228,#228,#250,.T.);
#240=CIRCLE('',#252,5.);
#241=CIRCLE('',#253,5.);
#242=CIRCLE('',#254,17.);
#243=CIRCLE('',#255,18.);
#244=CIRCLE('',#258,18.);
#245=CIRCLE('',#260,12.7836607297052);
#246=CIRCLE('',#262,19.1291415908341);
#247=CIRCLE('',#263,19.);
#248=CIRCLE('',#265,19.);
#249=CIRCLE('',#267,18.8333333333333);
#250=CIRCLE('',#269,17.9444444444444);
#251=AXIS2_PLACEMENT_3D('',#315,#272,#273);
#252=AXIS2_PLACEMENT_3D('',#316,#274,#275);
#253=AXIS2_PLACEMENT_3D('',#318,#276,#277);
#254=AXIS2_PLACEMENT_3D('',#397,#278,#279);
#255=AXIS2_PLACEMENT_3D('',#399,#280,#281);
#256=AXIS2_PLACEMENT_3D('',#401,#282,#283);
#257=AXIS2_PLACEMENT_3D('',#402,#284,#285);
#258=AXIS2_PLACEMENT_3D('',#403,#286,#287);
#259=AXIS2_PLACEMENT_3D('',#405,#288,#289);
#260=AXIS2_PLACEMENT_3D('',#406,#290,#291);
#261=AXIS2_PLACEMENT_3D('',#409,#292,#293);
#262=AXIS2_PLACEMENT_3D('',#410,#294,#295);
#263=AXIS2_PLACEMENT_3D('',#479,#297,#298);
#264=AXIS2_PLACEMENT_3D('',#481,#299,#300);
#265=AXIS2_PLACEMENT_3D('',#482,#301,#302);
#266=AXIS2_PLACEMENT_3D('',#484,#303,#304);
#267=AXIS2_PLACEMENT_3D('',#485,#305,#306);
#268=AXIS2_PLACEMENT_3D('',#487,#307,#308);
#269=AXIS2_PLACEMENT_3D('',#488,#309,#310);
#270=AXIS2_PLACEMENT_3D('',#490,#311,#312);
#271=AXIS2_PLACEMENT_3D('',#491,#313,#314);
#272=DIRECTION('',(0.,0.,1.));
#273=DIRECTION('',(1.,0.,0.));
#274=DIRECTION('',(0.,0.994444401457431,0.105263157894737));
#275=DIRECTION('',(1.,0.,0.));
#276=DIRECTION('',(0.,0.,1.));
#277=DIRECTION('',(1.,0.,0.));
#278=DIRECTION('',(-1.,0.,0.));
#279=DIRECTION('',(0.,0.,1.));
#280=DIRECTION('',(-1.,0.,0.));
#281=DIRECTION('',(0.,0.,1.));
#282=DIRECTION('',(-1.,0.,0.));
#283=DIRECTION('',(0.,0.,1.));
#284=DIRECTION('',(-1.,0.,0.));
#285=DIRECTION('',(0.,0.,1.));
#286=DIRECTION('',(-1.,0.,0.));
#287=DIRECTION('',(0.,0.,1.));
#288=DIRECTION('',(-1.,0.,0.));
#289=DIRECTION('',(0.,0.,1.));
#290=DIRECTION('',(-1.,0.,0.));
#291=DIRECTION('',(0.,0.,1.));
#292=DIRECTION('',(-1.,0.,0.));
#293=DIRECTION('',(1.19281986655622E-17,0.,1.));
#294=DIRECTION('',(-1.,0.,0.));
#295=DIRECTION('',(0.,0.,1.));
#296=DIRECTION('',(-1.,0.,0.));
#297=DIRECTION('',(-1.,0.,0.));
#298=DIRECTION('',(0.,0.,1.));
#299=DIRECTION('',(-1.,0.,0.));
#300=DIRECTION('',(0.,0.,1.));
#301=DIRECTION('',(-1.,0.,0.));
#302=DIRECTION('',(0.,0.,1.));
#303=DIRECTION('',(-1.,0.,0.));
#304=DIRECTION('',(0.,0.,1.));
#305=DIRECTION('',(-1.,0.,0.));
#306=DIRECTION('',(0.,0.,1.));
#307=DIRECTION('',(-1.,0.,0.));
#308=DIRECTION('',(0.,0.,1.));
#309=DIRECTION('',(-1.,0.,0.));
#310=DIRECTION('',(0.,0.,1.));
#311=DIRECTION('',(-1.,0.,0.));
#312=DIRECTION('',(0.,0.,1.));
#313=DIRECTION('',(-1.,0.,0.));
#314=DIRECTION('',(0.,0.,1.));
#315=CARTESIAN_POINT('',(0.,0.,0.));
#316=CARTESIAN_POINT('',(5.,0.314717998704336,16.0267892574306));
#317=CARTESIAN_POINT('',(10.,0.314717998704336,16.0267892574306));
#318=CARTESIAN_POINT('',(5.,-15.90462264,2.));
#319=CARTESIAN_POINT('',(10.,-15.90462264,2.));
#320=CARTESIAN_POINT('',(10.,-15.90462264,2.));
#321=CARTESIAN_POINT('',(10.,-18.080459215273,-15.3029298280136));
#322=CARTESIAN_POINT('',(10.,-2.70501254706262,-23.5322241591502));
#323=CARTESIAN_POINT('',(10.,10.4856561978383,-12.1246870236528));
#324=CARTESIAN_POINT('',(10.,23.6763249427393,-0.717149888155413));
#325=CARTESIAN_POINT('',(10.,17.7505551239594,15.6844017911918));
#326=CARTESIAN_POINT('',(10.,0.314717998704335,16.0267892574306));
#327=CARTESIAN_POINT('',(10.,-5.90462263999999,2.));
#328=CARTESIAN_POINT('',(10.,-8.08045921527303,-4.42374695164855));
#329=CARTESIAN_POINT('',(10.,-2.86232463373091,-8.75616673625211));
#330=CARTESIAN_POINT('',(10.,3.05173678108805,-5.43612648305343));
#331=CARTESIAN_POINT('',(10.,8.96579819590703,-2.11608622985477));
#332=CARTESIAN_POINT('',(10.,7.98444419907397,4.59478063173693));
#333=CARTESIAN_POINT('',(10.,1.3673495776517,6.08234524285627));
#334=CARTESIAN_POINT('',(-5.10076676829453E-16,-5.90462263999999,2.));
#335=CARTESIAN_POINT('',(-5.10076676829454E-16,-8.08045921527303,-4.42374695164855));
#336=CARTESIAN_POINT('',(-5.10076676829454E-16,-2.86232463373091,-8.75616673625211));
#337=CARTESIAN_POINT('',(-5.10076676829453E-16,3.05173678108805,-5.43612648305343));
#338=CARTESIAN_POINT('',(-5.10076676829454E-16,8.96579819590703,-2.11608622985477));
#339=CARTESIAN_POINT('',(-5.10076676829454E-16,7.98444419907397,4.59478063173693));
#340=CARTESIAN_POINT('',(-5.10076676829453E-16,1.3673495776517,6.08234524285627));
#341=CARTESIAN_POINT('',(-1.7347234759768E-15,-15.90462264,2.));
#342=CARTESIAN_POINT('',(-1.73472347597681E-15,-18.080459215273,-15.3029298280136));
#343=CARTESIAN_POINT('',(-1.73472347597681E-15,-2.70501254706262,-23.5322241591502));
#344=CARTESIAN_POINT('',(-1.7347234759768E-15,10.4856561978383,-12.1246870236528));
#345=CARTESIAN_POINT('',(-1.73472347597681E-15,23.6763249427393,-0.717149888155413));
#346=CARTESIAN_POINT('',(-1.73472347597681E-15,17.7505551239594,15.6844017911918));
#347=CARTESIAN_POINT('',(-1.7347234759768E-15,0.314717998704335,16.0267892574306));
#348=CARTESIAN_POINT('',(-2.95937027512416E-15,-25.90462264,2.));
#349=CARTESIAN_POINT('',(-2.95937027512416E-15,-28.080459215273,-26.1821127043787));
#350=CARTESIAN_POINT('',(-2.95937027512416E-15,-2.54770046039433,-38.3082815820484));
#351=CARTESIAN_POINT('',(-2.95937027512416E-15,17.9195756145886,-18.8132475642522));
#352=CARTESIAN_POINT('',(-2.95937027512416E-15,38.3868516895716,0.681786453543953));
#353=CARTESIAN_POINT('',(-2.95937027512416E-15,27.5166660488448,26.7740229506466));
#354=CARTESIAN_POINT('',(-2.95937027512416E-15,-0.737913580243038,25.9712332720049));
#355=CARTESIAN_POINT('',(10.,-25.90462264,2.));
#356=CARTESIAN_POINT('',(10.,-28.080459215273,-26.1821127043787));
#357=CARTESIAN_POINT('',(10.,-2.54770046039433,-38.3082815820484));
#358=CARTESIAN_POINT('',(10.,17.9195756145886,-18.8132475642522));
#359=CARTESIAN_POINT('',(10.,38.3868516895716,0.681786453543953));
#360=CARTESIAN_POINT('',(10.,27.5166660488448,26.7740229506466));
#361=CARTESIAN_POINT('',(10.,-0.737913580243038,25.9712332720049));
#362=CARTESIAN_POINT('',(10.,-15.90462264,2.));
#363=CARTESIAN_POINT('',(10.,-18.080459215273,-15.3029298280136));
#364=CARTESIAN_POINT('',(10.,-2.70501254706262,-23.5322241591502));
#365=CARTESIAN_POINT('',(10.,10.4856561978383,-12.1246870236528));
#366=CARTESIAN_POINT('',(10.,23.6763249427393,-0.717149888155413));
#367=CARTESIAN_POINT('',(10.,17.7505551239594,15.6844017911918));
#368=CARTESIAN_POINT('',(10.,0.314717998704335,16.0267892574306));
#369=CARTESIAN_POINT('',(10.,0.314717998704336,16.0267892574306));
#370=CARTESIAN_POINT('',(10.,-8.30654989171996,16.1960850616735));
#371=CARTESIAN_POINT('',(10.,-14.8287654920779,10.5555509761242));
#372=CARTESIAN_POINT('',(10.,-15.90462264,2.));
#373=CARTESIAN_POINT('',(10.,1.3673495776517,6.08234524285627));
#374=CARTESIAN_POINT('',(10.,-1.90451772517689,6.81788165126873));
#375=CARTESIAN_POINT('',(10.,-4.82876549207785,5.17626523651347));
#376=CARTESIAN_POINT('',(10.,-5.90462263999999,2.));
#377=CARTESIAN_POINT('',(-5.10076676829453E-16,1.3673495776517,6.08234524285627));
#378=CARTESIAN_POINT('',(-5.10076676829454E-16,-1.90451772517689,6.81788165126873));
#379=CARTESIAN_POINT('',(-5.10076676829454E-16,-4.82876549207785,5.17626523651347));
#380=CARTESIAN_POINT('',(-5.10076676829453E-16,-5.90462263999999,2.));
#381=CARTESIAN_POINT('',(-1.7347234759768E-15,0.314717998704336,16.0267892574306));
#382=CARTESIAN_POINT('',(-1.73472347597681E-15,-8.30654989171996,16.1960850616735));
#383=CARTESIAN_POINT('',(-1.73472347597681E-15,-14.8287654920779,10.5555509761242));
#384=CARTESIAN_POINT('',(-1.7347234759768E-15,-15.90462264,2.));
#385=CARTESIAN_POINT('',(-2.95937027512416E-15,-0.737913580243032,25.9712332720049));
#386=CARTESIAN_POINT('',(-2.95937027512416E-15,-14.708582058263,25.5742884720782));
#387=CARTESIAN_POINT('',(-2.95937027512416E-15,-24.8287654920778,15.934836715735));
#388=CARTESIAN_POINT('',(-2.95937027512416E-15,-25.90462264,2.));
#389=CARTESIAN_POINT('',(10.,-0.737913580243032,25.9712332720049));
#390=CARTESIAN_POINT('',(10.,-14.708582058263,25.5742884720782));
#391=CARTESIAN_POINT('',(10.,-24.8287654920778,15.934836715735));
#392=CARTESIAN_POINT('',(10.,-25.90462264,2.));
#393=CARTESIAN_POINT('',(10.,0.314717998704336,16.0267892574306));
#394=CARTESIAN_POINT('',(10.,-8.30654989171996,16.1960850616735));
#395=CARTESIAN_POINT('',(10.,-14.8287654920779,10.5555509761242));
#396=CARTESIAN_POINT('',(10.,-15.90462264,2.));
#397=CARTESIAN_POINT('',(40.,0.,0.));
#398=CARTESIAN_POINT('',(40.,0.,17.));
#399=CARTESIAN_POINT('',(39.,0.,0.));
#400=CARTESIAN_POINT('',(39.,0.,18.));
#401=CARTESIAN_POINT('',(39.,0.,0.));
#402=CARTESIAN_POINT('',(40.,17.,0.));
#403=CARTESIAN_POINT('',(33.,0.,0.));
#404=CARTESIAN_POINT('',(33.,0.,18.));
#405=CARTESIAN_POINT('',(0.,0.,0.));
#406=CARTESIAN_POINT('',(2.99999999995566,0.,0.));
#407=CARTESIAN_POINT('',(2.99999999995566,0.,12.7836607297052));
#408=CARTESIAN_POINT('',(6.42537156887886,0.,0.));
#409=CARTESIAN_POINT('',(2.99999999995566,0.,0.));
#410=CARTESIAN_POINT('',(7.22821087133501,0.,0.));
#411=CARTESIAN_POINT('',(7.22821087133501,0.,19.1291415908341));
#412=CARTESIAN_POINT('',(4.74760551150053,12.2281118071011,0.));
#413=CARTESIAN_POINT('',(5.25239448849947,12.2281118071011,0.));
#414=CARTESIAN_POINT('',(5.50223661682504,12.2524573470774,0.));
#415=CARTESIAN_POINT('',(5.99679000208273,12.349708763923,0.));
#416=CARTESIAN_POINT('',(6.23692917223041,12.4219093973346,0.));
#417=CARTESIAN_POINT('',(6.69777297869563,12.6103102506845,0.));
#418=CARTESIAN_POINT('',(6.92137908086728,12.7280459269554,0.));
#419=CARTESIAN_POINT('',(7.34023698100734,13.0045251077588,0.));
#420=CARTESIAN_POINT('',(7.53362107233361,13.1614202830632,0.));
#421=CARTESIAN_POINT('',(7.88862668580488,13.5121414235005,0.));
#422=CARTESIAN_POINT('',(8.05114631523377,13.70800241747,0.));
#423=CARTESIAN_POINT('',(8.3301153871584,14.1216871988171,0.));
#424=CARTESIAN_POINT('',(8.44842088748908,14.3407939537425,0.));
#425=CARTESIAN_POINT('',(8.64176634330898,14.8040616922523,0.));
#426=CARTESIAN_POINT('',(8.71522746728157,15.0457954979996,0.));
#427=CARTESIAN_POINT('',(8.81230145681262,15.5339783009504,0.));
#428=CARTESIAN_POINT('',(8.83686749101046,15.7841079782526,0.));
#429=CARTESIAN_POINT('',(8.83559163814496,16.2873763898674,0.));
#430=CARTESIAN_POINT('',(8.81007223842356,16.5352015166903,0.));
#431=CARTESIAN_POINT('',(8.71087667766381,17.0234795016056,0.));
#432=CARTESIAN_POINT('',(8.6358816757979,17.2664504385961,0.));
#433=CARTESIAN_POINT('',(8.44190319135109,17.7270591454038,0.));
#434=CARTESIAN_POINT('',(8.32330743516493,17.9458004176438,0.));
#435=CARTESIAN_POINT('',(8.04292358545506,18.3601678727047,0.));
#436=CARTESIAN_POINT('',(7.88052328231773,18.5554005922842,0.));
#437=CARTESIAN_POINT('',(7.52620209141052,18.9053606165902,0.));
#438=CARTESIAN_POINT('',(7.33280454908307,19.0625682959522,0.));
#439=CARTESIAN_POINT('',(6.91249032251514,19.3402949009612,0.));
#440=CARTESIAN_POINT('',(6.69072649593791,19.4571722297131,0.));
#441=CARTESIAN_POINT('',(6.23017070389367,19.6458175662781,0.));
#442=CARTESIAN_POINT('',(5.98820095102459,19.7185421035169,0.));
#443=CARTESIAN_POINT('',(5.49571718276149,19.815142045565,0.));
#444=CARTESIAN_POINT('',(5.24789905340418,19.8390114282587,0.));
#445=CARTESIAN_POINT('',(4.74917049217005,19.8388218836262,0.));
#446=CARTESIAN_POINT('',(4.49596285857525,19.813968801102,0.));
#447=CARTESIAN_POINT('',(4.00628680277711,19.7169890415478,0.));
#448=CARTESIAN_POINT('',(3.767923527007,19.6452958669686,0.));
#449=CARTESIAN_POINT('',(3.30432015118377,19.4548805491582,0.));
#450=CARTESIAN_POINT('',(3.08059580991215,19.3361207276951,0.));
#451=CARTESIAN_POINT('',(2.66555925855767,19.0610847338891,0.));
#452=CARTESIAN_POINT('',(2.47144109959975,18.9035937719951,0.));
#453=CARTESIAN_POINT('',(2.11311309970877,18.5485405367178,0.));
#454=CARTESIAN_POINT('',(1.95419158571441,18.3563299332294,0.));
#455=CARTESIAN_POINT('',(1.67545546919525,17.9435404054826,0.));
#456=CARTESIAN_POINT('',(1.55467873384625,17.7202708380284,0.));
#457=CARTESIAN_POINT('',(1.36137545047254,17.258566454698,0.));
#458=CARTESIAN_POINT('',(1.28828956797424,17.0206287322887,0.));
#459=CARTESIAN_POINT('',(1.18924793988484,16.5305826413491,0.));
#460=CARTESIAN_POINT('',(1.16391178663556,16.2776175405652,0.));
#461=CARTESIAN_POINT('',(1.16360622217256,15.7793437982306,0.));
#462=CARTESIAN_POINT('',(1.18785365183783,15.5312939870765,0.));
#463=CARTESIAN_POINT('',(1.28682063247179,15.0374429610131,0.));
#464=CARTESIAN_POINT('',(1.36058313855691,14.7976366302556,0.));
#465=CARTESIAN_POINT('',(1.55285006070775,14.3385593857461,0.));
#466=CARTESIAN_POINT('',(1.67305555110722,14.1160760285497,0.));
#467=CARTESIAN_POINT('',(1.95441048134782,13.7006998666757,0.));
#468=CARTESIAN_POINT('',(2.11373781678456,13.5094953192032,0.));
#469=CARTESIAN_POINT('',(2.46884173183724,13.1593015869384,0.));
#470=CARTESIAN_POINT('',(2.6667840756907,12.9993317510785,0.));
#471=CARTESIAN_POINT('',(3.08374639255654,12.7252381505832,0.));
#472=CARTESIAN_POINT('',(3.30396005766772,12.6093515018786,0.));
#473=CARTESIAN_POINT('',(3.76799250909275,12.4201511989317,0.));
#474=CARTESIAN_POINT('',(4.01076191784293,12.347922316054,0.));
#475=CARTESIAN_POINT('',(4.49934347644618,12.25245371812,0.));
#476=CARTESIAN_POINT('',(4.74760551150053,12.2281118071011,0.));
#477=CARTESIAN_POINT('',(5.25239448849947,12.2281118071011,0.));
#478=CARTESIAN_POINT('',(0.,0.,0.));
#479=CARTESIAN_POINT('',(7.93523902696477,0.,0.));
#480=CARTESIAN_POINT('',(7.93523902696477,0.,19.));
#481=CARTESIAN_POINT('',(7.93523902696481,0.,0.));
#482=CARTESIAN_POINT('',(14.7887372980672,0.,0.));
#483=CARTESIAN_POINT('',(14.7887372980672,0.,19.));
#484=CARTESIAN_POINT('',(0.,0.,0.));
#485=CARTESIAN_POINT('',(16.0689282560453,0.,0.));
#486=CARTESIAN_POINT('',(16.0689282560453,0.,18.8333333333333));
#487=CARTESIAN_POINT('',(14.7887372980672,0.,0.));
#488=CARTESIAN_POINT('',(32.25671732443,0.,0.));
#489=CARTESIAN_POINT('',(32.25671732443,0.,17.9444444444444));
#490=CARTESIAN_POINT('',(26.3104559198702,0.,0.));
#491=CARTESIAN_POINT('',(33.,0.,0.));
#492=(
GEOMETRIC_REPRESENTATION_CONTEXT(3)
GLOBAL_UNCERTAINTY_ASSIGNED_CONTEXT((#493))
GLOBAL_UNIT_ASSIGNED_CONTEXT((#499,#495,#494))
REPRESENTATION_CONTEXT('model1','TOP_LEVEL_ASSEMBLY_PART')
);
#493=UNCERTAINTY_MEASURE_WITH_UNIT(LENGTH_MEASURE(2.E-5),#499,
'DISTANCE_ACCURACY_VALUE','Maximum Tolerance applied to model');
#494=(
NAMED_UNIT(*)
SI_UNIT($,.STERADIAN.)
SOLID_ANGLE_UNIT()
);
#495=(
CONVERSION_BASED_UNIT('DEGREE',#497)
NAMED_UNIT(#496)
PLANE_ANGLE_UNIT()
);
#496=DIMENSIONAL_EXPONENTS(0.,0.,0.,0.,0.,0.,0.);
#497=PLANE_ANGLE_MEASURE_WITH_UNIT(PLANE_ANGLE_MEASURE(0.0174532925),#498);
#498=(
NAMED_UNIT(*)
PLANE_ANGLE_UNIT()
SI_UNIT($,.RADIAN.)
);
#499=(
LENGTH_UNIT()
NAMED_UNIT(*)
SI_UNIT(.MILLI.,.METRE.)
);
ENDSEC;
END-ISO-10303-21;
