ISO-10303-21;
HEADER;
/* Generated by software containing ST-Developer
 * from STEP Tools, Inc. (www.steptools.com) 
 */
/* OPTION: using custom schema-name function */

FILE_DESCRIPTION(
/* description */ (''),
/* implementation_level */ '2;1');

FILE_NAME(
/* name */ 'model1.stp',
/* time_stamp */ '2023-11-02T17:42:31+03:00',
/* author */ (''),
/* organization */ (''),
/* preprocessor_version */ 'ST-DEVELOPER v19.4',
/* originating_system */ 'SIEMENS PLM Software NX2306.3001',
/* authorisation */ '');

FILE_SCHEMA (('AUTOMOTIVE_DESIGN { 1 0 10303 214 3 1 1 1 }'));
ENDSEC;

DATA;
#10=PROPERTY_DEFINITION_REPRESENTATION(#14,#12);
#11=PROPERTY_DEFINITION_REPRESENTATION(#15,#13);
#12=REPRESENTATION('',(#16),#461);
#13=REPRESENTATION('',(#17),#461);
#14=PROPERTY_DEFINITION('pmi validation property','',#21);
#15=PROPERTY_DEFINITION('pmi validation property','',#21);
#16=VALUE_REPRESENTATION_ITEM('number of annotations',COUNT_MEASURE(0.));
#17=VALUE_REPRESENTATION_ITEM('number of views',COUNT_MEASURE(0.));
#18=SHAPE_REPRESENTATION_RELATIONSHIP('None',
'relationship between model1_objects-None and model1_objects-None',#30,
#19);
#19=ADVANCED_BREP_SHAPE_REPRESENTATION('model1_objects-None',(#125,#126),
#461);
#20=SHAPE_DEFINITION_REPRESENTATION(#21,#30);
#21=PRODUCT_DEFINITION_SHAPE('','',#22);
#22=PRODUCT_DEFINITION(' ','',#24,#23);
#23=PRODUCT_DEFINITION_CONTEXT('part definition',#29,'design');
#24=PRODUCT_DEFINITION_FORMATION_WITH_SPECIFIED_SOURCE(' ',' ',#26,
 .NOT_KNOWN.);
#25=PRODUCT_RELATED_PRODUCT_CATEGORY('part','',(#26));
#26=PRODUCT('model1_objects','model1_objects',' ',(#27));
#27=PRODUCT_CONTEXT(' ',#29,'mechanical');
#28=APPLICATION_PROTOCOL_DEFINITION('international standard',
'automotive_design',2010,#29);
#29=APPLICATION_CONTEXT(
'core data for automotive mechanical design processes');
#30=SHAPE_REPRESENTATION('model1_objects-None',(#233),#461);
#31=OVER_RIDING_STYLED_ITEM('',(#60),#131,#57);
#32=OVER_RIDING_STYLED_ITEM('',(#61),#132,#57);
#33=OVER_RIDING_STYLED_ITEM('',(#62),#133,#57);
#34=OVER_RIDING_STYLED_ITEM('',(#63),#134,#57);
#35=OVER_RIDING_STYLED_ITEM('',(#64),#135,#57);
#36=OVER_RIDING_STYLED_ITEM('',(#65),#136,#57);
#37=OVER_RIDING_STYLED_ITEM('',(#66),#137,#57);
#38=OVER_RIDING_STYLED_ITEM('',(#67),#138,#57);
#39=OVER_RIDING_STYLED_ITEM('',(#68),#139,#57);
#40=COLOUR_RGB('Medium Steel',0.611764705882353,0.658823529411765,0.670588235294118);
#41=COLOUR_RGB('silver gray',0.6,0.6,0.6);
#42=CONICAL_SURFACE('',#251,16.7184726907938,74.9999999993609);
#43=VERTEX_LOOP('',#212);
#44=SURFACE_OF_REVOLUTION('',#46,#45);
#45=AXIS1_PLACEMENT('',#458,#288);
#46=B_SPLINE_CURVE_WITH_KNOTS('',3,(#396,#397,#398,#399,#400,#401,#402,
#403,#404,#405,#406,#407,#408,#409,#410,#411,#412,#413,#414,#415,#416,#417,
#418,#419,#420,#421,#422,#423,#424,#425,#426,#427,#428,#429,#430,#431,#432,
#433,#434,#435,#436,#437,#438,#439,#440,#441,#442,#443,#444,#445,#446,#447,
#448,#449,#450,#451,#452,#453,#454,#455,#456,#457),.UNSPECIFIED.,.T.,.F.,
(2,2,2,2,2,2,2,2,2,2,2,2,2,2,2,2,2,2,2,2,2,2,2,2,2,2,2,2,2,2,2,2,2),(-0.03125,
0.,0.0625,0.09375,0.125,0.15625,0.1875,0.21875,0.25,0.28125,0.3125,0.34375,
0.375,0.40625,0.4375,0.46875,0.5,0.53125,0.5625,0.59375,0.625,0.65625,0.6875,
0.71875,0.75,0.8125,0.84375,0.875,0.90625,0.9375,0.96875,1.,1.0625),
 .UNSPECIFIED.);
#47=TOROIDAL_SURFACE('',#241,19.5,1.5);
#48=TOROIDAL_SURFACE('',#243,16.,5.);
#49=TOROIDAL_SURFACE('',#245,70.2,50.);
#50=TOROIDAL_SURFACE('',#247,18.,5.);
#51=PLANE('',#240);
#52=FACE_OUTER_BOUND('',#168,.T.);
#53=CYLINDRICAL_SURFACE('',#238,21.);
#54=CYLINDRICAL_SURFACE('',#249,23.);
#55=PRESENTATION_LAYER_ASSIGNMENT('1','Layer 1',(#125,#126));
#56=STYLED_ITEM('',(#58),#125);
#57=STYLED_ITEM('',(#59),#126);
#58=PRESENTATION_STYLE_ASSIGNMENT((#69));
#59=PRESENTATION_STYLE_ASSIGNMENT((#70));
#60=PRESENTATION_STYLE_ASSIGNMENT((#71));
#61=PRESENTATION_STYLE_ASSIGNMENT((#72));
#62=PRESENTATION_STYLE_ASSIGNMENT((#73));
#63=PRESENTATION_STYLE_ASSIGNMENT((#74));
#64=PRESENTATION_STYLE_ASSIGNMENT((#75));
#65=PRESENTATION_STYLE_ASSIGNMENT((#76));
#66=PRESENTATION_STYLE_ASSIGNMENT((#77));
#67=PRESENTATION_STYLE_ASSIGNMENT((#78));
#68=PRESENTATION_STYLE_ASSIGNMENT((#79));
#69=SURFACE_STYLE_USAGE(.BOTH.,#80);
#70=SURFACE_STYLE_USAGE(.BOTH.,#81);
#71=SURFACE_STYLE_USAGE(.BOTH.,#82);
#72=SURFACE_STYLE_USAGE(.BOTH.,#83);
#73=SURFACE_STYLE_USAGE(.BOTH.,#84);
#74=SURFACE_STYLE_USAGE(.BOTH.,#85);
#75=SURFACE_STYLE_USAGE(.BOTH.,#86);
#76=SURFACE_STYLE_USAGE(.BOTH.,#87);
#77=SURFACE_STYLE_USAGE(.BOTH.,#88);
#78=SURFACE_STYLE_USAGE(.BOTH.,#89);
#79=SURFACE_STYLE_USAGE(.BOTH.,#90);
#80=SURFACE_SIDE_STYLE('',(#91));
#81=SURFACE_SIDE_STYLE('',(#92));
#82=SURFACE_SIDE_STYLE('',(#93));
#83=SURFACE_SIDE_STYLE('',(#94));
#84=SURFACE_SIDE_STYLE('',(#95));
#85=SURFACE_SIDE_STYLE('',(#96));
#86=SURFACE_SIDE_STYLE('',(#97));
#87=SURFACE_SIDE_STYLE('',(#98));
#88=SURFACE_SIDE_STYLE('',(#99));
#89=SURFACE_SIDE_STYLE('',(#100));
#90=SURFACE_SIDE_STYLE('',(#101));
#91=SURFACE_STYLE_FILL_AREA(#102);
#92=SURFACE_STYLE_FILL_AREA(#103);
#93=SURFACE_STYLE_FILL_AREA(#104);
#94=SURFACE_STYLE_FILL_AREA(#105);
#95=SURFACE_STYLE_FILL_AREA(#106);
#96=SURFACE_STYLE_FILL_AREA(#107);
#97=SURFACE_STYLE_FILL_AREA(#108);
#98=SURFACE_STYLE_FILL_AREA(#109);
#99=SURFACE_STYLE_FILL_AREA(#110);
#100=SURFACE_STYLE_FILL_AREA(#111);
#101=SURFACE_STYLE_FILL_AREA(#112);
#102=FILL_AREA_STYLE('',(#113));
#103=FILL_AREA_STYLE('',(#114));
#104=FILL_AREA_STYLE('',(#115));
#105=FILL_AREA_STYLE('',(#116));
#106=FILL_AREA_STYLE('',(#117));
#107=FILL_AREA_STYLE('',(#118));
#108=FILL_AREA_STYLE('',(#119));
#109=FILL_AREA_STYLE('',(#120));
#110=FILL_AREA_STYLE('',(#121));
#111=FILL_AREA_STYLE('',(#122));
#112=FILL_AREA_STYLE('',(#123));
#113=FILL_AREA_STYLE_COLOUR('',#124);
#114=FILL_AREA_STYLE_COLOUR('',#40);
#115=FILL_AREA_STYLE_COLOUR('',#41);
#116=FILL_AREA_STYLE_COLOUR('',#41);
#117=FILL_AREA_STYLE_COLOUR('',#41);
#118=FILL_AREA_STYLE_COLOUR('',#41);
#119=FILL_AREA_STYLE_COLOUR('',#41);
#120=FILL_AREA_STYLE_COLOUR('',#41);
#121=FILL_AREA_STYLE_COLOUR('',#41);
#122=FILL_AREA_STYLE_COLOUR('',#41);
#123=FILL_AREA_STYLE_COLOUR('',#41);
#124=DRAUGHTING_PRE_DEFINED_COLOUR('yellow');
#125=MANIFOLD_SOLID_BREP('',#127);
#126=MANIFOLD_SOLID_BREP('',#128);
#127=CLOSED_SHELL('',(#129,#130));
#128=CLOSED_SHELL('',(#131,#132,#133,#134,#135,#136,#137,#138,#139));
#129=ADVANCED_FACE('',(#142,#143),#140,.F.);
#130=ADVANCED_FACE('',(#144,#145),#141,.F.);
#131=ADVANCED_FACE('',(#146,#147),#53,.T.);
#132=ADVANCED_FACE('',(#52),#51,.F.);
#133=ADVANCED_FACE('',(#148,#149),#47,.T.);
#134=ADVANCED_FACE('',(#150,#151),#48,.T.);
#135=ADVANCED_FACE('',(#152,#153),#49,.F.);
#136=ADVANCED_FACE('',(#154,#155),#50,.T.);
#137=ADVANCED_FACE('',(#156,#157),#54,.T.);
#138=ADVANCED_FACE('',(#158,#159),#44,.T.);
#139=ADVANCED_FACE('',(#160,#161),#42,.F.);
#140=(
BOUNDED_SURFACE()
B_SPLINE_SURFACE(3,3,((#296,#297,#298,#299,#300,#301,#302),(#303,#304,#305,
#306,#307,#308,#309),(#310,#311,#312,#313,#314,#315,#316),(#317,#318,#319,
#320,#321,#322,#323),(#324,#325,#326,#327,#328,#329,#330),(#331,#332,#333,
#334,#335,#336,#337),(#338,#339,#340,#341,#342,#343,#344)),
 .UNSPECIFIED.,.T.,.F.,.F.)
B_SPLINE_SURFACE_WITH_KNOTS((1,3,3,3,1),(4,3,4),(-0.5,0.,0.5,1.,1.5),(0.,
0.5,1.),.UNSPECIFIED.)
GEOMETRIC_REPRESENTATION_ITEM()
RATIONAL_B_SPLINE_SURFACE(((1.,0.595695966384013,0.595695966384013,1.,0.595695966384013,
0.595695966384013,1.),(0.333333333333334,0.198565322128004,0.198565322128004,
0.333333333333334,0.198565322128004,0.198565322128004,0.333333333333334),
(0.333333333333334,0.198565322128004,0.198565322128004,0.333333333333334,
0.198565322128004,0.198565322128004,0.333333333333334),(1.,0.595695966384013,
0.595695966384013,1.,0.595695966384013,0.595695966384013,1.),(0.333333333333334,
0.198565322128004,0.198565322128004,0.333333333333334,0.198565322128004,
0.198565322128004,0.333333333333334),(0.333333333333334,0.198565322128004,
0.198565322128004,0.333333333333334,0.198565322128004,0.198565322128004,
0.333333333333334),(1.,0.595695966384013,0.595695966384013,1.,0.595695966384013,
0.595695966384013,1.)))
REPRESENTATION_ITEM('')
SURFACE()
);
#141=(
BOUNDED_SURFACE()
B_SPLINE_SURFACE(3,3,((#345,#346,#347,#348),(#349,#350,#351,#352),(#353,
#354,#355,#356),(#357,#358,#359,#360),(#361,#362,#363,#364),(#365,#366,
#367,#368),(#369,#370,#371,#372)),.UNSPECIFIED.,.T.,.F.,.F.)
B_SPLINE_SURFACE_WITH_KNOTS((1,3,3,3,1),(4,4),(-0.5,0.,0.5,1.,1.5),(0.,
1.),.UNSPECIFIED.)
GEOMETRIC_REPRESENTATION_ITEM()
RATIONAL_B_SPLINE_SURFACE(((1.,0.793497546336143,0.793497546336143,1.),
(0.333333333333334,0.264499182112047,0.264499182112047,0.333333333333334),
(0.333333333333334,0.264499182112047,0.264499182112047,0.333333333333334),
(1.,0.793497546336143,0.793497546336143,1.),(0.333333333333334,0.264499182112047,
0.264499182112047,0.333333333333334),(0.333333333333334,0.264499182112047,
0.264499182112047,0.333333333333334),(1.,0.793497546336143,0.793497546336143,
1.)))
REPRESENTATION_ITEM('')
SURFACE()
);
#142=FACE_BOUND('',#162,.T.);
#143=FACE_BOUND('',#163,.T.);
#144=FACE_BOUND('',#164,.T.);
#145=FACE_BOUND('',#165,.T.);
#146=FACE_BOUND('',#166,.T.);
#147=FACE_BOUND('',#167,.T.);
#148=FACE_BOUND('',#169,.T.);
#149=FACE_BOUND('',#170,.T.);
#150=FACE_BOUND('',#171,.T.);
#151=FACE_BOUND('',#172,.T.);
#152=FACE_BOUND('',#173,.T.);
#153=FACE_BOUND('',#174,.T.);
#154=FACE_BOUND('',#175,.T.);
#155=FACE_BOUND('',#176,.T.);
#156=FACE_BOUND('',#177,.T.);
#157=FACE_BOUND('',#178,.T.);
#158=FACE_BOUND('',#179,.T.);
#159=FACE_BOUND('',#180,.T.);
#160=FACE_BOUND('',#181,.T.);
#161=FACE_BOUND('',#43,.T.);
#162=EDGE_LOOP('',(#182));
#163=EDGE_LOOP('',(#183));
#164=EDGE_LOOP('',(#184));
#165=EDGE_LOOP('',(#185));
#166=EDGE_LOOP('',(#186));
#167=EDGE_LOOP('',(#187));
#168=EDGE_LOOP('',(#188));
#169=EDGE_LOOP('',(#189));
#170=EDGE_LOOP('',(#190));
#171=EDGE_LOOP('',(#191));
#172=EDGE_LOOP('',(#192));
#173=EDGE_LOOP('',(#193));
#174=EDGE_LOOP('',(#194));
#175=EDGE_LOOP('',(#195));
#176=EDGE_LOOP('',(#196));
#177=EDGE_LOOP('',(#197));
#178=EDGE_LOOP('',(#198));
#179=EDGE_LOOP('',(#199));
#180=EDGE_LOOP('',(#200));
#181=EDGE_LOOP('',(#201));
#182=ORIENTED_EDGE('',*,*,#213,.T.);
#183=ORIENTED_EDGE('',*,*,#214,.F.);
#184=ORIENTED_EDGE('',*,*,#214,.T.);
#185=ORIENTED_EDGE('',*,*,#213,.F.);
#186=ORIENTED_EDGE('',*,*,#215,.T.);
#187=ORIENTED_EDGE('',*,*,#216,.F.);
#188=ORIENTED_EDGE('',*,*,#217,.F.);
#189=ORIENTED_EDGE('',*,*,#215,.F.);
#190=ORIENTED_EDGE('',*,*,#217,.T.);
#191=ORIENTED_EDGE('',*,*,#218,.F.);
#192=ORIENTED_EDGE('',*,*,#216,.T.);
#193=ORIENTED_EDGE('',*,*,#219,.F.);
#194=ORIENTED_EDGE('',*,*,#218,.T.);
#195=ORIENTED_EDGE('',*,*,#220,.F.);
#196=ORIENTED_EDGE('',*,*,#219,.T.);
#197=ORIENTED_EDGE('',*,*,#221,.F.);
#198=ORIENTED_EDGE('',*,*,#220,.T.);
#199=ORIENTED_EDGE('',*,*,#222,.F.);
#200=ORIENTED_EDGE('',*,*,#221,.T.);
#201=ORIENTED_EDGE('',*,*,#222,.T.);
#202=VERTEX_POINT('',#293);
#203=VERTEX_POINT('',#295);
#204=VERTEX_POINT('',#374);
#205=VERTEX_POINT('',#376);
#206=VERTEX_POINT('',#379);
#207=VERTEX_POINT('',#383);
#208=VERTEX_POINT('',#386);
#209=VERTEX_POINT('',#389);
#210=VERTEX_POINT('',#392);
#211=VERTEX_POINT('',#395);
#212=VERTEX_POINT('',#459);
#213=EDGE_CURVE('',#202,#202,#223,.T.);
#214=EDGE_CURVE('',#203,#203,#224,.T.);
#215=EDGE_CURVE('',#204,#204,#225,.T.);
#216=EDGE_CURVE('',#205,#205,#226,.T.);
#217=EDGE_CURVE('',#206,#206,#227,.T.);
#218=EDGE_CURVE('',#207,#207,#228,.T.);
#219=EDGE_CURVE('',#208,#208,#229,.T.);
#220=EDGE_CURVE('',#209,#209,#230,.T.);
#221=EDGE_CURVE('',#210,#210,#231,.T.);
#222=EDGE_CURVE('',#211,#211,#232,.T.);
#223=CIRCLE('',#234,5.);
#224=CIRCLE('',#235,5.);
#225=CIRCLE('',#236,21.);
#226=CIRCLE('',#237,21.);
#227=CIRCLE('',#239,19.5);
#228=CIRCLE('',#242,20.9272727272728);
#229=CIRCLE('',#244,22.7454545454545);
#230=CIRCLE('',#246,23.);
#231=CIRCLE('',#248,23.);
#232=CIRCLE('',#250,16.7184726907938);
#233=AXIS2_PLACEMENT_3D('',#291,#252,#253);
#234=AXIS2_PLACEMENT_3D('',#292,#254,#255);
#235=AXIS2_PLACEMENT_3D('',#294,#256,#257);
#236=AXIS2_PLACEMENT_3D('',#373,#258,#259);
#237=AXIS2_PLACEMENT_3D('',#375,#260,#261);
#238=AXIS2_PLACEMENT_3D('',#377,#262,#263);
#239=AXIS2_PLACEMENT_3D('',#378,#264,#265);
#240=AXIS2_PLACEMENT_3D('',#380,#266,#267);
#241=AXIS2_PLACEMENT_3D('',#381,#268,#269);
#242=AXIS2_PLACEMENT_3D('',#382,#270,#271);
#243=AXIS2_PLACEMENT_3D('',#384,#272,#273);
#244=AXIS2_PLACEMENT_3D('',#385,#274,#275);
#245=AXIS2_PLACEMENT_3D('',#387,#276,#277);
#246=AXIS2_PLACEMENT_3D('',#388,#278,#279);
#247=AXIS2_PLACEMENT_3D('',#390,#280,#281);
#248=AXIS2_PLACEMENT_3D('',#391,#282,#283);
#249=AXIS2_PLACEMENT_3D('',#393,#284,#285);
#250=AXIS2_PLACEMENT_3D('',#394,#286,#287);
#251=AXIS2_PLACEMENT_3D('',#460,#289,#290);
#252=DIRECTION('',(0.,0.,1.));
#253=DIRECTION('',(1.,0.,0.));
#254=DIRECTION('',(0.121869343405148,0.992290985698555,0.0225047292671778));
#255=DIRECTION('',(0.992510112580906,-0.122026806143804,0.00575630150178585));
#256=DIRECTION('',(0.121869343405148,-0.0692365195668007,0.990128359101119));
#257=DIRECTION('',(0.992510112580906,0.,-0.122162500075257));
#258=DIRECTION('',(-1.,0.,0.));
#259=DIRECTION('',(0.,0.,1.));
#260=DIRECTION('',(-1.,0.,0.));
#261=DIRECTION('',(0.,0.,1.));
#262=DIRECTION('',(-1.,0.,0.));
#263=DIRECTION('',(0.,0.,1.));
#264=DIRECTION('',(-1.,0.,0.));
#265=DIRECTION('',(0.,0.,1.));
#266=DIRECTION('',(-1.,0.,0.));
#267=DIRECTION('',(0.,0.,1.));
#268=DIRECTION('',(-1.,0.,0.));
#269=DIRECTION('',(0.,0.,1.));
#270=DIRECTION('',(-1.,0.,0.));
#271=DIRECTION('',(0.,0.,1.));
#272=DIRECTION('',(-1.,0.,0.));
#273=DIRECTION('',(0.,0.,1.));
#274=DIRECTION('',(-1.,0.,0.));
#275=DIRECTION('',(0.,0.,1.));
#276=DIRECTION('',(-1.,0.,0.));
#277=DIRECTION('',(0.,0.,1.));
#278=DIRECTION('',(-1.,0.,0.));
#279=DIRECTION('',(0.,0.,1.));
#280=DIRECTION('',(-1.,0.,0.));
#281=DIRECTION('',(0.,0.,1.));
#282=DIRECTION('',(-1.,0.,0.));
#283=DIRECTION('',(0.,0.,1.));
#284=DIRECTION('',(-1.,0.,0.));
#285=DIRECTION('',(0.,0.,1.));
#286=DIRECTION('',(-1.,0.,0.));
#287=DIRECTION('',(0.,0.,1.));
#288=DIRECTION('',(-1.,0.,0.));
#289=DIRECTION('',(-1.,0.,0.));
#290=DIRECTION('',(-7.86666153294791E-18,0.,1.));
#291=CARTESIAN_POINT('',(0.,0.,0.));
#292=CARTESIAN_POINT('',(4.96273075820661,0.334922542538633,20.0002581626624));
#293=CARTESIAN_POINT('',(9.92528132111114,-0.275211488180388,20.0290396701713));
#294=CARTESIAN_POINT('',(4.96273075820661,-19.9938241217328,-0.607862379048722));
#295=CARTESIAN_POINT('',(9.92528132111114,-19.9938241217328,-1.218674879425));
#296=CARTESIAN_POINT('',(9.92528132111115,-19.9938241217328,-1.21867487942501));
#297=CARTESIAN_POINT('',(9.92528132111115,-18.7400135068534,-21.7889429132471));
#298=CARTESIAN_POINT('',(9.92528132111115,0.663782850914119,-28.7316120647732));
#299=CARTESIAN_POINT('',(9.92528132111114,14.6824655468441,-13.6258349079335));
#300=CARTESIAN_POINT('',(9.92528132111115,28.701148242774,1.47994224890617));
#301=CARTESIAN_POINT('',(9.92528132111115,20.331287397025,20.3121858078681));
#302=CARTESIAN_POINT('',(9.92528132111114,-0.275211488180389,20.0290396701713));
#303=CARTESIAN_POINT('',(10.009862384379,-10.0178213933937,-0.531495421125451));
#304=CARTESIAN_POINT('',(10.009862384379,-9.47100237544426,-10.8381416095889));
#305=CARTESIAN_POINT('',(10.009862384379,0.219154592913693,-14.3915659609918));
#306=CARTESIAN_POINT('',(10.009862384379,7.29934086564261,-6.88177708006977));
#307=CARTESIAN_POINT('',(10.009862384379,14.3795271383715,0.628011800852274));
#308=CARTESIAN_POINT('',(10.009862384379,10.2620991090209,10.0923001056154));
#309=CARTESIAN_POINT('',(10.009862384379,-0.0588649412393404,10.0317380234587));
#310=CARTESIAN_POINT('',(0.0847612585699738,-10.0178213933937,0.690129579627115));
#311=CARTESIAN_POINT('',(0.0847612585699739,-10.7278481668896,-9.61651660883632));
#312=CARTESIAN_POINT('',(0.0847612585699739,-1.53231525530506,-14.3253665900116));
#313=CARTESIAN_POINT('',(0.0847612585699738,6.41540419915338,-7.72499924065356));
#314=CARTESIAN_POINT('',(0.0847612585699739,14.3631236536118,-1.12463189129549));
#315=CARTESIAN_POINT('',(0.0847612585699739,11.4231445504867,8.77928736051777));
#316=CARTESIAN_POINT('',(0.0847612585699738,1.1614031201987,9.97417500844082));
#317=CARTESIAN_POINT('',(0.000180195302074658,-19.9938241217328,0.002950121327561));
#318=CARTESIAN_POINT('',(0.000180195302074658,-19.9968592982988,-20.5673179124945));
#319=CARTESIAN_POINT('',(0.000180195302074658,-1.08768699730464,-28.665412693793));
#320=CARTESIAN_POINT('',(0.000180195302074658,13.7985288803548,-14.4690570685173));
#321=CARTESIAN_POINT('',(0.000180195302074658,28.6847447580143,-0.2727014432416));
#322=CARTESIAN_POINT('',(0.000180195302074658,21.4923328384909,18.9991730627704));
#323=CARTESIAN_POINT('',(0.000180195302074658,0.945056573257656,19.9714766551535));
#324=CARTESIAN_POINT('',(-0.0844008679658245,-29.9698268500717,-0.684229336971994));
#325=CARTESIAN_POINT('',(-0.0844008679658244,-29.2658704297079,-31.5181192161526));
#326=CARTESIAN_POINT('',(-0.0844008679658244,-0.643058739304217,-43.0054587975744));
#327=CARTESIAN_POINT('',(-0.0844008679658245,21.1816535615563,-21.2131148963811));
#328=CARTESIAN_POINT('',(-0.0844008679658244,43.0063658624168,0.57922900481229));
#329=CARTESIAN_POINT('',(-0.0844008679658244,31.5615211264951,29.2190587650231));
#330=CARTESIAN_POINT('',(-0.0844008679658245,0.728710026316611,29.9687783018661));
#331=CARTESIAN_POINT('',(9.84070025784325,-29.9698268500717,-1.90585433772456));
#332=CARTESIAN_POINT('',(9.84070025784324,-28.0090246382626,-32.7397442169052));
#333=CARTESIAN_POINT('',(9.84070025784324,1.10841110891454,-43.0716581685546));
#334=CARTESIAN_POINT('',(9.84070025784325,22.0655902280455,-20.3698927357973));
#335=CARTESIAN_POINT('',(9.84070025784324,43.0227693471765,2.33187269696006));
#336=CARTESIAN_POINT('',(9.84070025784324,30.4004756850292,30.5320715101208));
#337=CARTESIAN_POINT('',(9.84070025784323,-0.491558035121434,30.0263413168839));
#338=CARTESIAN_POINT('',(9.92528132111115,-19.9938241217328,-1.21867487942501));
#339=CARTESIAN_POINT('',(9.92528132111115,-18.7400135068534,-21.7889429132471));
#340=CARTESIAN_POINT('',(9.92528132111115,0.663782850914119,-28.7316120647732));
#341=CARTESIAN_POINT('',(9.92528132111114,14.6824655468441,-13.6258349079335));
#342=CARTESIAN_POINT('',(9.92528132111115,28.701148242774,1.47994224890617));
#343=CARTESIAN_POINT('',(9.92528132111115,20.331287397025,20.3121858078681));
#344=CARTESIAN_POINT('',(9.92528132111114,-0.275211488180389,20.0290396701713));
#345=CARTESIAN_POINT('',(9.92528132111115,-0.275211488180389,20.0290396701713));
#346=CARTESIAN_POINT('',(9.92528132111115,-12.4512641191005,19.8617331182896));
#347=CARTESIAN_POINT('',(9.92528132111115,-20.7346808835254,10.9359695173373));
#348=CARTESIAN_POINT('',(9.92528132111115,-19.9938241217328,-1.21867487942501));
#349=CARTESIAN_POINT('',(10.009862384379,-0.0588649412393418,10.0317380234587));
#350=CARTESIAN_POINT('',(10.0098623843791,-6.15735853677331,9.99595285180547));
#351=CARTESIAN_POINT('',(10.0098623843791,-10.3409280588797,5.55853797746914));
#352=CARTESIAN_POINT('',(10.009862384379,-10.0178213933937,-0.531495421125451));
#353=CARTESIAN_POINT('',(0.0847612585699738,1.1614031201987,9.97417500844082));
#354=CARTESIAN_POINT('',(0.0847612585699738,-4.90209677059486,10.6802151256969));
#355=CARTESIAN_POINT('',(0.0847612585699738,-9.59827785950131,6.78016297822171));
#356=CARTESIAN_POINT('',(0.0847612585699738,-10.0178213933937,0.690129579627115));
#357=CARTESIAN_POINT('',(0.000180195302074658,0.945056573257655,19.9714766551535));
#358=CARTESIAN_POINT('',(0.000180195302074658,-11.1960023529221,20.545995392181));
#359=CARTESIAN_POINT('',(0.000180195302074658,-19.9920306841469,12.1575945180899));
#360=CARTESIAN_POINT('',(0.000180195302074658,-19.9938241217328,0.00295012132756057));
#361=CARTESIAN_POINT('',(-0.0844008679658245,0.728710026316608,29.9687783018661));
#362=CARTESIAN_POINT('',(-0.0844008679658245,-17.4899079352493,30.4117756586652));
#363=CARTESIAN_POINT('',(-0.0844008679658245,-30.3857835087926,17.5350260579581));
#364=CARTESIAN_POINT('',(-0.0844008679658245,-29.9698268500718,-0.684229336971994));
#365=CARTESIAN_POINT('',(9.84070025784325,-0.491558035121437,30.0263413168839));
#366=CARTESIAN_POINT('',(9.84070025784325,-18.7451697014277,29.7275133847738));
#367=CARTESIAN_POINT('',(9.84070025784325,-31.128433708171,16.3134010572055));
#368=CARTESIAN_POINT('',(9.84070025784325,-29.9698268500717,-1.90585433772456));
#369=CARTESIAN_POINT('',(9.92528132111115,-0.275211488180389,20.0290396701713));
#370=CARTESIAN_POINT('',(9.92528132111115,-12.4512641191005,19.8617331182896));
#371=CARTESIAN_POINT('',(9.92528132111115,-20.7346808835254,10.9359695173373));
#372=CARTESIAN_POINT('',(9.92528132111115,-19.9938241217328,-1.21867487942501));
#373=CARTESIAN_POINT('',(48.5,0.,0.));
#374=CARTESIAN_POINT('',(48.5,0.,21.));
#375=CARTESIAN_POINT('',(42.,0.,0.));
#376=CARTESIAN_POINT('',(42.,0.,21.));
#377=CARTESIAN_POINT('',(0.,0.,0.));
#378=CARTESIAN_POINT('',(50.,0.,0.));
#379=CARTESIAN_POINT('',(50.,0.,19.5));
#380=CARTESIAN_POINT('',(50.,12.,0.));
#381=CARTESIAN_POINT('',(48.5,0.,0.));
#382=CARTESIAN_POINT('',(41.1503038948693,0.,0.));
#383=CARTESIAN_POINT('',(41.1503038948693,0.,20.9272727272728));
#384=CARTESIAN_POINT('',(42.,0.,0.));
#385=CARTESIAN_POINT('',(16.9032280597742,0.,0.));
#386=CARTESIAN_POINT('',(16.9032280597742,0.,22.7454545454545));
#387=CARTESIAN_POINT('',(32.6533428435617,0.,0.));
#388=CARTESIAN_POINT('',(15.3282165813955,0.,0.));
#389=CARTESIAN_POINT('',(15.3282165813955,0.,23.));
#390=CARTESIAN_POINT('',(15.3282165813955,0.,0.));
#391=CARTESIAN_POINT('',(7.13581411574303,0.,0.));
#392=CARTESIAN_POINT('',(7.13581411574303,0.,23.));
#393=CARTESIAN_POINT('',(0.,0.,0.));
#394=CARTESIAN_POINT('',(2.99999999990533,0.,0.));
#395=CARTESIAN_POINT('',(2.99999999990533,0.,16.7184726907938));
#396=CARTESIAN_POINT('',(0.669259001411275,20.3855214433794,0.));
#397=CARTESIAN_POINT('',(0.675684329168856,19.6327716482703,0.));
#398=CARTESIAN_POINT('',(0.780795076459992,19.135271815631,0.));
#399=CARTESIAN_POINT('',(1.07528813393773,18.4530781727036,0.));
#400=CARTESIAN_POINT('',(1.19821480697087,18.2323186826525,0.));
#401=CARTESIAN_POINT('',(1.48314212771812,17.8248480390971,0.));
#402=CARTESIAN_POINT('',(1.64468037986791,17.6374370704428,0.));
#403=CARTESIAN_POINT('',(2.00610947676878,17.2954379202307,0.));
#404=CARTESIAN_POINT('',(2.20628620642237,17.1416287514367,0.));
#405=CARTESIAN_POINT('',(2.62707910579087,16.8812854627076,0.));
#406=CARTESIAN_POINT('',(2.84976280387708,16.7725798554403,0.));
#407=CARTESIAN_POINT('',(3.32043291821878,16.5993729305162,0.));
#408=CARTESIAN_POINT('',(3.56101113403906,16.5376817780148,0.));
#409=CARTESIAN_POINT('',(4.04959845732979,16.4619061843714,0.));
#410=CARTESIAN_POINT('',(4.30051133361264,16.4478542542711,0.));
#411=CARTESIAN_POINT('',(4.79871461192409,16.4687507108208,0.));
#412=CARTESIAN_POINT('',(5.04367357579248,16.5030500998515,0.));
#413=CARTESIAN_POINT('',(5.52558559498252,16.6177423316594,0.));
#414=CARTESIAN_POINT('',(5.76474775487358,16.6994298040732,0.));
#415=CARTESIAN_POINT('',(6.2172391270308,16.9037985323347,0.));
#416=CARTESIAN_POINT('',(6.43209067252494,17.0263553562935,0.));
#417=CARTESIAN_POINT('',(6.83892552897369,17.3123568786446,0.));
#418=CARTESIAN_POINT('',(7.03061484380845,17.4764077930902,0.));
#419=CARTESIAN_POINT('',(7.37469908788842,17.8326436685143,0.));
#420=CARTESIAN_POINT('',(7.52939483523571,18.0262457760169,0.));
#421=CARTESIAN_POINT('',(7.80257818597545,18.4457710413125,0.));
#422=CARTESIAN_POINT('',(7.917722546889,18.6669468287235,0.));
#423=CARTESIAN_POINT('',(8.10304236044245,19.1259914699281,0.));
#424=CARTESIAN_POINT('',(8.17420147150821,19.367226703312,0.));
#425=CARTESIAN_POINT('',(8.2670655956501,19.8570843322059,0.));
#426=CARTESIAN_POINT('',(8.28895419380426,20.103655534209,0.));
#427=CARTESIAN_POINT('',(8.28374702945884,20.6000758497868,0.));
#428=CARTESIAN_POINT('',(8.25581470481754,20.8515087057812,0.));
#429=CARTESIAN_POINT('',(8.15189360420501,21.3361683180757,0.));
#430=CARTESIAN_POINT('',(8.07620099564236,21.5719738242411,0.));
#431=CARTESIAN_POINT('',(7.87591618551542,22.0301416025173,0.));
#432=CARTESIAN_POINT('',(7.752912290445,22.2479590638792,0.));
#433=CARTESIAN_POINT('',(7.46791333894972,22.6523825726975,0.));
#434=CARTESIAN_POINT('',(7.30345768569137,22.8421908878257,0.));
#435=CARTESIAN_POINT('',(6.94018749892645,23.1843009760346,0.));
#436=CARTESIAN_POINT('',(6.74389883638145,23.334953166748,0.));
#437=CARTESIAN_POINT('',(6.32275530110486,23.5964834704803,0.));
#438=CARTESIAN_POINT('',(6.09553100098375,23.7078402697143,0.));
#439=CARTESIAN_POINT('',(5.6307159116682,23.8808315530028,0.));
#440=CARTESIAN_POINT('',(5.39156627022954,23.9439367659931,0.));
#441=CARTESIAN_POINT('',(4.89971237141573,24.0231220175665,0.));
#442=CARTESIAN_POINT('',(4.64843560874042,24.0383491842588,0.));
#443=CARTESIAN_POINT('',(3.9069222647696,24.0113354534866,0.));
#444=CARTESIAN_POINT('',(3.4106963266347,23.894621217597,0.));
#445=CARTESIAN_POINT('',(2.73412255419258,23.5899392983277,0.));
#446=CARTESIAN_POINT('',(2.51575521807005,23.4652790931192,0.));
#447=CARTESIAN_POINT('',(2.10875351455368,23.1775242059798,0.));
#448=CARTESIAN_POINT('',(1.92135033986188,23.0159735950154,0.));
#449=CARTESIAN_POINT('',(1.57819308655438,22.6581257589923,0.));
#450=CARTESIAN_POINT('',(1.42147700964884,22.4597265258739,0.));
#451=CARTESIAN_POINT('',(1.15275282251124,22.0426301913991,0.));
#452=CARTESIAN_POINT('',(1.0391252473876,21.8228293879324,0.));
#453=CARTESIAN_POINT('',(0.854052539402683,21.360335342995,0.));
#454=CARTESIAN_POINT('',(0.783647006463355,21.1186238744747,0.));
#455=CARTESIAN_POINT('',(0.691791380144195,20.6324253877902,0.));
#456=CARTESIAN_POINT('',(0.669259001411275,20.3855214433794,0.));
#457=CARTESIAN_POINT('',(0.675684329168856,19.6327716482703,0.));
#458=CARTESIAN_POINT('',(0.,0.,0.));
#459=CARTESIAN_POINT('',(7.47970125628517,0.,0.));
#460=CARTESIAN_POINT('',(2.99999999990533,0.,0.));
#461=(
GEOMETRIC_REPRESENTATION_CONTEXT(3)
GLOBAL_UNCERTAINTY_ASSIGNED_CONTEXT((#462))
GLOBAL_UNIT_ASSIGNED_CONTEXT((#468,#464,#463))
REPRESENTATION_CONTEXT('model1','TOP_LEVEL_ASSEMBLY_PART')
);
#462=UNCERTAINTY_MEASURE_WITH_UNIT(LENGTH_MEASURE(2.E-5),#468,
'DISTANCE_ACCURACY_VALUE','Maximum Tolerance applied to model');
#463=(
NAMED_UNIT(*)
SI_UNIT($,.STERADIAN.)
SOLID_ANGLE_UNIT()
);
#464=(
CONVERSION_BASED_UNIT('DEGREE',#466)
NAMED_UNIT(#465)
PLANE_ANGLE_UNIT()
);
#465=DIMENSIONAL_EXPONENTS(0.,0.,0.,0.,0.,0.,0.);
#466=PLANE_ANGLE_MEASURE_WITH_UNIT(PLANE_ANGLE_MEASURE(0.0174532925),#467);
#467=(
NAMED_UNIT(*)
PLANE_ANGLE_UNIT()
SI_UNIT($,.RADIAN.)
);
#468=(
LENGTH_UNIT()
NAMED_UNIT(*)
SI_UNIT(.MILLI.,.METRE.)
);
ENDSEC;
END-ISO-10303-21;
