ISO-10303-21;
HEADER;
/* Generated by software containing ST-Developer
 * from STEP Tools, Inc. (www.steptools.com) 
 */
/* OPTION: using custom schema-name function */

FILE_DESCRIPTION(
/* description */ (''),
/* implementation_level */ '2;1');

FILE_NAME(
/* name */ 'model1.stp',
/* time_stamp */ '2023-11-02T15:28:51+03:00',
/* author */ (''),
/* organization */ (''),
/* preprocessor_version */ 'ST-DEVELOPER v19.4',
/* originating_system */ 'SIEMENS PLM Software NX2306.3001',
/* authorisation */ '');

FILE_SCHEMA (('AUTOMOTIVE_DESIGN { 1 0 10303 214 3 1 1 1 }'));
ENDSEC;

DATA;
#10=PROPERTY_DEFINITION_REPRESENTATION(#14,#12);
#11=PROPERTY_DEFINITION_REPRESENTATION(#15,#13);
#12=REPRESENTATION('',(#16),#467);
#13=REPRESENTATION('',(#17),#467);
#14=PROPERTY_DEFINITION('pmi validation property','',#21);
#15=PROPERTY_DEFINITION('pmi validation property','',#21);
#16=VALUE_REPRESENTATION_ITEM('number of annotations',COUNT_MEASURE(0.));
#17=VALUE_REPRESENTATION_ITEM('number of views',COUNT_MEASURE(0.));
#18=SHAPE_REPRESENTATION_RELATIONSHIP('None',
'relationship between model1_objects-None and model1_objects-None',#30,
#19);
#19=ADVANCED_BREP_SHAPE_REPRESENTATION('model1_objects-None',(#125,#126),
#467);
#20=SHAPE_DEFINITION_REPRESENTATION(#21,#30);
#21=PRODUCT_DEFINITION_SHAPE('','',#22);
#22=PRODUCT_DEFINITION(' ','',#24,#23);
#23=PRODUCT_DEFINITION_CONTEXT('part definition',#29,'design');
#24=PRODUCT_DEFINITION_FORMATION_WITH_SPECIFIED_SOURCE(' ',' ',#26,
 .NOT_KNOWN.);
#25=PRODUCT_RELATED_PRODUCT_CATEGORY('part','',(#26));
#26=PRODUCT('model1_objects','model1_objects',' ',(#27));
#27=PRODUCT_CONTEXT(' ',#29,'mechanical');
#28=APPLICATION_PROTOCOL_DEFINITION('international standard',
'automotive_design',2010,#29);
#29=APPLICATION_CONTEXT(
'core data for automotive mechanical design processes');
#30=SHAPE_REPRESENTATION('model1_objects-None',(#233),#467);
#31=OVER_RIDING_STYLED_ITEM('',(#60),#131,#57);
#32=OVER_RIDING_STYLED_ITEM('',(#61),#132,#57);
#33=OVER_RIDING_STYLED_ITEM('',(#62),#133,#57);
#34=OVER_RIDING_STYLED_ITEM('',(#63),#134,#57);
#35=OVER_RIDING_STYLED_ITEM('',(#64),#135,#57);
#36=OVER_RIDING_STYLED_ITEM('',(#65),#136,#57);
#37=OVER_RIDING_STYLED_ITEM('',(#66),#137,#57);
#38=OVER_RIDING_STYLED_ITEM('',(#67),#138,#57);
#39=OVER_RIDING_STYLED_ITEM('',(#68),#139,#57);
#40=COLOUR_RGB('Medium Steel',0.611764705882353,0.658823529411765,0.670588235294118);
#41=COLOUR_RGB('silver gray',0.6,0.6,0.6);
#42=SURFACE_OF_REVOLUTION('',#44,#43);
#43=AXIS1_PLACEMENT('',#459,#280);
#44=B_SPLINE_CURVE_WITH_KNOTS('',3,(#391,#392,#393,#394,#395,#396,#397,
#398,#399,#400,#401,#402,#403,#404,#405,#406,#407,#408,#409,#410,#411,#412,
#413,#414,#415,#416,#417,#418,#419,#420,#421,#422,#423,#424,#425,#426,#427,
#428,#429,#430,#431,#432,#433,#434,#435,#436,#437,#438,#439,#440,#441,#442,
#443,#444,#445,#446,#447,#448,#449,#450,#451,#452,#453,#454,#455,#456,#457,
#458),.UNSPECIFIED.,.T.,.F.,(2,2,2,2,2,2,2,2,2,2,2,2,2,2,2,2,2,2,2,2,2,
2,2,2,2,2,2,2,2,2,2,2,2,2,2,2),(-0.03125,0.,0.03125,0.0625,0.09375,0.125,
0.140625,0.15625,0.1875,0.21875,0.25,0.28125,0.3125,0.34375,0.375,0.40625,
0.4375,0.46875,0.5,0.53125,0.5625,0.59375,0.625,0.65625,0.6875,0.71875,
0.75,0.78125,0.8125,0.84375,0.875,0.90625,0.9375,0.96875,1.,1.03125),
 .UNSPECIFIED.);
#45=CONICAL_SURFACE('',#245,11.1083917320384,70.0000000000012);
#46=VERTEX_LOOP('',#209);
#47=PLANE('',#243);
#48=FACE_OUTER_BOUND('',#172,.T.);
#49=TOROIDAL_SURFACE('',#240,16.5,1.5);
#50=TOROIDAL_SURFACE('',#242,13.,5.);
#51=TOROIDAL_SURFACE('',#250,14.,5.);
#52=TOROIDAL_SURFACE('',#251,45.,28.);
#53=CYLINDRICAL_SURFACE('',#238,18.);
#54=CYLINDRICAL_SURFACE('',#248,19.);
#55=PRESENTATION_LAYER_ASSIGNMENT('1','Layer 1',(#125,#126));
#56=STYLED_ITEM('',(#58),#125);
#57=STYLED_ITEM('',(#59),#126);
#58=PRESENTATION_STYLE_ASSIGNMENT((#69));
#59=PRESENTATION_STYLE_ASSIGNMENT((#70));
#60=PRESENTATION_STYLE_ASSIGNMENT((#71));
#61=PRESENTATION_STYLE_ASSIGNMENT((#72));
#62=PRESENTATION_STYLE_ASSIGNMENT((#73));
#63=PRESENTATION_STYLE_ASSIGNMENT((#74));
#64=PRESENTATION_STYLE_ASSIGNMENT((#75));
#65=PRESENTATION_STYLE_ASSIGNMENT((#76));
#66=PRESENTATION_STYLE_ASSIGNMENT((#77));
#67=PRESENTATION_STYLE_ASSIGNMENT((#78));
#68=PRESENTATION_STYLE_ASSIGNMENT((#79));
#69=SURFACE_STYLE_USAGE(.BOTH.,#80);
#70=SURFACE_STYLE_USAGE(.BOTH.,#81);
#71=SURFACE_STYLE_USAGE(.BOTH.,#82);
#72=SURFACE_STYLE_USAGE(.BOTH.,#83);
#73=SURFACE_STYLE_USAGE(.BOTH.,#84);
#74=SURFACE_STYLE_USAGE(.BOTH.,#85);
#75=SURFACE_STYLE_USAGE(.BOTH.,#86);
#76=SURFACE_STYLE_USAGE(.BOTH.,#87);
#77=SURFACE_STYLE_USAGE(.BOTH.,#88);
#78=SURFACE_STYLE_USAGE(.BOTH.,#89);
#79=SURFACE_STYLE_USAGE(.BOTH.,#90);
#80=SURFACE_SIDE_STYLE('',(#91));
#81=SURFACE_SIDE_STYLE('',(#92));
#82=SURFACE_SIDE_STYLE('',(#93));
#83=SURFACE_SIDE_STYLE('',(#94));
#84=SURFACE_SIDE_STYLE('',(#95));
#85=SURFACE_SIDE_STYLE('',(#96));
#86=SURFACE_SIDE_STYLE('',(#97));
#87=SURFACE_SIDE_STYLE('',(#98));
#88=SURFACE_SIDE_STYLE('',(#99));
#89=SURFACE_SIDE_STYLE('',(#100));
#90=SURFACE_SIDE_STYLE('',(#101));
#91=SURFACE_STYLE_FILL_AREA(#102);
#92=SURFACE_STYLE_FILL_AREA(#103);
#93=SURFACE_STYLE_FILL_AREA(#104);
#94=SURFACE_STYLE_FILL_AREA(#105);
#95=SURFACE_STYLE_FILL_AREA(#106);
#96=SURFACE_STYLE_FILL_AREA(#107);
#97=SURFACE_STYLE_FILL_AREA(#108);
#98=SURFACE_STYLE_FILL_AREA(#109);
#99=SURFACE_STYLE_FILL_AREA(#110);
#100=SURFACE_STYLE_FILL_AREA(#111);
#101=SURFACE_STYLE_FILL_AREA(#112);
#102=FILL_AREA_STYLE('',(#113));
#103=FILL_AREA_STYLE('',(#114));
#104=FILL_AREA_STYLE('',(#115));
#105=FILL_AREA_STYLE('',(#116));
#106=FILL_AREA_STYLE('',(#117));
#107=FILL_AREA_STYLE('',(#118));
#108=FILL_AREA_STYLE('',(#119));
#109=FILL_AREA_STYLE('',(#120));
#110=FILL_AREA_STYLE('',(#121));
#111=FILL_AREA_STYLE('',(#122));
#112=FILL_AREA_STYLE('',(#123));
#113=FILL_AREA_STYLE_COLOUR('',#124);
#114=FILL_AREA_STYLE_COLOUR('',#40);
#115=FILL_AREA_STYLE_COLOUR('',#41);
#116=FILL_AREA_STYLE_COLOUR('',#41);
#117=FILL_AREA_STYLE_COLOUR('',#41);
#118=FILL_AREA_STYLE_COLOUR('',#41);
#119=FILL_AREA_STYLE_COLOUR('',#41);
#120=FILL_AREA_STYLE_COLOUR('',#41);
#121=FILL_AREA_STYLE_COLOUR('',#41);
#122=FILL_AREA_STYLE_COLOUR('',#41);
#123=FILL_AREA_STYLE_COLOUR('',#41);
#124=DRAUGHTING_PRE_DEFINED_COLOUR('yellow');
#125=MANIFOLD_SOLID_BREP('',#127);
#126=MANIFOLD_SOLID_BREP('',#128);
#127=CLOSED_SHELL('',(#129,#130));
#128=CLOSED_SHELL('',(#131,#132,#133,#134,#135,#136,#137,#138,#139));
#129=ADVANCED_FACE('',(#142,#143),#140,.F.);
#130=ADVANCED_FACE('',(#144,#145),#141,.F.);
#131=ADVANCED_FACE('',(#146,#147),#53,.T.);
#132=ADVANCED_FACE('',(#148,#149),#49,.T.);
#133=ADVANCED_FACE('',(#150,#151),#50,.T.);
#134=ADVANCED_FACE('',(#48),#47,.F.);
#135=ADVANCED_FACE('',(#152,#153),#45,.F.);
#136=ADVANCED_FACE('',(#154,#155),#42,.T.);
#137=ADVANCED_FACE('',(#156,#157),#54,.T.);
#138=ADVANCED_FACE('',(#158,#159),#51,.T.);
#139=ADVANCED_FACE('',(#160,#161),#52,.F.);
#140=(
BOUNDED_SURFACE()
B_SPLINE_SURFACE(3,3,((#296,#297,#298,#299,#300,#301,#302),(#303,#304,#305,
#306,#307,#308,#309),(#310,#311,#312,#313,#314,#315,#316),(#317,#318,#319,
#320,#321,#322,#323),(#324,#325,#326,#327,#328,#329,#330),(#331,#332,#333,
#334,#335,#336,#337),(#338,#339,#340,#341,#342,#343,#344)),
 .UNSPECIFIED.,.T.,.F.,.F.)
B_SPLINE_SURFACE_WITH_KNOTS((1,3,3,3,1),(4,3,4),(-0.5,0.,0.5,1.,1.5),(0.,
0.5,1.),.UNSPECIFIED.)
GEOMETRIC_REPRESENTATION_ITEM()
RATIONAL_B_SPLINE_SURFACE(((1.,0.591190249017368,0.591190249017368,1.,0.591190249017368,
0.591190249017368,1.),(0.333333333333334,0.197063416339122,0.197063416339122,
0.333333333333334,0.197063416339122,0.197063416339122,0.333333333333334),
(0.333333333333334,0.197063416339122,0.197063416339122,0.333333333333334,
0.197063416339122,0.197063416339122,0.333333333333334),(1.,0.591190249017368,
0.591190249017368,1.,0.591190249017368,0.591190249017368,1.),(0.333333333333334,
0.197063416339122,0.197063416339122,0.333333333333334,0.197063416339122,
0.197063416339122,0.333333333333334),(0.333333333333334,0.197063416339122,
0.197063416339122,0.333333333333334,0.197063416339122,0.197063416339122,
0.333333333333334),(1.,0.591190249017368,0.591190249017368,1.,0.591190249017368,
0.591190249017368,1.)))
REPRESENTATION_ITEM('')
SURFACE()
);
#141=(
BOUNDED_SURFACE()
B_SPLINE_SURFACE(3,3,((#345,#346,#347,#348),(#349,#350,#351,#352),(#353,
#354,#355,#356),(#357,#358,#359,#360),(#361,#362,#363,#364),(#365,#366,
#367,#368),(#369,#370,#371,#372)),.UNSPECIFIED.,.T.,.F.,.F.)
B_SPLINE_SURFACE_WITH_KNOTS((1,3,3,3,1),(4,4),(-0.5,0.,0.5,1.,1.5),(0.,
1.),.UNSPECIFIED.)
GEOMETRIC_REPRESENTATION_ITEM()
RATIONAL_B_SPLINE_SURFACE(((1.,0.80052943310175,0.80052943310175,1.),(0.333333333333334,
0.26684314436725,0.26684314436725,0.333333333333334),(0.333333333333334,
0.26684314436725,0.26684314436725,0.333333333333334),(1.,0.80052943310175,
0.80052943310175,1.),(0.333333333333334,0.26684314436725,0.26684314436725,
0.333333333333334),(0.333333333333334,0.26684314436725,0.26684314436725,
0.333333333333334),(1.,0.80052943310175,0.80052943310175,1.)))
REPRESENTATION_ITEM('')
SURFACE()
);
#142=FACE_BOUND('',#162,.T.);
#143=FACE_BOUND('',#163,.T.);
#144=FACE_BOUND('',#164,.T.);
#145=FACE_BOUND('',#165,.T.);
#146=FACE_BOUND('',#166,.T.);
#147=FACE_BOUND('',#167,.T.);
#148=FACE_BOUND('',#168,.T.);
#149=FACE_BOUND('',#169,.T.);
#150=FACE_BOUND('',#170,.T.);
#151=FACE_BOUND('',#171,.T.);
#152=FACE_BOUND('',#173,.T.);
#153=FACE_BOUND('',#46,.T.);
#154=FACE_BOUND('',#174,.T.);
#155=FACE_BOUND('',#175,.T.);
#156=FACE_BOUND('',#176,.T.);
#157=FACE_BOUND('',#177,.T.);
#158=FACE_BOUND('',#178,.T.);
#159=FACE_BOUND('',#179,.T.);
#160=FACE_BOUND('',#180,.T.);
#161=FACE_BOUND('',#181,.T.);
#162=EDGE_LOOP('',(#182));
#163=EDGE_LOOP('',(#183));
#164=EDGE_LOOP('',(#184));
#165=EDGE_LOOP('',(#185));
#166=EDGE_LOOP('',(#186));
#167=EDGE_LOOP('',(#187));
#168=EDGE_LOOP('',(#188));
#169=EDGE_LOOP('',(#189));
#170=EDGE_LOOP('',(#190));
#171=EDGE_LOOP('',(#191));
#172=EDGE_LOOP('',(#192));
#173=EDGE_LOOP('',(#193));
#174=EDGE_LOOP('',(#194));
#175=EDGE_LOOP('',(#195));
#176=EDGE_LOOP('',(#196));
#177=EDGE_LOOP('',(#197));
#178=EDGE_LOOP('',(#198));
#179=EDGE_LOOP('',(#199));
#180=EDGE_LOOP('',(#200));
#181=EDGE_LOOP('',(#201));
#182=ORIENTED_EDGE('',*,*,#213,.T.);
#183=ORIENTED_EDGE('',*,*,#214,.F.);
#184=ORIENTED_EDGE('',*,*,#214,.T.);
#185=ORIENTED_EDGE('',*,*,#213,.F.);
#186=ORIENTED_EDGE('',*,*,#215,.T.);
#187=ORIENTED_EDGE('',*,*,#216,.F.);
#188=ORIENTED_EDGE('',*,*,#217,.T.);
#189=ORIENTED_EDGE('',*,*,#215,.F.);
#190=ORIENTED_EDGE('',*,*,#218,.F.);
#191=ORIENTED_EDGE('',*,*,#216,.T.);
#192=ORIENTED_EDGE('',*,*,#217,.F.);
#193=ORIENTED_EDGE('',*,*,#219,.T.);
#194=ORIENTED_EDGE('',*,*,#219,.F.);
#195=ORIENTED_EDGE('',*,*,#220,.T.);
#196=ORIENTED_EDGE('',*,*,#220,.F.);
#197=ORIENTED_EDGE('',*,*,#221,.T.);
#198=ORIENTED_EDGE('',*,*,#221,.F.);
#199=ORIENTED_EDGE('',*,*,#222,.T.);
#200=ORIENTED_EDGE('',*,*,#222,.F.);
#201=ORIENTED_EDGE('',*,*,#218,.T.);
#202=VERTEX_POINT('',#293);
#203=VERTEX_POINT('',#295);
#204=VERTEX_POINT('',#374);
#205=VERTEX_POINT('',#376);
#206=VERTEX_POINT('',#379);
#207=VERTEX_POINT('',#382);
#208=VERTEX_POINT('',#386);
#209=VERTEX_POINT('',#387);
#210=VERTEX_POINT('',#390);
#211=VERTEX_POINT('',#461);
#212=VERTEX_POINT('',#464);
#213=EDGE_CURVE('',#202,#202,#223,.T.);
#214=EDGE_CURVE('',#203,#203,#224,.T.);
#215=EDGE_CURVE('',#204,#204,#225,.T.);
#216=EDGE_CURVE('',#205,#205,#226,.T.);
#217=EDGE_CURVE('',#206,#206,#227,.T.);
#218=EDGE_CURVE('',#207,#207,#228,.T.);
#219=EDGE_CURVE('',#208,#208,#229,.T.);
#220=EDGE_CURVE('',#210,#210,#230,.T.);
#221=EDGE_CURVE('',#211,#211,#231,.T.);
#222=EDGE_CURVE('',#212,#212,#232,.T.);
#223=CIRCLE('',#234,6.);
#224=CIRCLE('',#235,6.);
#225=CIRCLE('',#236,18.);
#226=CIRCLE('',#237,18.);
#227=CIRCLE('',#239,16.5);
#228=CIRCLE('',#241,17.8484848484849);
#229=CIRCLE('',#244,11.1083917320384);
#230=CIRCLE('',#246,19.);
#231=CIRCLE('',#247,19.);
#232=CIRCLE('',#249,18.6969696969697);
#233=AXIS2_PLACEMENT_3D('',#291,#252,#253);
#234=AXIS2_PLACEMENT_3D('',#292,#254,#255);
#235=AXIS2_PLACEMENT_3D('',#294,#256,#257);
#236=AXIS2_PLACEMENT_3D('',#373,#258,#259);
#237=AXIS2_PLACEMENT_3D('',#375,#260,#261);
#238=AXIS2_PLACEMENT_3D('',#377,#262,#263);
#239=AXIS2_PLACEMENT_3D('',#378,#264,#265);
#240=AXIS2_PLACEMENT_3D('',#380,#266,#267);
#241=AXIS2_PLACEMENT_3D('',#381,#268,#269);
#242=AXIS2_PLACEMENT_3D('',#383,#270,#271);
#243=AXIS2_PLACEMENT_3D('',#384,#272,#273);
#244=AXIS2_PLACEMENT_3D('',#385,#274,#275);
#245=AXIS2_PLACEMENT_3D('',#388,#276,#277);
#246=AXIS2_PLACEMENT_3D('',#389,#278,#279);
#247=AXIS2_PLACEMENT_3D('',#460,#281,#282);
#248=AXIS2_PLACEMENT_3D('',#462,#283,#284);
#249=AXIS2_PLACEMENT_3D('',#463,#285,#286);
#250=AXIS2_PLACEMENT_3D('',#465,#287,#288);
#251=AXIS2_PLACEMENT_3D('',#466,#289,#290);
#252=DIRECTION('',(0.,0.,1.));
#253=DIRECTION('',(1.,0.,0.));
#254=DIRECTION('',(0.121869343405147,0.990150654531707,0.0689169389078662));
#255=DIRECTION('',(0.992489739031157,-0.122308584865572,0.00217439325940309));
#256=DIRECTION('',(0.121869343405147,-0.0865060970576294,0.988769213876451));
#257=DIRECTION('',(0.992489739031157,0.,-0.122327911442424));
#258=DIRECTION('',(-1.,0.,0.));
#259=DIRECTION('',(0.,0.,1.));
#260=DIRECTION('',(-1.,0.,0.));
#261=DIRECTION('',(0.,0.,1.));
#262=DIRECTION('',(-1.,0.,0.));
#263=DIRECTION('',(0.,0.,1.));
#264=DIRECTION('',(-1.,0.,0.));
#265=DIRECTION('',(0.,0.,1.));
#266=DIRECTION('',(-1.,0.,0.));
#267=DIRECTION('',(0.,0.,1.));
#268=DIRECTION('',(-1.,0.,0.));
#269=DIRECTION('',(0.,0.,1.));
#270=DIRECTION('',(-1.,0.,0.));
#271=DIRECTION('',(0.,0.,1.));
#272=DIRECTION('',(-1.,0.,0.));
#273=DIRECTION('',(0.,0.,1.));
#274=DIRECTION('',(-1.,0.,0.));
#275=DIRECTION('',(0.,0.,1.));
#276=DIRECTION('',(-1.,0.,0.));
#277=DIRECTION('',(-1.68216093892019E-17,0.,1.));
#278=DIRECTION('',(-1.,0.,0.));
#279=DIRECTION('',(0.,0.,1.));
#280=DIRECTION('',(-1.,0.,0.));
#281=DIRECTION('',(-1.,0.,0.));
#282=DIRECTION('',(0.,0.,1.));
#283=DIRECTION('',(-1.,0.,0.));
#284=DIRECTION('',(0.,0.,1.));
#285=DIRECTION('',(-1.,0.,0.));
#286=DIRECTION('',(0.,0.,1.));
#287=DIRECTION('',(-1.,0.,0.));
#288=DIRECTION('',(0.,0.,1.));
#289=DIRECTION('',(-1.,0.,0.));
#290=DIRECTION('',(0.,0.,1.));
#291=CARTESIAN_POINT('',(0.,0.,0.));
#292=CARTESIAN_POINT('',(5.95527690984794,0.538525386547501,15.0138999428166));
#293=CARTESIAN_POINT('',(11.9102153440349,-0.195326122645932,15.0269463023731));
#294=CARTESIAN_POINT('',(5.95527690984794,-15.0211002511442,0.271566437439218));
#295=CARTESIAN_POINT('',(11.9102153440349,-15.0211002511442,-0.462401031215323));
#296=CARTESIAN_POINT('',(11.9102153440349,-15.0211002511442,-0.462401031215325));
#297=CARTESIAN_POINT('',(11.9102153440349,-14.5402485559564,-16.0828712113168));
#298=CARTESIAN_POINT('',(11.9102153440349,0.0504631562134264,-21.6812137099993));
#299=CARTESIAN_POINT('',(11.9102153440349,10.8565592202308,-10.3914575188571));
#300=CARTESIAN_POINT('',(11.9102153440349,21.6626552842482,0.898298672285022));
#301=CARTESIAN_POINT('',(11.9102153440349,15.4312233770371,15.2300663017854));
#302=CARTESIAN_POINT('',(11.9102153440349,-0.195326122645931,15.026946302373));
#303=CARTESIAN_POINT('',(12.037200666196,-3.06608439566541,0.567875933104644));
#304=CARTESIAN_POINT('',(12.0372006661961,-3.65661963814092,-2.62055095117223));
#305=CARTESIAN_POINT('',(12.0372006661961,-0.944759163019164,-4.39836158013627));
#306=CARTESIAN_POINT('',(12.037200666196,1.74359201309736,-2.58519699222428));
#307=CARTESIAN_POINT('',(12.0372006661961,4.43194318921388,-0.772032404312297));
#308=CARTESIAN_POINT('',(12.0372006661961,3.79971254173898,2.40838930945124));
#309=CARTESIAN_POINT('',(12.037200666196,0.622286231346064,3.05550592259604));
#310=CARTESIAN_POINT('',(0.12732379782213,-3.06608439566541,2.03581087041373));
#311=CARTESIAN_POINT('',(0.12732379782213,-5.18312791857259,-1.15261601386314));
#312=CARTESIAN_POINT('',(0.12732379782213,-3.06169851888821,-4.33812642452224));
#313=CARTESIAN_POINT('',(0.12732379782213,0.696420729551118,-3.61391720836118));
#314=CARTESIAN_POINT('',(0.12732379782213,4.45453997799044,-2.88970799220013));
#315=CARTESIAN_POINT('',(0.12732379782213,5.24028169283215,0.856029482826702));
#316=CARTESIAN_POINT('',(0.12732379782213,2.08998924973293,3.02941320348321));
#317=CARTESIAN_POINT('',(0.000338475660983592,-15.0211002511442,1.00553390609376));
#318=CARTESIAN_POINT('',(0.000338475660983592,-16.0667568363881,-14.6149362740077));
#319=CARTESIAN_POINT('',(0.000338475660983592,-2.06647619965561,-21.6209785543853));
#320=CARTESIAN_POINT('',(0.000338475660983592,9.80938793668458,-11.420177734994));
#321=CARTESIAN_POINT('',(0.000338475660983592,21.6852520730248,-1.21937691560281));
#322=CARTESIAN_POINT('',(0.000338475660983592,16.8717925281302,13.6777064751609));
#323=CARTESIAN_POINT('',(0.000338475660983592,1.27237689574094,15.0008535832602));
#324=CARTESIAN_POINT('',(-0.126646846500163,-26.9761161066228,-0.0247430582262062));
#325=CARTESIAN_POINT('',(-0.126646846500163,-26.9503857542036,-28.0772565341523));
#326=CARTESIAN_POINT('',(-0.126646846500163,-1.07125388042302,-38.9038306842483));
#327=CARTESIAN_POINT('',(-0.126646846500163,18.922355143818,-19.2264382616269));
#328=CARTESIAN_POINT('',(-0.126646846500163,38.9159641680591,0.450954160994513));
#329=CARTESIAN_POINT('',(-0.126646846500163,28.5033033634284,26.4993834674951));
#330=CARTESIAN_POINT('',(-0.126646846500163,0.454764541748944,26.9722939630372));
#331=CARTESIAN_POINT('',(11.7832300218737,-26.9761161066228,-1.49267799553529));
#332=CARTESIAN_POINT('',(11.7832300218738,-25.4238774737719,-29.5451914714614));
#333=CARTESIAN_POINT('',(11.7832300218738,1.04568547544602,-38.9640658398623));
#334=CARTESIAN_POINT('',(11.7832300218737,19.9695264273643,-18.19771804549));
#335=CARTESIAN_POINT('',(11.7832300218738,38.8933673792826,2.56862974888234));
#336=CARTESIAN_POINT('',(11.7832300218738,27.0627342123352,28.0517432941197));
#337=CARTESIAN_POINT('',(11.7832300218737,-1.01293847663793,26.9983866821501));
#338=CARTESIAN_POINT('',(11.9102153440349,-15.0211002511442,-0.462401031215325));
#339=CARTESIAN_POINT('',(11.9102153440349,-14.5402485559564,-16.0828712113168));
#340=CARTESIAN_POINT('',(11.9102153440349,0.0504631562134264,-21.6812137099993));
#341=CARTESIAN_POINT('',(11.9102153440349,10.8565592202308,-10.3914575188571));
#342=CARTESIAN_POINT('',(11.9102153440349,21.6626552842482,0.898298672285022));
#343=CARTESIAN_POINT('',(11.9102153440349,15.4312233770371,15.2300663017854));
#344=CARTESIAN_POINT('',(11.9102153440349,-0.195326122645931,15.026946302373));
#345=CARTESIAN_POINT('',(11.9102153440349,-0.195326122645934,15.026946302373));
#346=CARTESIAN_POINT('',(11.9102153440349,-9.12248138844006,14.910907648262));
#347=CARTESIAN_POINT('',(11.9102153440349,-15.2958018250807,8.46128123308121));
#348=CARTESIAN_POINT('',(11.9102153440349,-15.0211002511442,-0.462401031215325));
#349=CARTESIAN_POINT('',(12.037200666196,0.622286231346063,3.05550592259604));
#350=CARTESIAN_POINT('',(12.037200666196,-1.19291795170614,3.42519153238058));
#351=CARTESIAN_POINT('',(12.037200666196,-2.72872266397862,2.38936453813221));
#352=CARTESIAN_POINT('',(12.037200666196,-3.06608439566541,0.567875933104644));
#353=CARTESIAN_POINT('',(0.12732379782213,2.08998924973293,3.0294132034832));
#354=CARTESIAN_POINT('',(0.12732379782213,0.290286137233586,4.27102664647928));
#355=CARTESIAN_POINT('',(0.12732379782213,-1.85665705319165,3.8572994754413));
#356=CARTESIAN_POINT('',(0.12732379782213,-3.06608439566541,2.03581087041373));
#357=CARTESIAN_POINT('',(0.000338475660983592,1.27237689574094,15.0008535832602));
#358=CARTESIAN_POINT('',(0.000338475660983592,-7.63927729950035,15.7567427623608));
#359=CARTESIAN_POINT('',(0.000338475660983592,-14.4237362142938,9.92921617039029));
#360=CARTESIAN_POINT('',(0.000338475660983592,-15.0211002511442,1.00553390609376));
#361=CARTESIAN_POINT('',(-0.126646846500163,0.454764541748938,26.9722939630372));
#362=CARTESIAN_POINT('',(-0.126646846500163,-15.5688407362343,27.2424588782423));
#363=CARTESIAN_POINT('',(-0.126646846500163,-26.9908153753959,16.0011328653393));
#364=CARTESIAN_POINT('',(-0.126646846500163,-26.9761161066228,-0.0247430582262074));
#365=CARTESIAN_POINT('',(11.7832300218737,-1.01293847663793,26.9983866821501));
#366=CARTESIAN_POINT('',(11.7832300218737,-17.052044825174,26.3966237641436));
#367=CARTESIAN_POINT('',(11.7832300218737,-27.8628809861828,14.5331979280302));
#368=CARTESIAN_POINT('',(11.7832300218737,-26.9761161066228,-1.49267799553529));
#369=CARTESIAN_POINT('',(11.9102153440349,-0.195326122645934,15.026946302373));
#370=CARTESIAN_POINT('',(11.9102153440349,-9.12248138844006,14.910907648262));
#371=CARTESIAN_POINT('',(11.9102153440349,-15.2958018250807,8.46128123308121));
#372=CARTESIAN_POINT('',(11.9102153440349,-15.0211002511442,-0.462401031215325));
#373=CARTESIAN_POINT('',(38.5,0.,0.));
#374=CARTESIAN_POINT('',(38.5,0.,18.));
#375=CARTESIAN_POINT('',(33.,0.,0.));
#376=CARTESIAN_POINT('',(33.,0.,18.));
#377=CARTESIAN_POINT('',(0.,0.,0.));
#378=CARTESIAN_POINT('',(40.,0.,0.));
#379=CARTESIAN_POINT('',(40.,0.,16.5));
#380=CARTESIAN_POINT('',(38.5,0.,0.));
#381=CARTESIAN_POINT('',(31.7784457957123,0.,0.));
#382=CARTESIAN_POINT('',(31.7784457957123,0.,17.8484848484849));
#383=CARTESIAN_POINT('',(33.,0.,0.));
#384=CARTESIAN_POINT('',(40.,9.,0.));
#385=CARTESIAN_POINT('',(3.5000000000001,0.,0.));
#386=CARTESIAN_POINT('',(3.5000000000001,0.,11.1083917320384));
#387=CARTESIAN_POINT('',(7.54312394103061,0.,0.));
#388=CARTESIAN_POINT('',(3.5000000000001,0.,0.));
#389=CARTESIAN_POINT('',(8.07649495063935,0.,0.));
#390=CARTESIAN_POINT('',(8.07649495063935,0.,19.));
#391=CARTESIAN_POINT('',(0.78211601207454,15.4139409484632,0.));
#392=CARTESIAN_POINT('',(0.788581302979021,14.8121238044133,0.));
#393=CARTESIAN_POINT('',(0.821736261107352,14.5133056273029,0.));
#394=CARTESIAN_POINT('',(0.948086287904277,13.9258218243414,0.));
#395=CARTESIAN_POINT('',(1.03982906047779,13.6429771381436,0.));
#396=CARTESIAN_POINT('',(1.27971448000391,13.0988015837997,0.));
#397=CARTESIAN_POINT('',(1.43008565375703,12.8350374552802,0.));
#398=CARTESIAN_POINT('',(1.77726044977152,12.3514425392489,0.));
#399=CARTESIAN_POINT('',(1.97430348412746,12.1294652692463,0.));
#400=CARTESIAN_POINT('',(2.30569906043428,11.8267768479631,0.));
#401=CARTESIAN_POINT('',(2.42252821080354,11.7308341120167,0.));
#402=CARTESIAN_POINT('',(2.66264019079969,11.5537507284275,0.));
#403=CARTESIAN_POINT('',(2.78655677520837,11.4719705063064,0.));
#404=CARTESIAN_POINT('',(3.16956726096794,11.2463519587231,0.));
#405=CARTESIAN_POINT('',(3.4410263018982,11.1216499805714,0.));
#406=CARTESIAN_POINT('',(4.00952010179594,10.9276556285198,0.));
#407=CARTESIAN_POINT('',(4.29868689344223,10.8607482679744,0.));
#408=CARTESIAN_POINT('',(4.88615231083193,10.7827833947824,0.));
#409=CARTESIAN_POINT('',(5.18752113188697,10.7720246801147,0.));
#410=CARTESIAN_POINT('',(5.78408362739674,10.807321262354,0.));
#411=CARTESIAN_POINT('',(6.0772067658793,10.8525702942636,0.));
#412=CARTESIAN_POINT('',(6.65353447304087,10.9961420445256,0.));
#413=CARTESIAN_POINT('',(6.93936215780716,11.0959481141139,0.));
#414=CARTESIAN_POINT('',(7.48148441769069,11.343195908906,0.));
#415=CARTESIAN_POINT('',(7.73916232926719,11.4903962789809,0.));
#416=CARTESIAN_POINT('',(8.22741660946509,11.8325403025173,0.));
#417=CARTESIAN_POINT('',(8.45806228354657,12.028492005621,0.));
#418=CARTESIAN_POINT('',(8.8727044244327,12.4542678103881,0.));
#419=CARTESIAN_POINT('',(9.05934699937974,12.6856649264019,0.));
#420=CARTESIAN_POINT('',(9.38890437155739,13.1875996645405,0.));
#421=CARTESIAN_POINT('',(9.52776786549099,13.4524312978299,0.));
#422=CARTESIAN_POINT('',(9.7506825727117,14.0028837081724,0.));
#423=CARTESIAN_POINT('',(9.8359105550457,14.2927996947293,0.));
#424=CARTESIAN_POINT('',(9.94530490613945,14.8800609814817,0.));
#425=CARTESIAN_POINT('',(9.96998210932252,15.1758466156552,0.));
#426=CARTESIAN_POINT('',(9.95909317753783,15.7717424662418,0.));
#427=CARTESIAN_POINT('',(9.92252652908714,16.0727424004228,0.));
#428=CARTESIAN_POINT('',(9.79109208597758,16.6519349435119,0.));
#429=CARTESIAN_POINT('',(9.69645081229839,16.933639462212,0.));
#430=CARTESIAN_POINT('',(9.44733359379461,17.4807229711499,0.));
#431=CARTESIAN_POINT('',(9.29633537452486,17.738042253042,0.));
#432=CARTESIAN_POINT('',(8.94645020913525,18.2172146894596,0.));
#433=CARTESIAN_POINT('',(8.74458794420541,18.442054072502,0.));
#434=CARTESIAN_POINT('',(8.30268515051619,18.8438567521228,0.));
#435=CARTESIAN_POINT('',(8.06435588275228,19.020354005163,0.));
#436=CARTESIAN_POINT('',(7.55370763293355,19.3256160852921,0.));
#437=CARTESIAN_POINT('',(7.27909258433306,19.4545891459617,0.));
#438=CARTESIAN_POINT('',(6.71900502192952,19.6531204647623,0.));
#439=CARTESIAN_POINT('',(6.43111061939587,19.7245816053249,0.));
#440=CARTESIAN_POINT('',(5.83948678216277,19.8114210069511,0.));
#441=CARTESIAN_POINT('',(5.53849063741714,19.8257474773367,0.));
#442=CARTESIAN_POINT('',(4.94611175074146,19.7971938354149,0.));
#443=CARTESIAN_POINT('',(4.65153680566489,19.754745146602,0.));
#444=CARTESIAN_POINT('',(4.06739871716775,19.6117802640926,0.));
#445=CARTESIAN_POINT('',(3.7868597104459,19.5135289553614,0.));
#446=CARTESIAN_POINT('',(3.24779820679697,19.2659114103344,0.));
#447=CARTESIAN_POINT('',(2.98689276489227,19.1147227668998,0.));
#448=CARTESIAN_POINT('',(2.50079115103619,18.7670042825795,0.));
#449=CARTESIAN_POINT('',(2.2769430221495,18.5722428546564,0.));
#450=CARTESIAN_POINT('',(1.86707301857003,18.141545981823,0.));
#451=CARTESIAN_POINT('',(1.6798949299155,17.9031012928133,0.));
#452=CARTESIAN_POINT('',(1.3588381984437,17.4020701750744,0.));
#453=CARTESIAN_POINT('',(1.22306794831309,17.1382004186094,0.));
#454=CARTESIAN_POINT('',(1.00202975206989,16.5832206359578,0.));
#455=CARTESIAN_POINT('',(0.917987760399777,16.2932519047086,0.));
#456=CARTESIAN_POINT('',(0.80867911813543,15.7100568992282,0.));
#457=CARTESIAN_POINT('',(0.78211601207454,15.4139409484632,0.));
#458=CARTESIAN_POINT('',(0.788581302979021,14.8121238044133,0.));
#459=CARTESIAN_POINT('',(0.,0.,0.));
#460=CARTESIAN_POINT('',(13.6240337527167,0.,0.));
#461=CARTESIAN_POINT('',(13.6240337527167,0.,19.));
#462=CARTESIAN_POINT('',(0.,0.,0.));
#463=CARTESIAN_POINT('',(15.3382320101386,0.,0.));
#464=CARTESIAN_POINT('',(15.3382320101386,0.,18.6969696969697));
#465=CARTESIAN_POINT('',(13.6240337527167,0.,0.));
#466=CARTESIAN_POINT('',(24.9377422517015,0.,0.));
#467=(
GEOMETRIC_REPRESENTATION_CONTEXT(3)
GLOBAL_UNCERTAINTY_ASSIGNED_CONTEXT((#468))
GLOBAL_UNIT_ASSIGNED_CONTEXT((#474,#470,#469))
REPRESENTATION_CONTEXT('model1','TOP_LEVEL_ASSEMBLY_PART')
);
#468=UNCERTAINTY_MEASURE_WITH_UNIT(LENGTH_MEASURE(2.E-5),#474,
'DISTANCE_ACCURACY_VALUE','Maximum Tolerance applied to model');
#469=(
NAMED_UNIT(*)
SI_UNIT($,.STERADIAN.)
SOLID_ANGLE_UNIT()
);
#470=(
CONVERSION_BASED_UNIT('DEGREE',#472)
NAMED_UNIT(#471)
PLANE_ANGLE_UNIT()
);
#471=DIMENSIONAL_EXPONENTS(0.,0.,0.,0.,0.,0.,0.);
#472=PLANE_ANGLE_MEASURE_WITH_UNIT(PLANE_ANGLE_MEASURE(0.0174532925),#473);
#473=(
NAMED_UNIT(*)
PLANE_ANGLE_UNIT()
SI_UNIT($,.RADIAN.)
);
#474=(
LENGTH_UNIT()
NAMED_UNIT(*)
SI_UNIT(.MILLI.,.METRE.)
);
ENDSEC;
END-ISO-10303-21;
