ISO-10303-21;
HEADER;
/* Generated by software containing ST-Developer
 * from STEP Tools, Inc. (www.steptools.com) 
 */
/* OPTION: using custom schema-name function */

FILE_DESCRIPTION(
/* description */ (''),
/* implementation_level */ '2;1');

FILE_NAME(
/* name */ 'model1.stp',
/* time_stamp */ '2023-11-02T17:52:56+03:00',
/* author */ (''),
/* organization */ (''),
/* preprocessor_version */ 'ST-DEVELOPER v19.4',
/* originating_system */ 'SIEMENS PLM Software NX2306.3001',
/* authorisation */ '');

FILE_SCHEMA (('AUTOMOTIVE_DESIGN { 1 0 10303 214 3 1 1 1 }'));
ENDSEC;

DATA;
#10=PROPERTY_DEFINITION_REPRESENTATION(#14,#12);
#11=PROPERTY_DEFINITION_REPRESENTATION(#15,#13);
#12=REPRESENTATION('',(#16),#467);
#13=REPRESENTATION('',(#17),#467);
#14=PROPERTY_DEFINITION('pmi validation property','',#21);
#15=PROPERTY_DEFINITION('pmi validation property','',#21);
#16=VALUE_REPRESENTATION_ITEM('number of annotations',COUNT_MEASURE(0.));
#17=VALUE_REPRESENTATION_ITEM('number of views',COUNT_MEASURE(0.));
#18=SHAPE_REPRESENTATION_RELATIONSHIP('None',
'relationship between model1_objects-None and model1_objects-None',#30,
#19);
#19=ADVANCED_BREP_SHAPE_REPRESENTATION('model1_objects-None',(#125,#126),
#467);
#20=SHAPE_DEFINITION_REPRESENTATION(#21,#30);
#21=PRODUCT_DEFINITION_SHAPE('','',#22);
#22=PRODUCT_DEFINITION(' ','',#24,#23);
#23=PRODUCT_DEFINITION_CONTEXT('part definition',#29,'design');
#24=PRODUCT_DEFINITION_FORMATION_WITH_SPECIFIED_SOURCE(' ',' ',#26,
 .NOT_KNOWN.);
#25=PRODUCT_RELATED_PRODUCT_CATEGORY('part','',(#26));
#26=PRODUCT('model1_objects','model1_objects',' ',(#27));
#27=PRODUCT_CONTEXT(' ',#29,'mechanical');
#28=APPLICATION_PROTOCOL_DEFINITION('international standard',
'automotive_design',2010,#29);
#29=APPLICATION_CONTEXT(
'core data for automotive mechanical design processes');
#30=SHAPE_REPRESENTATION('model1_objects-None',(#233),#467);
#31=OVER_RIDING_STYLED_ITEM('',(#60),#131,#57);
#32=OVER_RIDING_STYLED_ITEM('',(#61),#132,#57);
#33=OVER_RIDING_STYLED_ITEM('',(#62),#133,#57);
#34=OVER_RIDING_STYLED_ITEM('',(#63),#134,#57);
#35=OVER_RIDING_STYLED_ITEM('',(#64),#135,#57);
#36=OVER_RIDING_STYLED_ITEM('',(#65),#136,#57);
#37=OVER_RIDING_STYLED_ITEM('',(#66),#137,#57);
#38=OVER_RIDING_STYLED_ITEM('',(#67),#138,#57);
#39=OVER_RIDING_STYLED_ITEM('',(#68),#139,#57);
#40=COLOUR_RGB('Medium Steel',0.611764705882353,0.658823529411765,0.670588235294118);
#41=COLOUR_RGB('silver gray',0.6,0.6,0.6);
#42=SURFACE_OF_REVOLUTION('',#44,#43);
#43=AXIS1_PLACEMENT('',#459,#280);
#44=B_SPLINE_CURVE_WITH_KNOTS('',3,(#391,#392,#393,#394,#395,#396,#397,
#398,#399,#400,#401,#402,#403,#404,#405,#406,#407,#408,#409,#410,#411,#412,
#413,#414,#415,#416,#417,#418,#419,#420,#421,#422,#423,#424,#425,#426,#427,
#428,#429,#430,#431,#432,#433,#434,#435,#436,#437,#438,#439,#440,#441,#442,
#443,#444,#445,#446,#447,#448,#449,#450,#451,#452,#453,#454,#455,#456,#457,
#458),.UNSPECIFIED.,.T.,.F.,(2,2,2,2,2,2,2,2,2,2,2,2,2,2,2,2,2,2,2,2,2,
2,2,2,2,2,2,2,2,2,2,2,2,2,2,2),(-0.03125,0.,0.03125,0.0625,0.09375,0.125,
0.140625,0.15625,0.1875,0.21875,0.25,0.28125,0.3125,0.34375,0.375,0.40625,
0.4375,0.46875,0.5,0.53125,0.5625,0.59375,0.625,0.65625,0.6875,0.71875,
0.75,0.78125,0.8125,0.84375,0.875,0.90625,0.9375,0.96875,1.,1.03125),
 .UNSPECIFIED.);
#45=CONICAL_SURFACE('',#245,15.4283537466957,70.0000000000036);
#46=VERTEX_LOOP('',#209);
#47=PLANE('',#241);
#48=FACE_OUTER_BOUND('',#170,.T.);
#49=TOROIDAL_SURFACE('',#240,19.5,1.5);
#50=TOROIDAL_SURFACE('',#243,16.,5.);
#51=TOROIDAL_SURFACE('',#250,18.,5.);
#52=TOROIDAL_SURFACE('',#251,56.,36.);
#53=CYLINDRICAL_SURFACE('',#238,21.);
#54=CYLINDRICAL_SURFACE('',#248,23.);
#55=PRESENTATION_LAYER_ASSIGNMENT('1','Layer 1',(#125,#126));
#56=STYLED_ITEM('',(#58),#125);
#57=STYLED_ITEM('',(#59),#126);
#58=PRESENTATION_STYLE_ASSIGNMENT((#69));
#59=PRESENTATION_STYLE_ASSIGNMENT((#70));
#60=PRESENTATION_STYLE_ASSIGNMENT((#71));
#61=PRESENTATION_STYLE_ASSIGNMENT((#72));
#62=PRESENTATION_STYLE_ASSIGNMENT((#73));
#63=PRESENTATION_STYLE_ASSIGNMENT((#74));
#64=PRESENTATION_STYLE_ASSIGNMENT((#75));
#65=PRESENTATION_STYLE_ASSIGNMENT((#76));
#66=PRESENTATION_STYLE_ASSIGNMENT((#77));
#67=PRESENTATION_STYLE_ASSIGNMENT((#78));
#68=PRESENTATION_STYLE_ASSIGNMENT((#79));
#69=SURFACE_STYLE_USAGE(.BOTH.,#80);
#70=SURFACE_STYLE_USAGE(.BOTH.,#81);
#71=SURFACE_STYLE_USAGE(.BOTH.,#82);
#72=SURFACE_STYLE_USAGE(.BOTH.,#83);
#73=SURFACE_STYLE_USAGE(.BOTH.,#84);
#74=SURFACE_STYLE_USAGE(.BOTH.,#85);
#75=SURFACE_STYLE_USAGE(.BOTH.,#86);
#76=SURFACE_STYLE_USAGE(.BOTH.,#87);
#77=SURFACE_STYLE_USAGE(.BOTH.,#88);
#78=SURFACE_STYLE_USAGE(.BOTH.,#89);
#79=SURFACE_STYLE_USAGE(.BOTH.,#90);
#80=SURFACE_SIDE_STYLE('',(#91));
#81=SURFACE_SIDE_STYLE('',(#92));
#82=SURFACE_SIDE_STYLE('',(#93));
#83=SURFACE_SIDE_STYLE('',(#94));
#84=SURFACE_SIDE_STYLE('',(#95));
#85=SURFACE_SIDE_STYLE('',(#96));
#86=SURFACE_SIDE_STYLE('',(#97));
#87=SURFACE_SIDE_STYLE('',(#98));
#88=SURFACE_SIDE_STYLE('',(#99));
#89=SURFACE_SIDE_STYLE('',(#100));
#90=SURFACE_SIDE_STYLE('',(#101));
#91=SURFACE_STYLE_FILL_AREA(#102);
#92=SURFACE_STYLE_FILL_AREA(#103);
#93=SURFACE_STYLE_FILL_AREA(#104);
#94=SURFACE_STYLE_FILL_AREA(#105);
#95=SURFACE_STYLE_FILL_AREA(#106);
#96=SURFACE_STYLE_FILL_AREA(#107);
#97=SURFACE_STYLE_FILL_AREA(#108);
#98=SURFACE_STYLE_FILL_AREA(#109);
#99=SURFACE_STYLE_FILL_AREA(#110);
#100=SURFACE_STYLE_FILL_AREA(#111);
#101=SURFACE_STYLE_FILL_AREA(#112);
#102=FILL_AREA_STYLE('',(#113));
#103=FILL_AREA_STYLE('',(#114));
#104=FILL_AREA_STYLE('',(#115));
#105=FILL_AREA_STYLE('',(#116));
#106=FILL_AREA_STYLE('',(#117));
#107=FILL_AREA_STYLE('',(#118));
#108=FILL_AREA_STYLE('',(#119));
#109=FILL_AREA_STYLE('',(#120));
#110=FILL_AREA_STYLE('',(#121));
#111=FILL_AREA_STYLE('',(#122));
#112=FILL_AREA_STYLE('',(#123));
#113=FILL_AREA_STYLE_COLOUR('',#124);
#114=FILL_AREA_STYLE_COLOUR('',#40);
#115=FILL_AREA_STYLE_COLOUR('',#41);
#116=FILL_AREA_STYLE_COLOUR('',#41);
#117=FILL_AREA_STYLE_COLOUR('',#41);
#118=FILL_AREA_STYLE_COLOUR('',#41);
#119=FILL_AREA_STYLE_COLOUR('',#41);
#120=FILL_AREA_STYLE_COLOUR('',#41);
#121=FILL_AREA_STYLE_COLOUR('',#41);
#122=FILL_AREA_STYLE_COLOUR('',#41);
#123=FILL_AREA_STYLE_COLOUR('',#41);
#124=DRAUGHTING_PRE_DEFINED_COLOUR('yellow');
#125=MANIFOLD_SOLID_BREP('',#127);
#126=MANIFOLD_SOLID_BREP('',#128);
#127=CLOSED_SHELL('',(#129,#130));
#128=CLOSED_SHELL('',(#131,#132,#133,#134,#135,#136,#137,#138,#139));
#129=ADVANCED_FACE('',(#142,#143),#140,.F.);
#130=ADVANCED_FACE('',(#144,#145),#141,.F.);
#131=ADVANCED_FACE('',(#146,#147),#53,.T.);
#132=ADVANCED_FACE('',(#148,#149),#49,.T.);
#133=ADVANCED_FACE('',(#48),#47,.F.);
#134=ADVANCED_FACE('',(#150,#151),#50,.T.);
#135=ADVANCED_FACE('',(#152,#153),#45,.F.);
#136=ADVANCED_FACE('',(#154,#155),#42,.T.);
#137=ADVANCED_FACE('',(#156,#157),#54,.T.);
#138=ADVANCED_FACE('',(#158,#159),#51,.T.);
#139=ADVANCED_FACE('',(#160,#161),#52,.F.);
#140=(
BOUNDED_SURFACE()
B_SPLINE_SURFACE(3,3,((#296,#297,#298,#299,#300,#301,#302),(#303,#304,#305,
#306,#307,#308,#309),(#310,#311,#312,#313,#314,#315,#316),(#317,#318,#319,
#320,#321,#322,#323),(#324,#325,#326,#327,#328,#329,#330),(#331,#332,#333,
#334,#335,#336,#337),(#338,#339,#340,#341,#342,#343,#344)),
 .UNSPECIFIED.,.T.,.F.,.F.)
B_SPLINE_SURFACE_WITH_KNOTS((1,3,3,3,1),(4,3,4),(-0.5,0.,0.5,1.,1.5),(0.,
0.5,1.),.UNSPECIFIED.)
GEOMETRIC_REPRESENTATION_ITEM()
RATIONAL_B_SPLINE_SURFACE(((1.,0.597490507234827,0.597490507234827,1.,0.597490507234827,
0.597490507234827,1.),(0.333333333333334,0.199163502411609,0.199163502411609,
0.333333333333334,0.199163502411609,0.199163502411609,0.333333333333334),
(0.333333333333334,0.199163502411609,0.199163502411609,0.333333333333334,
0.199163502411609,0.199163502411609,0.333333333333334),(1.,0.597490507234827,
0.597490507234827,1.,0.597490507234827,0.597490507234827,1.),(0.333333333333334,
0.199163502411609,0.199163502411609,0.333333333333334,0.199163502411609,
0.199163502411609,0.333333333333334),(0.333333333333334,0.199163502411609,
0.199163502411609,0.333333333333334,0.199163502411609,0.199163502411609,
0.333333333333334),(1.,0.597490507234827,0.597490507234827,1.,0.597490507234827,
0.597490507234827,1.)))
REPRESENTATION_ITEM('')
SURFACE()
);
#141=(
BOUNDED_SURFACE()
B_SPLINE_SURFACE(3,3,((#345,#346,#347,#348),(#349,#350,#351,#352),(#353,
#354,#355,#356),(#357,#358,#359,#360),(#361,#362,#363,#364),(#365,#366,
#367,#368),(#369,#370,#371,#372)),.UNSPECIFIED.,.T.,.F.,.F.)
B_SPLINE_SURFACE_WITH_KNOTS((1,3,3,3,1),(4,4),(-0.5,0.,0.5,1.,1.5),(0.,
1.),.UNSPECIFIED.)
GEOMETRIC_REPRESENTATION_ITEM()
RATIONAL_B_SPLINE_SURFACE(((1.,0.790662962429128,0.790662962429128,1.),
(0.333333333333334,0.26355432080971,0.26355432080971,0.333333333333334),
(0.333333333333334,0.26355432080971,0.26355432080971,0.333333333333334),
(1.,0.790662962429128,0.790662962429128,1.),(0.333333333333334,0.26355432080971,
0.26355432080971,0.333333333333334),(0.333333333333334,0.26355432080971,
0.26355432080971,0.333333333333334),(1.,0.790662962429128,0.790662962429128,
1.)))
REPRESENTATION_ITEM('')
SURFACE()
);
#142=FACE_BOUND('',#162,.T.);
#143=FACE_BOUND('',#163,.T.);
#144=FACE_BOUND('',#164,.T.);
#145=FACE_BOUND('',#165,.T.);
#146=FACE_BOUND('',#166,.T.);
#147=FACE_BOUND('',#167,.T.);
#148=FACE_BOUND('',#168,.T.);
#149=FACE_BOUND('',#169,.T.);
#150=FACE_BOUND('',#171,.T.);
#151=FACE_BOUND('',#172,.T.);
#152=FACE_BOUND('',#173,.T.);
#153=FACE_BOUND('',#46,.T.);
#154=FACE_BOUND('',#174,.T.);
#155=FACE_BOUND('',#175,.T.);
#156=FACE_BOUND('',#176,.T.);
#157=FACE_BOUND('',#177,.T.);
#158=FACE_BOUND('',#178,.T.);
#159=FACE_BOUND('',#179,.T.);
#160=FACE_BOUND('',#180,.T.);
#161=FACE_BOUND('',#181,.T.);
#162=EDGE_LOOP('',(#182));
#163=EDGE_LOOP('',(#183));
#164=EDGE_LOOP('',(#184));
#165=EDGE_LOOP('',(#185));
#166=EDGE_LOOP('',(#186));
#167=EDGE_LOOP('',(#187));
#168=EDGE_LOOP('',(#188));
#169=EDGE_LOOP('',(#189));
#170=EDGE_LOOP('',(#190));
#171=EDGE_LOOP('',(#191));
#172=EDGE_LOOP('',(#192));
#173=EDGE_LOOP('',(#193));
#174=EDGE_LOOP('',(#194));
#175=EDGE_LOOP('',(#195));
#176=EDGE_LOOP('',(#196));
#177=EDGE_LOOP('',(#197));
#178=EDGE_LOOP('',(#198));
#179=EDGE_LOOP('',(#199));
#180=EDGE_LOOP('',(#200));
#181=EDGE_LOOP('',(#201));
#182=ORIENTED_EDGE('',*,*,#213,.T.);
#183=ORIENTED_EDGE('',*,*,#214,.F.);
#184=ORIENTED_EDGE('',*,*,#214,.T.);
#185=ORIENTED_EDGE('',*,*,#213,.F.);
#186=ORIENTED_EDGE('',*,*,#215,.T.);
#187=ORIENTED_EDGE('',*,*,#216,.F.);
#188=ORIENTED_EDGE('',*,*,#217,.T.);
#189=ORIENTED_EDGE('',*,*,#215,.F.);
#190=ORIENTED_EDGE('',*,*,#217,.F.);
#191=ORIENTED_EDGE('',*,*,#218,.F.);
#192=ORIENTED_EDGE('',*,*,#216,.T.);
#193=ORIENTED_EDGE('',*,*,#219,.T.);
#194=ORIENTED_EDGE('',*,*,#219,.F.);
#195=ORIENTED_EDGE('',*,*,#220,.T.);
#196=ORIENTED_EDGE('',*,*,#220,.F.);
#197=ORIENTED_EDGE('',*,*,#221,.T.);
#198=ORIENTED_EDGE('',*,*,#221,.F.);
#199=ORIENTED_EDGE('',*,*,#222,.T.);
#200=ORIENTED_EDGE('',*,*,#222,.F.);
#201=ORIENTED_EDGE('',*,*,#218,.T.);
#202=VERTEX_POINT('',#293);
#203=VERTEX_POINT('',#295);
#204=VERTEX_POINT('',#374);
#205=VERTEX_POINT('',#376);
#206=VERTEX_POINT('',#379);
#207=VERTEX_POINT('',#383);
#208=VERTEX_POINT('',#386);
#209=VERTEX_POINT('',#387);
#210=VERTEX_POINT('',#390);
#211=VERTEX_POINT('',#461);
#212=VERTEX_POINT('',#464);
#213=EDGE_CURVE('',#202,#202,#223,.T.);
#214=EDGE_CURVE('',#203,#203,#224,.T.);
#215=EDGE_CURVE('',#204,#204,#225,.T.);
#216=EDGE_CURVE('',#205,#205,#226,.T.);
#217=EDGE_CURVE('',#206,#206,#227,.T.);
#218=EDGE_CURVE('',#207,#207,#228,.T.);
#219=EDGE_CURVE('',#208,#208,#229,.T.);
#220=EDGE_CURVE('',#210,#210,#230,.T.);
#221=EDGE_CURVE('',#211,#211,#231,.T.);
#222=EDGE_CURVE('',#212,#212,#232,.T.);
#223=CIRCLE('',#234,6.);
#224=CIRCLE('',#235,6.);
#225=CIRCLE('',#236,21.);
#226=CIRCLE('',#237,21.);
#227=CIRCLE('',#239,19.5);
#228=CIRCLE('',#242,20.8780487804878);
#229=CIRCLE('',#244,15.4283537466957);
#230=CIRCLE('',#246,23.);
#231=CIRCLE('',#247,23.);
#232=CIRCLE('',#249,22.6341463414634);
#233=AXIS2_PLACEMENT_3D('',#291,#252,#253);
#234=AXIS2_PLACEMENT_3D('',#292,#254,#255);
#235=AXIS2_PLACEMENT_3D('',#294,#256,#257);
#236=AXIS2_PLACEMENT_3D('',#373,#258,#259);
#237=AXIS2_PLACEMENT_3D('',#375,#260,#261);
#238=AXIS2_PLACEMENT_3D('',#377,#262,#263);
#239=AXIS2_PLACEMENT_3D('',#378,#264,#265);
#240=AXIS2_PLACEMENT_3D('',#380,#266,#267);
#241=AXIS2_PLACEMENT_3D('',#381,#268,#269);
#242=AXIS2_PLACEMENT_3D('',#382,#270,#271);
#243=AXIS2_PLACEMENT_3D('',#384,#272,#273);
#244=AXIS2_PLACEMENT_3D('',#385,#274,#275);
#245=AXIS2_PLACEMENT_3D('',#388,#276,#277);
#246=AXIS2_PLACEMENT_3D('',#389,#278,#279);
#247=AXIS2_PLACEMENT_3D('',#460,#281,#282);
#248=AXIS2_PLACEMENT_3D('',#462,#283,#284);
#249=AXIS2_PLACEMENT_3D('',#463,#285,#286);
#250=AXIS2_PLACEMENT_3D('',#465,#287,#288);
#251=AXIS2_PLACEMENT_3D('',#466,#289,#290);
#252=DIRECTION('',(0.,0.,1.));
#253=DIRECTION('',(1.,0.,0.));
#254=DIRECTION('',(0.121869343405147,0.992145644065686,0.0281936890009634));
#255=DIRECTION('',(0.992489739031157,-0.122116090098939,0.00719572489838993));
#256=DIRECTION('',(0.121869343405147,-0.0865060970576294,0.988769213876451));
#257=DIRECTION('',(0.992489739031157,0.,-0.122327911442424));
#258=DIRECTION('',(-1.,0.,0.));
#259=DIRECTION('',(0.,0.,1.));
#260=DIRECTION('',(-1.,0.,0.));
#261=DIRECTION('',(0.,0.,1.));
#262=DIRECTION('',(-1.,0.,0.));
#263=DIRECTION('',(0.,0.,1.));
#264=DIRECTION('',(-1.,0.,0.));
#265=DIRECTION('',(0.,0.,1.));
#266=DIRECTION('',(-1.,0.,0.));
#267=DIRECTION('',(0.,0.,1.));
#268=DIRECTION('',(-1.,0.,0.));
#269=DIRECTION('',(0.,0.,1.));
#270=DIRECTION('',(-1.,0.,0.));
#271=DIRECTION('',(0.,0.,1.));
#272=DIRECTION('',(-1.,0.,0.));
#273=DIRECTION('',(0.,0.,1.));
#274=DIRECTION('',(-1.,0.,0.));
#275=DIRECTION('',(0.,0.,1.));
#276=DIRECTION('',(-1.,0.,0.));
#277=DIRECTION('',(-1.93067557365409E-17,0.,1.));
#278=DIRECTION('',(-1.,0.,0.));
#279=DIRECTION('',(0.,0.,1.));
#280=DIRECTION('',(-1.,0.,0.));
#281=DIRECTION('',(-1.,0.,0.));
#282=DIRECTION('',(0.,0.,1.));
#283=DIRECTION('',(-1.,0.,0.));
#284=DIRECTION('',(0.,0.,1.));
#285=DIRECTION('',(-1.,0.,0.));
#286=DIRECTION('',(0.,0.,1.));
#287=DIRECTION('',(-1.,0.,0.));
#288=DIRECTION('',(0.,0.,1.));
#289=DIRECTION('',(-1.,0.,0.));
#290=DIRECTION('',(0.,0.,1.));
#291=CARTESIAN_POINT('',(0.,0.,0.));
#292=CARTESIAN_POINT('',(5.95527690984794,0.3899636205826,19.0013641279695));
#293=CARTESIAN_POINT('',(11.9102153440349,-0.342732920011033,19.0445384773598));
#294=CARTESIAN_POINT('',(5.95527690984794,-18.9914005511441,-0.728433562560782));
#295=CARTESIAN_POINT('',(11.9102153440349,-18.9914005511441,-1.46240103121532));
#296=CARTESIAN_POINT('',(11.9102153440349,-18.9914005511441,-1.46240103121532));
#297=CARTESIAN_POINT('',(11.9102153440349,-17.4932436901121,-20.9181429439919));
#298=CARTESIAN_POINT('',(11.9102153440349,0.963645754438562,-27.2516727172274));
#299=CARTESIAN_POINT('',(11.9102153440349,14.092048157461,-12.8150727816075));
#300=CARTESIAN_POINT('',(11.9102153440349,27.2204505604835,1.62152715401247));
#301=CARTESIAN_POINT('',(11.9102153440349,19.1674461458048,19.3956512464676));
#302=CARTESIAN_POINT('',(11.9102153440349,-0.342732920011035,19.0445384773598));
#303=CARTESIAN_POINT('',(12.037200666196,-7.03638469566541,-0.432124066895357));
#304=CARTESIAN_POINT('',(12.037200666196,-6.59369515851547,-7.64054896790297));
#305=CARTESIAN_POINT('',(12.037200666196,0.200120951115837,-10.0903298250988));
#306=CARTESIAN_POINT('',(12.037200666196,5.14133720454582,-4.82328648783562));
#307=CARTESIAN_POINT('',(12.037200666196,10.0825534579758,0.443756849427527));
#308=CARTESIAN_POINT('',(12.037200666196,7.20451051177107,7.06751955498772));
#309=CARTESIAN_POINT('',(12.037200666196,-0.0174728147686216,7.04961952840923));
#310=CARTESIAN_POINT('',(0.127323797822132,-7.03638469566541,1.03581087041373));
#311=CARTESIAN_POINT('',(0.127323797822132,-8.09752123011674,-6.17261403059389));
#312=CARTESIAN_POINT('',(0.127323797822132,-1.89957478815581,-10.003130993198));
#313=CARTESIAN_POINT('',(0.127323797822132,4.07325779459916,-5.8302816984601));
#314=CARTESIAN_POINT('',(0.127323797822132,10.0460903773542,-1.65743240372221));
#315=CARTESIAN_POINT('',(0.127323797822132,8.58144366113516,5.47994878932634));
#316=CARTESIAN_POINT('',(0.127323797822132,1.44792026641864,6.96327082962855));
#317=CARTESIAN_POINT('',(0.000338475660986194,-18.9914005511441,0.00553390609376128));
#318=CARTESIAN_POINT('',(0.000338475660986194,-18.9970697617134,-19.4502080066828));
#319=CARTESIAN_POINT('',(0.000338475660986194,-1.13604998483308,-27.1644738853267));
#320=CARTESIAN_POINT('',(0.000338475660986194,13.0239687475144,-13.822067992232));
#321=CARTESIAN_POINT('',(0.000338475660986194,27.1839874798619,-0.479662099137265));
#322=CARTESIAN_POINT('',(0.000338475660986194,20.5443792951689,17.8080804808062));
#323=CARTESIAN_POINT('',(0.000338475660986194,1.12266016117623,18.9581897785792));
#324=CARTESIAN_POINT('',(-0.12664684650016,-30.9464164066228,-1.02474305822621));
#325=CARTESIAN_POINT('',(-0.12664684650016,-29.8966182933101,-32.7278019827717));
#326=CARTESIAN_POINT('',(-0.12664684650016,-0.372525181510364,-44.3258167774554));
#327=CARTESIAN_POINT('',(-0.12664684650016,21.9746797004296,-21.8138542860038));
#328=CARTESIAN_POINT('',(-0.12664684650016,44.3218845823695,0.698108205447672));
#329=CARTESIAN_POINT('',(-0.12664684650016,32.5073149292026,30.1362121722861));
#330=CARTESIAN_POINT('',(-0.12664684650016,0.797400055933825,30.9531087275297));
#331=CARTESIAN_POINT('',(11.7832300218737,-30.9464164066228,-2.49267799553529));
#332=CARTESIAN_POINT('',(11.7832300218737,-28.3927922217088,-34.1957369200808));
#333=CARTESIAN_POINT('',(11.7832300218737,1.72717055776128,-44.4130156093561));
#334=CARTESIAN_POINT('',(11.7832300218737,23.0427591103762,-20.8068590753794));
#335=CARTESIAN_POINT('',(11.7832300218737,44.3583476629912,2.79929745859741));
#336=CARTESIAN_POINT('',(11.7832300218737,31.1303817798385,31.7237829379475));
#337=CARTESIAN_POINT('',(11.7832300218737,-0.667993025253445,31.0394574263103));
#338=CARTESIAN_POINT('',(11.9102153440349,-18.9914005511441,-1.46240103121532));
#339=CARTESIAN_POINT('',(11.9102153440349,-17.4932436901121,-20.9181429439919));
#340=CARTESIAN_POINT('',(11.9102153440349,0.963645754438562,-27.2516727172274));
#341=CARTESIAN_POINT('',(11.9102153440349,14.092048157461,-12.8150727816075));
#342=CARTESIAN_POINT('',(11.9102153440349,27.2204505604835,1.62152715401247));
#343=CARTESIAN_POINT('',(11.9102153440349,19.1674461458048,19.3956512464676));
#344=CARTESIAN_POINT('',(11.9102153440349,-0.342732920011035,19.0445384773598));
#345=CARTESIAN_POINT('',(11.9102153440349,-0.342732920011034,19.0445384773598));
#346=CARTESIAN_POINT('',(11.9102153440349,-12.0265442168898,18.8342720659475));
#347=CARTESIAN_POINT('',(11.9102153440349,-19.8885825810155,10.1888101843673));
#348=CARTESIAN_POINT('',(11.9102153440349,-18.9914005511441,-1.46240103121532));
#349=CARTESIAN_POINT('',(12.037200666196,-0.0174728147686216,7.04961952840923));
#350=CARTESIAN_POINT('',(12.037200666196,-4.34240956147123,7.0388999685299));
#351=CARTESIAN_POINT('',(12.037200666196,-7.30149251439503,3.88469311899415));
#352=CARTESIAN_POINT('',(12.037200666196,-7.03638469566541,-0.432124066895357));
#353=CARTESIAN_POINT('',(0.127323797822132,1.44792026641864,6.96327082962855));
#354=CARTESIAN_POINT('',(0.127323797822132,-2.82404161279196,7.85156892022671));
#355=CARTESIAN_POINT('',(0.127323797822132,-6.40091543692979,5.35262805630323));
#356=CARTESIAN_POINT('',(0.127323797822132,-7.03638469566541,1.03581087041373));
#357=CARTESIAN_POINT('',(0.000338475660986194,1.12266016117623,18.9581897785792));
#358=CARTESIAN_POINT('',(0.000338475660986194,-10.5081762682106,19.6469410176443));
#359=CARTESIAN_POINT('',(0.000338475660986194,-18.9880055035503,11.6567451216763));
#360=CARTESIAN_POINT('',(0.000338475660986194,-18.9914005511441,0.00553390609375998));
#361=CARTESIAN_POINT('',(-0.12664684650016,0.797400055933822,30.9531087275297));
#362=CARTESIAN_POINT('',(-0.12664684650016,-18.1923109236292,31.442313115062));
#363=CARTESIAN_POINT('',(-0.12664684650016,-31.5750955701707,17.9608621870494));
#364=CARTESIAN_POINT('',(-0.12664684650016,-30.9464164066228,-1.02474305822621));
#365=CARTESIAN_POINT('',(11.7832300218737,-0.667993025253445,31.0394574263103));
#366=CARTESIAN_POINT('',(11.7832300218737,-19.7106788723085,30.6296441633652));
#367=CARTESIAN_POINT('',(11.7832300218737,-32.4756726476359,16.4929272497403));
#368=CARTESIAN_POINT('',(11.7832300218737,-30.9464164066228,-2.49267799553529));
#369=CARTESIAN_POINT('',(11.9102153440349,-0.342732920011034,19.0445384773598));
#370=CARTESIAN_POINT('',(11.9102153440349,-12.0265442168898,18.8342720659475));
#371=CARTESIAN_POINT('',(11.9102153440349,-19.8885825810155,10.1888101843673));
#372=CARTESIAN_POINT('',(11.9102153440349,-18.9914005511441,-1.46240103121532));
#373=CARTESIAN_POINT('',(48.5,0.,0.));
#374=CARTESIAN_POINT('',(48.5,0.,21.));
#375=CARTESIAN_POINT('',(42.,0.,0.));
#376=CARTESIAN_POINT('',(42.,0.,21.));
#377=CARTESIAN_POINT('',(0.,0.,0.));
#378=CARTESIAN_POINT('',(50.,0.,0.));
#379=CARTESIAN_POINT('',(50.,0.,19.5));
#380=CARTESIAN_POINT('',(48.5,0.,0.));
#381=CARTESIAN_POINT('',(50.,12.,0.));
#382=CARTESIAN_POINT('',(40.9024390243902,0.,0.));
#383=CARTESIAN_POINT('',(40.9024390243902,0.,20.8780487804878));
#384=CARTESIAN_POINT('',(42.,0.,0.));
#385=CARTESIAN_POINT('',(3.0000000000005,0.,0.));
#386=CARTESIAN_POINT('',(3.0000000000005,0.,15.4283537466957));
#387=CARTESIAN_POINT('',(8.61546152752608,0.,0.));
#388=CARTESIAN_POINT('',(3.0000000000005,0.,0.));
#389=CARTESIAN_POINT('',(8.20493546745208,0.,0.));
#390=CARTESIAN_POINT('',(8.20493546745208,0.,23.));
#391=CARTESIAN_POINT('',(0.78211295987704,19.5084210893606,0.));
#392=CARTESIAN_POINT('',(0.788584355176517,18.9057648562002,0.));
#393=CARTESIAN_POINT('',(0.821761514615808,18.6067630238732,0.));
#394=CARTESIAN_POINT('',(0.948247152832547,18.0182739698507,0.));
#395=CARTESIAN_POINT('',(1.04005104795422,17.7350306777053,0.));
#396=CARTESIAN_POINT('',(1.27975476310819,17.1901512781255,0.));
#397=CARTESIAN_POINT('',(1.4299162584317,16.9259394797209,0.));
#398=CARTESIAN_POINT('',(1.77670135125164,16.4407707719981,0.));
#399=CARTESIAN_POINT('',(1.9733538468519,16.2179975703826,0.));
#400=CARTESIAN_POINT('',(2.3036486563892,15.913917453742,0.));
#401=CARTESIAN_POINT('',(2.42023241228579,15.8172863963392,0.));
#402=CARTESIAN_POINT('',(2.66004780884579,15.6385996632066,0.));
#403=CARTESIAN_POINT('',(2.78378732843563,15.5559901719092,0.));
#404=CARTESIAN_POINT('',(3.16617523975629,15.3277902299418,0.));
#405=CARTESIAN_POINT('',(3.43651390787667,15.2014265796611,0.));
#406=CARTESIAN_POINT('',(4.00504497844791,15.00305007011,0.));
#407=CARTESIAN_POINT('',(4.29431931034798,14.9339900189181,0.));
#408=CARTESIAN_POINT('',(4.88221191505165,14.8520742656994,0.));
#409=CARTESIAN_POINT('',(5.18389208810316,14.8394969745739,0.));
#410=CARTESIAN_POINT('',(5.78153901509535,14.8719471674321,0.));
#411=CARTESIAN_POINT('',(6.0752326380183,14.9161709757799,0.));
#412=CARTESIAN_POINT('',(6.65273076132002,15.0585935044234,0.));
#413=CARTESIAN_POINT('',(6.93917188816233,15.1583097331926,0.));
#414=CARTESIAN_POINT('',(7.48182714912398,15.405939225602,0.));
#415=CARTESIAN_POINT('',(7.73961075624779,15.5536540310666,0.));
#416=CARTESIAN_POINT('',(8.22787287315486,15.8972667724686,0.));
#417=CARTESIAN_POINT('',(8.45830053065968,16.0940963837115,0.));
#418=CARTESIAN_POINT('',(8.87228667298489,16.5214836730387,0.));
#419=CARTESIAN_POINT('',(9.05853457376232,16.7536647258522,0.));
#420=CARTESIAN_POINT('',(9.38739884478002,17.2569098051192,0.));
#421=CARTESIAN_POINT('',(9.52606140950453,17.5224106049692,0.));
#422=CARTESIAN_POINT('',(9.74880576605823,18.0737532974899,0.));
#423=CARTESIAN_POINT('',(9.83410105148837,18.3638386951204,0.));
#424=CARTESIAN_POINT('',(9.94422034522419,18.9520557134679,0.));
#425=CARTESIAN_POINT('',(9.96943179076365,19.2482375869924,0.));
#426=CARTESIAN_POINT('',(9.96000295362931,19.8447588522192,0.));
#427=CARTESIAN_POINT('',(9.92435103600315,20.1463794672631,0.));
#428=CARTESIAN_POINT('',(9.79479324010735,20.727014107327,0.));
#429=CARTESIAN_POINT('',(9.70115890517048,21.0094289477427,0.));
#430=CARTESIAN_POINT('',(9.45422521207527,21.5579184972502,0.));
#431=CARTESIAN_POINT('',(9.30391384122671,21.8167203575933,0.));
#432=CARTESIAN_POINT('',(8.95562767259499,22.2980580119815,0.));
#433=CARTESIAN_POINT('',(8.75461050328491,22.5239151001478,0.));
#434=CARTESIAN_POINT('',(8.31353420225166,22.9282732666329,0.));
#435=CARTESIAN_POINT('',(8.0755253358381,23.1059410890773,0.));
#436=CARTESIAN_POINT('',(7.56538297404353,23.4134001795534,0.));
#437=CARTESIAN_POINT('',(7.29078853562976,23.5434953272398,0.));
#438=CARTESIAN_POINT('',(6.73042895776438,23.7440523450193,0.));
#439=CARTESIAN_POINT('',(6.44235212364356,23.8163990343345,0.));
#440=CARTESIAN_POINT('',(5.85029650350549,23.9048472680189,0.));
#441=CARTESIAN_POINT('',(5.54875368350753,23.9199050545415,0.));
#442=CARTESIAN_POINT('',(4.9554702803212,23.8925568973285,0.));
#443=CARTESIAN_POINT('',(4.66061853728089,23.8506552043842,0.));
#444=CARTESIAN_POINT('',(4.07523052671113,23.7084925542433,0.));
#445=CARTESIAN_POINT('',(3.79411050170868,23.6105405374617,0.));
#446=CARTESIAN_POINT('',(3.25394123333507,23.3633959492606,0.));
#447=CARTESIAN_POINT('',(2.99253273228086,23.2124085983006,0.));
#448=CARTESIAN_POINT('',(2.5052208347827,22.8647772218998,0.));
#449=CARTESIAN_POINT('',(2.28082269562988,22.669996310841,0.));
#450=CARTESIAN_POINT('',(1.86994075262909,22.2391586372192,0.));
#451=CARTESIAN_POINT('',(1.68227198143973,22.0005623480731,0.));
#452=CARTESIAN_POINT('',(1.36034124331252,21.4990667665588,0.));
#453=CARTESIAN_POINT('',(1.22420742559324,21.2349225278548,0.));
#454=CARTESIAN_POINT('',(1.00258508297355,20.6793112698607,0.));
#455=CARTESIAN_POINT('',(0.918313633368163,20.3889396185973,0.));
#456=CARTESIAN_POINT('',(0.808730775561176,19.8049479729263,0.));
#457=CARTESIAN_POINT('',(0.78211295987704,19.5084210893606,0.));
#458=CARTESIAN_POINT('',(0.788584355176517,18.9057648562002,0.));
#459=CARTESIAN_POINT('',(0.,0.,0.));
#460=CARTESIAN_POINT('',(17.6051956816593,0.,0.));
#461=CARTESIAN_POINT('',(17.6051956816593,0.,23.));
#462=CARTESIAN_POINT('',(0.,0.,0.));
#463=CARTESIAN_POINT('',(19.4826108424326,0.,0.));
#464=CARTESIAN_POINT('',(19.4826108424326,0.,22.6341463414634));
#465=CARTESIAN_POINT('',(17.6051956816593,0.,0.));
#466=CARTESIAN_POINT('',(33.,0.,0.));
#467=(
GEOMETRIC_REPRESENTATION_CONTEXT(3)
GLOBAL_UNCERTAINTY_ASSIGNED_CONTEXT((#468))
GLOBAL_UNIT_ASSIGNED_CONTEXT((#474,#470,#469))
REPRESENTATION_CONTEXT('model1','TOP_LEVEL_ASSEMBLY_PART')
);
#468=UNCERTAINTY_MEASURE_WITH_UNIT(LENGTH_MEASURE(2.E-5),#474,
'DISTANCE_ACCURACY_VALUE','Maximum Tolerance applied to model');
#469=(
NAMED_UNIT(*)
SI_UNIT($,.STERADIAN.)
SOLID_ANGLE_UNIT()
);
#470=(
CONVERSION_BASED_UNIT('DEGREE',#472)
NAMED_UNIT(#471)
PLANE_ANGLE_UNIT()
);
#471=DIMENSIONAL_EXPONENTS(0.,0.,0.,0.,0.,0.,0.);
#472=PLANE_ANGLE_MEASURE_WITH_UNIT(PLANE_ANGLE_MEASURE(0.0174532925),#473);
#473=(
NAMED_UNIT(*)
PLANE_ANGLE_UNIT()
SI_UNIT($,.RADIAN.)
);
#474=(
LENGTH_UNIT()
NAMED_UNIT(*)
SI_UNIT(.MILLI.,.METRE.)
);
ENDSEC;
END-ISO-10303-21;
