ISO-10303-21;
HEADER;
/* Generated by software containing ST-Developer
 * from STEP Tools, Inc. (www.steptools.com) 
 */
/* OPTION: using custom schema-name function */

FILE_DESCRIPTION(
/* description */ (''),
/* implementation_level */ '2;1');

FILE_NAME(
/* name */ 'model1.stp',
/* time_stamp */ '2023-11-06T15:45:51+03:00',
/* author */ (''),
/* organization */ (''),
/* preprocessor_version */ 'ST-DEVELOPER v19.4',
/* originating_system */ 'SIEMENS PLM Software NX2306.3001',
/* authorisation */ '');

FILE_SCHEMA (('AUTOMOTIVE_DESIGN { 1 0 10303 214 3 1 1 1 }'));
ENDSEC;

DATA;
#10=PROPERTY_DEFINITION_REPRESENTATION(#14,#12);
#11=PROPERTY_DEFINITION_REPRESENTATION(#15,#13);
#12=REPRESENTATION('',(#16),#490);
#13=REPRESENTATION('',(#17),#490);
#14=PROPERTY_DEFINITION('pmi validation property','',#21);
#15=PROPERTY_DEFINITION('pmi validation property','',#21);
#16=VALUE_REPRESENTATION_ITEM('number of annotations',COUNT_MEASURE(0.));
#17=VALUE_REPRESENTATION_ITEM('number of views',COUNT_MEASURE(0.));
#18=SHAPE_REPRESENTATION_RELATIONSHIP('None',
'relationship between model1_objects-None and model1_objects-None',#30,
#19);
#19=ADVANCED_BREP_SHAPE_REPRESENTATION('model1_objects-None',(#133,#134),
#490);
#20=SHAPE_DEFINITION_REPRESENTATION(#21,#30);
#21=PRODUCT_DEFINITION_SHAPE('','',#22);
#22=PRODUCT_DEFINITION(' ','',#24,#23);
#23=PRODUCT_DEFINITION_CONTEXT('part definition',#29,'design');
#24=PRODUCT_DEFINITION_FORMATION_WITH_SPECIFIED_SOURCE(' ',' ',#26,
 .NOT_KNOWN.);
#25=PRODUCT_RELATED_PRODUCT_CATEGORY('part','',(#26));
#26=PRODUCT('model1_objects','model1_objects',' ',(#27));
#27=PRODUCT_CONTEXT(' ',#29,'mechanical');
#28=APPLICATION_PROTOCOL_DEFINITION('international standard',
'automotive_design',2010,#29);
#29=APPLICATION_CONTEXT(
'core data for automotive mechanical design processes');
#30=SHAPE_REPRESENTATION('model1_objects-None',(#251),#490);
#31=OVER_RIDING_STYLED_ITEM('',(#62),#139,#59);
#32=OVER_RIDING_STYLED_ITEM('',(#63),#140,#59);
#33=OVER_RIDING_STYLED_ITEM('',(#64),#141,#59);
#34=OVER_RIDING_STYLED_ITEM('',(#65),#142,#59);
#35=OVER_RIDING_STYLED_ITEM('',(#66),#143,#59);
#36=OVER_RIDING_STYLED_ITEM('',(#67),#144,#59);
#37=OVER_RIDING_STYLED_ITEM('',(#68),#145,#59);
#38=OVER_RIDING_STYLED_ITEM('',(#69),#146,#59);
#39=OVER_RIDING_STYLED_ITEM('',(#70),#147,#59);
#40=OVER_RIDING_STYLED_ITEM('',(#71),#148,#59);
#41=COLOUR_RGB('Medium Steel',0.611764705882353,0.658823529411765,0.670588235294118);
#42=COLOUR_RGB('silver gray',0.6,0.6,0.6);
#43=VERTEX_LOOP('',#228);
#44=SURFACE_OF_REVOLUTION('',#46,#45);
#45=AXIS1_PLACEMENT('',#487,#312);
#46=B_SPLINE_CURVE_WITH_KNOTS('',3,(#423,#424,#425,#426,#427,#428,#429,
#430,#431,#432,#433,#434,#435,#436,#437,#438,#439,#440,#441,#442,#443,#444,
#445,#446,#447,#448,#449,#450,#451,#452,#453,#454,#455,#456,#457,#458,#459,
#460,#461,#462,#463,#464,#465,#466,#467,#468,#469,#470,#471,#472,#473,#474,
#475,#476,#477,#478,#479,#480,#481,#482,#483,#484,#485,#486),
 .UNSPECIFIED.,.T.,.F.,(2,2,2,2,2,2,2,2,2,2,2,2,2,2,2,2,2,2,2,2,2,2,2,2,
2,2,2,2,2,2,2,2,2,2),(-0.03125,0.,0.0625,0.09375,0.125,0.15625,0.1875,0.21875,
0.25,0.28125,0.3125,0.34375,0.375,0.40625,0.4375,0.46875,0.5,0.53125,0.5625,
0.59375,0.625,0.65625,0.6875,0.71875,0.75,0.78125,0.8125,0.84375,0.875,
0.90625,0.9375,0.96875,1.,1.0625),.UNSPECIFIED.);
#47=CONICAL_SURFACE('',#261,24.,30.);
#48=CONICAL_SURFACE('',#271,21.4570201377835,75.0000000000038);
#49=CYLINDRICAL_SURFACE('',#259,24.);
#50=CYLINDRICAL_SURFACE('',#263,23.8);
#51=CYLINDRICAL_SURFACE('',#269,29.5);
#52=TOROIDAL_SURFACE('',#257,22.5,1.5);
#53=TOROIDAL_SURFACE('',#265,78.8,55.);
#54=TOROIDAL_SURFACE('',#267,24.5,5.);
#55=PLANE('',#255);
#56=FACE_OUTER_BOUND('',#177,.T.);
#57=PRESENTATION_LAYER_ASSIGNMENT('1','Layer 1',(#133,#134));
#58=STYLED_ITEM('',(#60),#133);
#59=STYLED_ITEM('',(#61),#134);
#60=PRESENTATION_STYLE_ASSIGNMENT((#72));
#61=PRESENTATION_STYLE_ASSIGNMENT((#73));
#62=PRESENTATION_STYLE_ASSIGNMENT((#74));
#63=PRESENTATION_STYLE_ASSIGNMENT((#75));
#64=PRESENTATION_STYLE_ASSIGNMENT((#76));
#65=PRESENTATION_STYLE_ASSIGNMENT((#77));
#66=PRESENTATION_STYLE_ASSIGNMENT((#78));
#67=PRESENTATION_STYLE_ASSIGNMENT((#79));
#68=PRESENTATION_STYLE_ASSIGNMENT((#80));
#69=PRESENTATION_STYLE_ASSIGNMENT((#81));
#70=PRESENTATION_STYLE_ASSIGNMENT((#82));
#71=PRESENTATION_STYLE_ASSIGNMENT((#83));
#72=SURFACE_STYLE_USAGE(.BOTH.,#84);
#73=SURFACE_STYLE_USAGE(.BOTH.,#85);
#74=SURFACE_STYLE_USAGE(.BOTH.,#86);
#75=SURFACE_STYLE_USAGE(.BOTH.,#87);
#76=SURFACE_STYLE_USAGE(.BOTH.,#88);
#77=SURFACE_STYLE_USAGE(.BOTH.,#89);
#78=SURFACE_STYLE_USAGE(.BOTH.,#90);
#79=SURFACE_STYLE_USAGE(.BOTH.,#91);
#80=SURFACE_STYLE_USAGE(.BOTH.,#92);
#81=SURFACE_STYLE_USAGE(.BOTH.,#93);
#82=SURFACE_STYLE_USAGE(.BOTH.,#94);
#83=SURFACE_STYLE_USAGE(.BOTH.,#95);
#84=SURFACE_SIDE_STYLE('',(#96));
#85=SURFACE_SIDE_STYLE('',(#97));
#86=SURFACE_SIDE_STYLE('',(#98));
#87=SURFACE_SIDE_STYLE('',(#99));
#88=SURFACE_SIDE_STYLE('',(#100));
#89=SURFACE_SIDE_STYLE('',(#101));
#90=SURFACE_SIDE_STYLE('',(#102));
#91=SURFACE_SIDE_STYLE('',(#103));
#92=SURFACE_SIDE_STYLE('',(#104));
#93=SURFACE_SIDE_STYLE('',(#105));
#94=SURFACE_SIDE_STYLE('',(#106));
#95=SURFACE_SIDE_STYLE('',(#107));
#96=SURFACE_STYLE_FILL_AREA(#108);
#97=SURFACE_STYLE_FILL_AREA(#109);
#98=SURFACE_STYLE_FILL_AREA(#110);
#99=SURFACE_STYLE_FILL_AREA(#111);
#100=SURFACE_STYLE_FILL_AREA(#112);
#101=SURFACE_STYLE_FILL_AREA(#113);
#102=SURFACE_STYLE_FILL_AREA(#114);
#103=SURFACE_STYLE_FILL_AREA(#115);
#104=SURFACE_STYLE_FILL_AREA(#116);
#105=SURFACE_STYLE_FILL_AREA(#117);
#106=SURFACE_STYLE_FILL_AREA(#118);
#107=SURFACE_STYLE_FILL_AREA(#119);
#108=FILL_AREA_STYLE('',(#120));
#109=FILL_AREA_STYLE('',(#121));
#110=FILL_AREA_STYLE('',(#122));
#111=FILL_AREA_STYLE('',(#123));
#112=FILL_AREA_STYLE('',(#124));
#113=FILL_AREA_STYLE('',(#125));
#114=FILL_AREA_STYLE('',(#126));
#115=FILL_AREA_STYLE('',(#127));
#116=FILL_AREA_STYLE('',(#128));
#117=FILL_AREA_STYLE('',(#129));
#118=FILL_AREA_STYLE('',(#130));
#119=FILL_AREA_STYLE('',(#131));
#120=FILL_AREA_STYLE_COLOUR('',#132);
#121=FILL_AREA_STYLE_COLOUR('',#41);
#122=FILL_AREA_STYLE_COLOUR('',#42);
#123=FILL_AREA_STYLE_COLOUR('',#42);
#124=FILL_AREA_STYLE_COLOUR('',#42);
#125=FILL_AREA_STYLE_COLOUR('',#42);
#126=FILL_AREA_STYLE_COLOUR('',#42);
#127=FILL_AREA_STYLE_COLOUR('',#42);
#128=FILL_AREA_STYLE_COLOUR('',#42);
#129=FILL_AREA_STYLE_COLOUR('',#42);
#130=FILL_AREA_STYLE_COLOUR('',#42);
#131=FILL_AREA_STYLE_COLOUR('',#42);
#132=DRAUGHTING_PRE_DEFINED_COLOUR('yellow');
#133=MANIFOLD_SOLID_BREP('',#135);
#134=MANIFOLD_SOLID_BREP('',#136);
#135=CLOSED_SHELL('',(#137,#138));
#136=CLOSED_SHELL('',(#139,#140,#141,#142,#143,#144,#145,#146,#147,#148));
#137=ADVANCED_FACE('',(#151,#152),#149,.F.);
#138=ADVANCED_FACE('',(#153,#154),#150,.F.);
#139=ADVANCED_FACE('',(#56),#55,.F.);
#140=ADVANCED_FACE('',(#155,#156),#52,.T.);
#141=ADVANCED_FACE('',(#157,#158),#49,.T.);
#142=ADVANCED_FACE('',(#159,#160),#47,.T.);
#143=ADVANCED_FACE('',(#161,#162),#50,.T.);
#144=ADVANCED_FACE('',(#163,#164),#53,.F.);
#145=ADVANCED_FACE('',(#165,#166),#54,.T.);
#146=ADVANCED_FACE('',(#167,#168),#51,.T.);
#147=ADVANCED_FACE('',(#169,#170),#44,.T.);
#148=ADVANCED_FACE('',(#171,#172),#48,.F.);
#149=(
BOUNDED_SURFACE()
B_SPLINE_SURFACE(3,3,((#320,#321,#322,#323,#324,#325,#326),(#327,#328,#329,
#330,#331,#332,#333),(#334,#335,#336,#337,#338,#339,#340),(#341,#342,#343,
#344,#345,#346,#347),(#348,#349,#350,#351,#352,#353,#354),(#355,#356,#357,
#358,#359,#360,#361),(#362,#363,#364,#365,#366,#367,#368)),
 .UNSPECIFIED.,.T.,.F.,.F.)
B_SPLINE_SURFACE_WITH_KNOTS((1,3,3,3,1),(4,3,4),(-0.5,0.,0.5,1.,1.5),(0.,
0.5,1.),.UNSPECIFIED.)
GEOMETRIC_REPRESENTATION_ITEM()
RATIONAL_B_SPLINE_SURFACE(((1.,0.595349100101257,0.595349100101257,1.,0.595349100101257,
0.595349100101257,1.),(0.333333333333334,0.198449700033753,0.198449700033753,
0.333333333333334,0.198449700033753,0.198449700033753,0.333333333333334),
(0.333333333333334,0.198449700033753,0.198449700033753,0.333333333333334,
0.198449700033753,0.198449700033753,0.333333333333334),(1.,0.595349100101257,
0.595349100101257,1.,0.595349100101257,0.595349100101257,1.),(0.333333333333334,
0.198449700033753,0.198449700033753,0.333333333333334,0.198449700033753,
0.198449700033753,0.333333333333334),(0.333333333333334,0.198449700033753,
0.198449700033753,0.333333333333334,0.198449700033753,0.198449700033753,
0.333333333333334),(1.,0.595349100101257,0.595349100101257,1.,0.595349100101257,
0.595349100101257,1.)))
REPRESENTATION_ITEM('')
SURFACE()
);
#150=(
BOUNDED_SURFACE()
B_SPLINE_SURFACE(3,3,((#369,#370,#371,#372),(#373,#374,#375,#376),(#377,
#378,#379,#380),(#381,#382,#383,#384),(#385,#386,#387,#388),(#389,#390,
#391,#392),(#393,#394,#395,#396)),.UNSPECIFIED.,.T.,.F.,.F.)
B_SPLINE_SURFACE_WITH_KNOTS((1,3,3,3,1),(4,4),(-0.5,0.,0.5,1.,1.5),(0.,
1.),.UNSPECIFIED.)
GEOMETRIC_REPRESENTATION_ITEM()
RATIONAL_B_SPLINE_SURFACE(((1.,0.794043213895051,0.794043213895051,1.),
(0.333333333333334,0.264681071298351,0.264681071298351,0.333333333333334),
(0.333333333333334,0.264681071298351,0.264681071298351,0.333333333333334),
(1.,0.794043213895051,0.794043213895051,1.),(0.333333333333334,0.264681071298351,
0.264681071298351,0.333333333333334),(0.333333333333334,0.264681071298351,
0.264681071298351,0.333333333333334),(1.,0.794043213895051,0.794043213895051,
1.)))
REPRESENTATION_ITEM('')
SURFACE()
);
#151=FACE_BOUND('',#173,.T.);
#152=FACE_BOUND('',#174,.T.);
#153=FACE_BOUND('',#175,.T.);
#154=FACE_BOUND('',#176,.T.);
#155=FACE_BOUND('',#178,.T.);
#156=FACE_BOUND('',#179,.T.);
#157=FACE_BOUND('',#180,.T.);
#158=FACE_BOUND('',#181,.T.);
#159=FACE_BOUND('',#182,.T.);
#160=FACE_BOUND('',#183,.T.);
#161=FACE_BOUND('',#184,.T.);
#162=FACE_BOUND('',#185,.T.);
#163=FACE_BOUND('',#186,.T.);
#164=FACE_BOUND('',#187,.T.);
#165=FACE_BOUND('',#188,.T.);
#166=FACE_BOUND('',#189,.T.);
#167=FACE_BOUND('',#190,.T.);
#168=FACE_BOUND('',#191,.T.);
#169=FACE_BOUND('',#192,.T.);
#170=FACE_BOUND('',#193,.T.);
#171=FACE_BOUND('',#194,.T.);
#172=FACE_BOUND('',#43,.T.);
#173=EDGE_LOOP('',(#195));
#174=EDGE_LOOP('',(#196));
#175=EDGE_LOOP('',(#197));
#176=EDGE_LOOP('',(#198));
#177=EDGE_LOOP('',(#199));
#178=EDGE_LOOP('',(#200));
#179=EDGE_LOOP('',(#201));
#180=EDGE_LOOP('',(#202));
#181=EDGE_LOOP('',(#203));
#182=EDGE_LOOP('',(#204));
#183=EDGE_LOOP('',(#205));
#184=EDGE_LOOP('',(#206));
#185=EDGE_LOOP('',(#207));
#186=EDGE_LOOP('',(#208));
#187=EDGE_LOOP('',(#209));
#188=EDGE_LOOP('',(#210));
#189=EDGE_LOOP('',(#211));
#190=EDGE_LOOP('',(#212));
#191=EDGE_LOOP('',(#213));
#192=EDGE_LOOP('',(#214));
#193=EDGE_LOOP('',(#215));
#194=EDGE_LOOP('',(#216));
#195=ORIENTED_EDGE('',*,*,#229,.T.);
#196=ORIENTED_EDGE('',*,*,#230,.F.);
#197=ORIENTED_EDGE('',*,*,#230,.T.);
#198=ORIENTED_EDGE('',*,*,#229,.F.);
#199=ORIENTED_EDGE('',*,*,#231,.F.);
#200=ORIENTED_EDGE('',*,*,#231,.T.);
#201=ORIENTED_EDGE('',*,*,#232,.F.);
#202=ORIENTED_EDGE('',*,*,#232,.T.);
#203=ORIENTED_EDGE('',*,*,#233,.F.);
#204=ORIENTED_EDGE('',*,*,#234,.F.);
#205=ORIENTED_EDGE('',*,*,#233,.T.);
#206=ORIENTED_EDGE('',*,*,#235,.F.);
#207=ORIENTED_EDGE('',*,*,#234,.T.);
#208=ORIENTED_EDGE('',*,*,#236,.F.);
#209=ORIENTED_EDGE('',*,*,#235,.T.);
#210=ORIENTED_EDGE('',*,*,#237,.F.);
#211=ORIENTED_EDGE('',*,*,#236,.T.);
#212=ORIENTED_EDGE('',*,*,#238,.F.);
#213=ORIENTED_EDGE('',*,*,#237,.T.);
#214=ORIENTED_EDGE('',*,*,#239,.F.);
#215=ORIENTED_EDGE('',*,*,#238,.T.);
#216=ORIENTED_EDGE('',*,*,#239,.T.);
#217=VERTEX_POINT('',#317);
#218=VERTEX_POINT('',#319);
#219=VERTEX_POINT('',#398);
#220=VERTEX_POINT('',#401);
#221=VERTEX_POINT('',#404);
#222=VERTEX_POINT('',#407);
#223=VERTEX_POINT('',#410);
#224=VERTEX_POINT('',#413);
#225=VERTEX_POINT('',#416);
#226=VERTEX_POINT('',#419);
#227=VERTEX_POINT('',#422);
#228=VERTEX_POINT('',#488);
#229=EDGE_CURVE('',#217,#217,#240,.T.);
#230=EDGE_CURVE('',#218,#218,#241,.T.);
#231=EDGE_CURVE('',#219,#219,#242,.T.);
#232=EDGE_CURVE('',#220,#220,#243,.T.);
#233=EDGE_CURVE('',#221,#221,#244,.T.);
#234=EDGE_CURVE('',#222,#222,#245,.T.);
#235=EDGE_CURVE('',#223,#223,#246,.T.);
#236=EDGE_CURVE('',#224,#224,#247,.T.);
#237=EDGE_CURVE('',#225,#225,#248,.T.);
#238=EDGE_CURVE('',#226,#226,#249,.T.);
#239=EDGE_CURVE('',#227,#227,#250,.T.);
#240=CIRCLE('',#252,6.);
#241=CIRCLE('',#253,6.);
#242=CIRCLE('',#254,22.5);
#243=CIRCLE('',#256,24.);
#244=CIRCLE('',#258,24.);
#245=CIRCLE('',#260,23.8);
#246=CIRCLE('',#262,23.8);
#247=CIRCLE('',#264,29.025);
#248=CIRCLE('',#266,29.5);
#249=CIRCLE('',#268,29.5);
#250=CIRCLE('',#270,21.4570201377835);
#251=AXIS2_PLACEMENT_3D('',#315,#272,#273);
#252=AXIS2_PLACEMENT_3D('',#316,#274,#275);
#253=AXIS2_PLACEMENT_3D('',#318,#276,#277);
#254=AXIS2_PLACEMENT_3D('',#397,#278,#279);
#255=AXIS2_PLACEMENT_3D('',#399,#280,#281);
#256=AXIS2_PLACEMENT_3D('',#400,#282,#283);
#257=AXIS2_PLACEMENT_3D('',#402,#284,#285);
#258=AXIS2_PLACEMENT_3D('',#403,#286,#287);
#259=AXIS2_PLACEMENT_3D('',#405,#288,#289);
#260=AXIS2_PLACEMENT_3D('',#406,#290,#291);
#261=AXIS2_PLACEMENT_3D('',#408,#292,#293);
#262=AXIS2_PLACEMENT_3D('',#409,#294,#295);
#263=AXIS2_PLACEMENT_3D('',#411,#296,#297);
#264=AXIS2_PLACEMENT_3D('',#412,#298,#299);
#265=AXIS2_PLACEMENT_3D('',#414,#300,#301);
#266=AXIS2_PLACEMENT_3D('',#415,#302,#303);
#267=AXIS2_PLACEMENT_3D('',#417,#304,#305);
#268=AXIS2_PLACEMENT_3D('',#418,#306,#307);
#269=AXIS2_PLACEMENT_3D('',#420,#308,#309);
#270=AXIS2_PLACEMENT_3D('',#421,#310,#311);
#271=AXIS2_PLACEMENT_3D('',#489,#313,#314);
#272=DIRECTION('',(0.,0.,1.));
#273=DIRECTION('',(1.,0.,0.));
#274=DIRECTION('',(0.121869343405147,0.991654417670462,0.0420639875981281));
#275=DIRECTION('',(0.992489739031157,-0.122204768355341,0.00548748659068924));
#276=DIRECTION('',(0.121869343405147,-0.0865060970576294,0.988769213876451));
#277=DIRECTION('',(0.992489739031157,0.,-0.122327911442424));
#278=DIRECTION('',(-1.,0.,0.));
#279=DIRECTION('',(0.,0.,1.));
#280=DIRECTION('',(-1.,0.,0.));
#281=DIRECTION('',(0.,0.,1.));
#282=DIRECTION('',(-1.,0.,0.));
#283=DIRECTION('',(0.,0.,1.));
#284=DIRECTION('',(-1.,0.,0.));
#285=DIRECTION('',(0.,0.,1.));
#286=DIRECTION('',(-1.,0.,0.));
#287=DIRECTION('',(0.,0.,1.));
#288=DIRECTION('',(-1.,0.,0.));
#289=DIRECTION('',(0.,0.,1.));
#290=DIRECTION('',(-1.,0.,0.));
#291=DIRECTION('',(0.,0.,1.));
#292=DIRECTION('',(1.,0.,0.));
#293=DIRECTION('',(5.76942778562153E-17,0.,-1.));
#294=DIRECTION('',(-1.,0.,0.));
#295=DIRECTION('',(0.,0.,1.));
#296=DIRECTION('',(-1.,0.,0.));
#297=DIRECTION('',(0.,0.,1.));
#298=DIRECTION('',(-1.,0.,0.));
#299=DIRECTION('',(0.,0.,1.));
#300=DIRECTION('',(-1.,0.,0.));
#301=DIRECTION('',(0.,0.,1.));
#302=DIRECTION('',(-1.,0.,0.));
#303=DIRECTION('',(0.,0.,1.));
#304=DIRECTION('',(-1.,0.,0.));
#305=DIRECTION('',(0.,0.,1.));
#306=DIRECTION('',(-1.,0.,0.));
#307=DIRECTION('',(0.,0.,1.));
#308=DIRECTION('',(-1.,0.,0.));
#309=DIRECTION('',(0.,0.,1.));
#310=DIRECTION('',(-1.,0.,0.));
#311=DIRECTION('',(0.,0.,1.));
#312=DIRECTION('',(-1.,0.,0.));
#313=DIRECTION('',(-1.,0.,0.));
#314=DIRECTION('',(8.43443117472098E-18,0.,1.));
#315=CARTESIAN_POINT('',(0.,0.,0.));
#316=CARTESIAN_POINT('',(5.95527690984794,0.416256793379374,25.5082757890277));
#317=CARTESIAN_POINT('',(11.9102153440349,-0.31697181675267,25.5412007085718));
#318=CARTESIAN_POINT('',(5.95527690984794,-25.5012703211441,-0.728433562560782));
#319=CARTESIAN_POINT('',(11.9102153440349,-25.5012703211441,-1.46240103121532));
#320=CARTESIAN_POINT('',(11.9102153440349,-25.5012703211441,-1.46240103121532));
#321=CARTESIAN_POINT('',(11.9102153440349,-23.9954656024205,-27.7205425145495));
#322=CARTESIAN_POINT('',(11.9102153440349,0.741457118995117,-36.6559829784796));
#323=CARTESIAN_POINT('',(11.9102153440349,18.6800437232633,-17.4215203488427));
#324=CARTESIAN_POINT('',(11.9102153440349,36.6186303275314,1.81294228079421));
#325=CARTESIAN_POINT('',(11.9102153440349,25.9822851776662,25.8675801675442));
#326=CARTESIAN_POINT('',(11.9102153440349,-0.316971816752675,25.5412007085718));
#327=CARTESIAN_POINT('',(12.037200666196,-13.5462544656654,-0.432124066895358));
#328=CARTESIAN_POINT('',(12.037200666196,-13.1013050673022,-14.3804278905588));
#329=CARTESIAN_POINT('',(12.037200666196,-0.100568448570867,-19.4532975808532));
#330=CARTESIAN_POINT('',(12.037200666196,9.67367607417997,-9.49250928203857));
#331=CARTESIAN_POINT('',(12.037200666196,19.4479205969308,0.468279016776119));
#332=CARTESIAN_POINT('',(12.037200666196,14.1302024978168,13.3707994582512));
#333=CARTESIAN_POINT('',(12.037200666196,0.175980019480818,13.5520025195723));
#334=CARTESIAN_POINT('',(0.127323797822134,-13.5462544656654,1.03581087041373));
#335=CARTESIAN_POINT('',(0.127323797822134,-14.612807937033,-12.9124929532497));
#336=CARTESIAN_POINT('',(0.127323797822134,-2.20612769337837,-19.3752324030667));
#337=CARTESIAN_POINT('',(0.127323797822134,8.61266328924605,-10.5069474764986));
#338=CARTESIAN_POINT('',(0.127323797822134,19.4314542718705,-1.63866254993051));
#339=CARTESIAN_POINT('',(0.127323797822134,15.5288554726586,11.79496832474));
#340=CARTESIAN_POINT('',(0.127323797822134,1.64243723974491,13.486152680484));
#341=CARTESIAN_POINT('',(0.000338475660987929,-25.5012703211441,0.00553390609376019));
#342=CARTESIAN_POINT('',(0.000338475660987929,-25.5069684721514,-26.2526075772405));
#343=CARTESIAN_POINT('',(0.000338475660987929,-1.36410212581239,-36.5779178006931));
#344=CARTESIAN_POINT('',(0.000338475660987929,17.6190309383294,-18.4359585433027));
#345=CARTESIAN_POINT('',(0.000338475660987929,36.6021640024711,-0.293999285912422));
#346=CARTESIAN_POINT('',(0.000338475660987929,27.380938152508,24.2917490340329));
#347=CARTESIAN_POINT('',(0.000338475660987929,1.14948540351141,25.4753508694836));
#348=CARTESIAN_POINT('',(-0.126646846500158,-37.4562861766229,-1.02474305822621));
#349=CARTESIAN_POINT('',(-0.126646846500158,-36.4011290072697,-39.5927222012311));
#350=CARTESIAN_POINT('',(-0.126646846500158,-0.52207655824641,-53.7806031983193));
#351=CARTESIAN_POINT('',(-0.126646846500158,26.6253985874126,-26.3649696101069));
#352=CARTESIAN_POINT('',(-0.126646846500158,53.7728737330716,1.05066397810567));
#353=CARTESIAN_POINT('',(-0.126646846500158,39.2330208323573,36.7885297433258));
#354=CARTESIAN_POINT('',(-0.126646846500158,0.656533567277923,37.4645490584831));
#355=CARTESIAN_POINT('',(11.7832300218737,-37.4562861766229,-2.49267799553529));
#356=CARTESIAN_POINT('',(11.7832300218737,-34.8896261375389,-41.0606571385402));
#357=CARTESIAN_POINT('',(11.7832300218737,1.58348268656109,-53.8586683761059));
#358=CARTESIAN_POINT('',(11.7832300218737,27.6864113723465,-25.3505314156468));
#359=CARTESIAN_POINT('',(11.7832300218737,53.789340058132,3.1576055448123));
#360=CARTESIAN_POINT('',(11.7832300218737,37.8343678575155,38.364360876837));
#361=CARTESIAN_POINT('',(11.7832300218737,-0.809923652986165,37.5303988975714));
#362=CARTESIAN_POINT('',(11.9102153440349,-25.5012703211441,-1.46240103121532));
#363=CARTESIAN_POINT('',(11.9102153440349,-23.9954656024205,-27.7205425145495));
#364=CARTESIAN_POINT('',(11.9102153440349,0.741457118995117,-36.6559829784796));
#365=CARTESIAN_POINT('',(11.9102153440349,18.6800437232633,-17.4215203488427));
#366=CARTESIAN_POINT('',(11.9102153440349,36.6186303275314,1.81294228079421));
#367=CARTESIAN_POINT('',(11.9102153440349,25.9822851776662,25.8675801675442));
#368=CARTESIAN_POINT('',(11.9102153440349,-0.316971816752675,25.5412007085718));
#369=CARTESIAN_POINT('',(11.9102153440349,-0.31697181675267,25.5412007085718));
#370=CARTESIAN_POINT('',(11.9102153440349,-15.8165444079802,25.3488476653775));
#371=CARTESIAN_POINT('',(11.9102153440349,-26.3887223716345,14.0129399686476));
#372=CARTESIAN_POINT('',(11.9102153440349,-25.5012703211441,-1.46240103121532));
#373=CARTESIAN_POINT('',(12.037200666196,0.17598001948082,13.5520025195723));
#374=CARTESIAN_POINT('',(12.037200666196,-8.04799696599092,13.6587952705346));
#375=CARTESIAN_POINT('',(12.037200666196,-13.8084871782024,7.78836473570648));
#376=CARTESIAN_POINT('',(12.037200666196,-13.5462544656654,-0.432124066895358));
#377=CARTESIAN_POINT('',(0.127323797822134,1.64243723974491,13.486152680484));
#378=CARTESIAN_POINT('',(0.127323797822134,-6.54157904173664,14.4828589635766));
#379=CARTESIAN_POINT('',(0.127323797822134,-12.9176768995617,9.25629967301556));
#380=CARTESIAN_POINT('',(0.127323797822134,-13.5462544656654,1.03581087041373));
#381=CARTESIAN_POINT('',(0.000338475660987929,1.14948540351142,25.4753508694836));
#382=CARTESIAN_POINT('',(0.000338475660987929,-14.3101264837259,26.1729113584195));
#383=CARTESIAN_POINT('',(0.000338475660987929,-25.4979120929938,15.4808749059567));
#384=CARTESIAN_POINT('',(0.000338475660987929,-25.5012703211441,0.00553390609376041));
#385=CARTESIAN_POINT('',(-0.126646846500158,0.656533567277926,37.4645490584831));
#386=CARTESIAN_POINT('',(-0.126646846500158,-22.0786739257152,37.8629637532624));
#387=CARTESIAN_POINT('',(-0.126646846500158,-38.0781472864258,21.7054501388978));
#388=CARTESIAN_POINT('',(-0.126646846500158,-37.4562861766229,-1.02474305822621));
#389=CARTESIAN_POINT('',(11.7832300218737,-0.809923652986161,37.5303988975713));
#390=CARTESIAN_POINT('',(11.7832300218737,-23.5850918499695,37.0389000602204));
#391=CARTESIAN_POINT('',(11.7832300218737,-38.9689575650665,20.2375152015887));
#392=CARTESIAN_POINT('',(11.7832300218737,-37.4562861766229,-2.49267799553529));
#393=CARTESIAN_POINT('',(11.9102153440349,-0.31697181675267,25.5412007085718));
#394=CARTESIAN_POINT('',(11.9102153440349,-15.8165444079802,25.3488476653775));
#395=CARTESIAN_POINT('',(11.9102153440349,-26.3887223716345,14.0129399686476));
#396=CARTESIAN_POINT('',(11.9102153440349,-25.5012703211441,-1.46240103121532));
#397=CARTESIAN_POINT('',(50.,0.,0.));
#398=CARTESIAN_POINT('',(50.,0.,22.5));
#399=CARTESIAN_POINT('',(50.,12.,0.));
#400=CARTESIAN_POINT('',(48.5,0.,0.));
#401=CARTESIAN_POINT('',(48.5,0.,24.));
#402=CARTESIAN_POINT('',(48.5,0.,0.));
#403=CARTESIAN_POINT('',(42.,0.,0.));
#404=CARTESIAN_POINT('',(42.,0.,24.));
#405=CARTESIAN_POINT('',(0.,0.,0.));
#406=CARTESIAN_POINT('',(41.6535898384862,0.,0.));
#407=CARTESIAN_POINT('',(41.6535898384862,0.,23.8));
#408=CARTESIAN_POINT('',(42.,0.,0.));
#409=CARTESIAN_POINT('',(41.,0.,0.));
#410=CARTESIAN_POINT('',(41.,0.,23.8));
#411=CARTESIAN_POINT('',(0.,0.,0.));
#412=CARTESIAN_POINT('',(17.6023639014536,0.,0.));
#413=CARTESIAN_POINT('',(17.6023639014536,0.,29.025));
#414=CARTESIAN_POINT('',(41.,0.,0.));
#415=CARTESIAN_POINT('',(15.475306074313,0.,0.));
#416=CARTESIAN_POINT('',(15.475306074313,0.,29.5));
#417=CARTESIAN_POINT('',(15.475306074313,0.,0.));
#418=CARTESIAN_POINT('',(7.96460135102785,0.,0.));
#419=CARTESIAN_POINT('',(7.96460135102785,0.,29.5));
#420=CARTESIAN_POINT('',(0.,0.,0.));
#421=CARTESIAN_POINT('',(3.50000000000092,0.,0.));
#422=CARTESIAN_POINT('',(3.50000000000092,0.,21.4570201377835));
#423=CARTESIAN_POINT('',(0.782122788611033,25.8607592025089,0.));
#424=CARTESIAN_POINT('',(0.791800395358273,24.9513913696532,0.));
#425=CARTESIAN_POINT('',(0.919465283477559,24.3504912710106,0.));
#426=CARTESIAN_POINT('',(1.27443131347537,23.5262644483788,0.));
#427=CARTESIAN_POINT('',(1.42224307185449,23.2595912430888,0.));
#428=CARTESIAN_POINT('',(1.76533030776037,22.7659290962988,0.));
#429=CARTESIAN_POINT('',(1.95965858223698,22.5387773520958,0.));
#430=CARTESIAN_POINT('',(2.39396682193898,22.1239036724954,0.));
#431=CARTESIAN_POINT('',(2.63499249031437,21.9365114251435,0.));
#432=CARTESIAN_POINT('',(3.14172171247168,21.6187571580746,0.));
#433=CARTESIAN_POINT('',(3.40982843633732,21.4857551454726,0.));
#434=CARTESIAN_POINT('',(3.97639217102548,21.2730214592417,0.));
#435=CARTESIAN_POINT('',(4.2673816676432,21.1963449093932,0.));
#436=CARTESIAN_POINT('',(4.85719469856661,21.1013026390046,0.));
#437=CARTESIAN_POINT('',(5.16003239888233,21.0827015793173,0.));
#438=CARTESIAN_POINT('',(5.76230866690128,21.1052888713128,0.));
#439=CARTESIAN_POINT('',(6.05843307738142,21.1457170008301,0.));
#440=CARTESIAN_POINT('',(6.64098453800381,21.2829241103441,0.));
#441=CARTESIAN_POINT('',(6.93011305046616,21.381293993151,0.));
#442=CARTESIAN_POINT('',(7.4767524161385,21.6281200763891,0.));
#443=CARTESIAN_POINT('',(7.73615733712936,21.7764223320556,0.));
#444=CARTESIAN_POINT('',(8.22708942898058,22.1228915336993,0.));
#445=CARTESIAN_POINT('',(8.45812183956781,22.3217020210831,0.));
#446=CARTESIAN_POINT('',(8.8723716846893,22.7533076886698,0.));
#447=CARTESIAN_POINT('',(9.05840226656441,22.9878569920711,0.));
#448=CARTESIAN_POINT('',(9.38658942935801,23.4959462759362,0.));
#449=CARTESIAN_POINT('',(9.5246617444293,23.7636176132361,0.));
#450=CARTESIAN_POINT('',(9.74663060408362,24.3188718156335,0.));
#451=CARTESIAN_POINT('',(9.8316776251754,24.6104187346589,0.));
#452=CARTESIAN_POINT('',(9.9424823269799,25.2026297745224,0.));
#453=CARTESIAN_POINT('',(9.9683916687338,25.5005636116308,0.));
#454=CARTESIAN_POINT('',(9.96155569581751,26.100067378567,0.));
#455=CARTESIAN_POINT('',(9.9278039013937,26.4038332676232,0.));
#456=CARTESIAN_POINT('',(9.80266755038042,26.9896470823471,0.));
#457=CARTESIAN_POINT('',(9.71167626946131,27.2746019099055,0.));
#458=CARTESIAN_POINT('',(9.47130235290127,27.8281751124833,0.));
#459=CARTESIAN_POINT('',(9.32327675910698,28.0923314309962,0.));
#460=CARTESIAN_POINT('',(8.98076962880143,28.5822318648184,0.));
#461=CARTESIAN_POINT('',(8.78349333490674,28.8119696848247,0.));
#462=CARTESIAN_POINT('',(8.34612167083088,29.2277639502072,0.));
#463=CARTESIAN_POINT('',(8.10978474014777,29.4109880597016,0.));
#464=CARTESIAN_POINT('',(7.60275005116624,29.7294060957622,0.));
#465=CARTESIAN_POINT('',(7.32898584551605,29.8653371389357,0.));
#466=CARTESIAN_POINT('',(6.76815201044452,30.0772145420505,0.));
#467=CARTESIAN_POINT('',(6.47957954131396,30.1547963436476,0.));
#468=CARTESIAN_POINT('',(5.88605367390991,30.2530033616788,0.));
#469=CARTESIAN_POINT('',(5.58228362712713,30.2726329712329,0.));
#470=CARTESIAN_POINT('',(4.98487417781533,30.2528911962244,0.));
#471=CARTESIAN_POINT('',(4.68793223176858,30.2141972988815,0.));
#472=CARTESIAN_POINT('',(4.09769805482461,30.0771333910875,0.));
#473=CARTESIAN_POINT('',(3.8136770260012,29.9808573827797,0.));
#474=CARTESIAN_POINT('',(3.26852281254317,29.7359326091213,0.));
#475=CARTESIAN_POINT('',(3.00464408347234,29.5853650117989,0.));
#476=CARTESIAN_POINT('',(2.51307651293347,29.2375123765888,0.));
#477=CARTESIAN_POINT('',(2.28688126560812,29.0421112984762,0.));
#478=CARTESIAN_POINT('',(1.87296187190646,28.6091335760246,0.));
#479=CARTESIAN_POINT('',(1.68410111946401,28.3690188813205,0.));
#480=CARTESIAN_POINT('',(1.36069199519361,27.8643889361475,0.));
#481=CARTESIAN_POINT('',(1.22414495683445,27.5984849125982,0.));
#482=CARTESIAN_POINT('',(1.00212838528494,27.0390869155911,0.));
#483=CARTESIAN_POINT('',(0.917929167120732,26.7468324457232,0.));
#484=CARTESIAN_POINT('',(0.808573251599666,26.1591301016311,0.));
#485=CARTESIAN_POINT('',(0.782122788611033,25.8607592025089,0.));
#486=CARTESIAN_POINT('',(0.791800395358273,24.9513913696532,0.));
#487=CARTESIAN_POINT('',(0.,0.,0.));
#488=CARTESIAN_POINT('',(9.24939121789678,0.,0.));
#489=CARTESIAN_POINT('',(3.50000000000092,0.,0.));
#490=(
GEOMETRIC_REPRESENTATION_CONTEXT(3)
GLOBAL_UNCERTAINTY_ASSIGNED_CONTEXT((#491))
GLOBAL_UNIT_ASSIGNED_CONTEXT((#497,#493,#492))
REPRESENTATION_CONTEXT('model1','TOP_LEVEL_ASSEMBLY_PART')
);
#491=UNCERTAINTY_MEASURE_WITH_UNIT(LENGTH_MEASURE(2.E-5),#497,
'DISTANCE_ACCURACY_VALUE','Maximum Tolerance applied to model');
#492=(
NAMED_UNIT(*)
SI_UNIT($,.STERADIAN.)
SOLID_ANGLE_UNIT()
);
#493=(
CONVERSION_BASED_UNIT('DEGREE',#495)
NAMED_UNIT(#494)
PLANE_ANGLE_UNIT()
);
#494=DIMENSIONAL_EXPONENTS(0.,0.,0.,0.,0.,0.,0.);
#495=PLANE_ANGLE_MEASURE_WITH_UNIT(PLANE_ANGLE_MEASURE(0.0174532925),#496);
#496=(
NAMED_UNIT(*)
PLANE_ANGLE_UNIT()
SI_UNIT($,.RADIAN.)
);
#497=(
LENGTH_UNIT()
NAMED_UNIT(*)
SI_UNIT(.MILLI.,.METRE.)
);
ENDSEC;
END-ISO-10303-21;
