ISO-10303-21;
HEADER;
/* Generated by software containing ST-Developer
 * from STEP Tools, Inc. (www.steptools.com) 
 */
/* OPTION: using custom schema-name function */

FILE_DESCRIPTION(
/* description */ (''),
/* implementation_level */ '2;1');

FILE_NAME(
/* name */ 'model1.stp',
/* time_stamp */ '2023-11-06T15:49:12+03:00',
/* author */ (''),
/* organization */ (''),
/* preprocessor_version */ 'ST-DEVELOPER v19.4',
/* originating_system */ 'SIEMENS PLM Software NX2306.3001',
/* authorisation */ '');

FILE_SCHEMA (('AUTOMOTIVE_DESIGN { 1 0 10303 214 3 1 1 1 }'));
ENDSEC;

DATA;
#10=PROPERTY_DEFINITION_REPRESENTATION(#14,#12);
#11=PROPERTY_DEFINITION_REPRESENTATION(#15,#13);
#12=REPRESENTATION('',(#16),#492);
#13=REPRESENTATION('',(#17),#492);
#14=PROPERTY_DEFINITION('pmi validation property','',#21);
#15=PROPERTY_DEFINITION('pmi validation property','',#21);
#16=VALUE_REPRESENTATION_ITEM('number of annotations',COUNT_MEASURE(0.));
#17=VALUE_REPRESENTATION_ITEM('number of views',COUNT_MEASURE(0.));
#18=SHAPE_REPRESENTATION_RELATIONSHIP('None',
'relationship between model1_objects-None and model1_objects-None',#30,
#19);
#19=ADVANCED_BREP_SHAPE_REPRESENTATION('model1_objects-None',(#133,#134),
#492);
#20=SHAPE_DEFINITION_REPRESENTATION(#21,#30);
#21=PRODUCT_DEFINITION_SHAPE('','',#22);
#22=PRODUCT_DEFINITION(' ','',#24,#23);
#23=PRODUCT_DEFINITION_CONTEXT('part definition',#29,'design');
#24=PRODUCT_DEFINITION_FORMATION_WITH_SPECIFIED_SOURCE(' ',' ',#26,
 .NOT_KNOWN.);
#25=PRODUCT_RELATED_PRODUCT_CATEGORY('part','',(#26));
#26=PRODUCT('model1_objects','model1_objects',' ',(#27));
#27=PRODUCT_CONTEXT(' ',#29,'mechanical');
#28=APPLICATION_PROTOCOL_DEFINITION('international standard',
'automotive_design',2010,#29);
#29=APPLICATION_CONTEXT(
'core data for automotive mechanical design processes');
#30=SHAPE_REPRESENTATION('model1_objects-None',(#251),#492);
#31=OVER_RIDING_STYLED_ITEM('',(#62),#139,#59);
#32=OVER_RIDING_STYLED_ITEM('',(#63),#140,#59);
#33=OVER_RIDING_STYLED_ITEM('',(#64),#141,#59);
#34=OVER_RIDING_STYLED_ITEM('',(#65),#142,#59);
#35=OVER_RIDING_STYLED_ITEM('',(#66),#143,#59);
#36=OVER_RIDING_STYLED_ITEM('',(#67),#144,#59);
#37=OVER_RIDING_STYLED_ITEM('',(#68),#145,#59);
#38=OVER_RIDING_STYLED_ITEM('',(#69),#146,#59);
#39=OVER_RIDING_STYLED_ITEM('',(#70),#147,#59);
#40=OVER_RIDING_STYLED_ITEM('',(#71),#148,#59);
#41=COLOUR_RGB('Medium Steel',0.611764705882353,0.658823529411765,0.670588235294118);
#42=COLOUR_RGB('silver gray',0.6,0.6,0.6);
#43=VERTEX_LOOP('',#228);
#44=SURFACE_OF_REVOLUTION('',#46,#45);
#45=AXIS1_PLACEMENT('',#489,#312);
#46=B_SPLINE_CURVE_WITH_KNOTS('',3,(#423,#424,#425,#426,#427,#428,#429,
#430,#431,#432,#433,#434,#435,#436,#437,#438,#439,#440,#441,#442,#443,#444,
#445,#446,#447,#448,#449,#450,#451,#452,#453,#454,#455,#456,#457,#458,#459,
#460,#461,#462,#463,#464,#465,#466,#467,#468,#469,#470,#471,#472,#473,#474,
#475,#476,#477,#478,#479,#480,#481,#482,#483,#484,#485,#486,#487,#488),
 .UNSPECIFIED.,.T.,.F.,(2,2,2,2,2,2,2,2,2,2,2,2,2,2,2,2,2,2,2,2,2,2,2,2,
2,2,2,2,2,2,2,2,2,2,2),(-0.03125,0.,0.03125,0.0625,0.09375,0.125,0.15625,
0.1875,0.21875,0.25,0.28125,0.3125,0.34375,0.375,0.40625,0.4375,0.46875,
0.5,0.53125,0.5625,0.59375,0.625,0.65625,0.6875,0.71875,0.75,0.78125,0.8125,
0.84375,0.875,0.90625,0.9375,0.96875,1.,1.03125),.UNSPECIFIED.);
#47=CONICAL_SURFACE('',#261,29.,29.9999999999996);
#48=CONICAL_SURFACE('',#271,29.7751854619398,80.0000000000772);
#49=CYLINDRICAL_SURFACE('',#259,29.);
#50=CYLINDRICAL_SURFACE('',#263,28.8);
#51=CYLINDRICAL_SURFACE('',#269,37.5);
#52=TOROIDAL_SURFACE('',#257,27.,2.);
#53=TOROIDAL_SURFACE('',#265,60.8,32.);
#54=TOROIDAL_SURFACE('',#267,33.5,4.);
#55=PLANE('',#255);
#56=FACE_OUTER_BOUND('',#177,.T.);
#57=PRESENTATION_LAYER_ASSIGNMENT('1','Layer 1',(#133,#134));
#58=STYLED_ITEM('',(#60),#133);
#59=STYLED_ITEM('',(#61),#134);
#60=PRESENTATION_STYLE_ASSIGNMENT((#72));
#61=PRESENTATION_STYLE_ASSIGNMENT((#73));
#62=PRESENTATION_STYLE_ASSIGNMENT((#74));
#63=PRESENTATION_STYLE_ASSIGNMENT((#75));
#64=PRESENTATION_STYLE_ASSIGNMENT((#76));
#65=PRESENTATION_STYLE_ASSIGNMENT((#77));
#66=PRESENTATION_STYLE_ASSIGNMENT((#78));
#67=PRESENTATION_STYLE_ASSIGNMENT((#79));
#68=PRESENTATION_STYLE_ASSIGNMENT((#80));
#69=PRESENTATION_STYLE_ASSIGNMENT((#81));
#70=PRESENTATION_STYLE_ASSIGNMENT((#82));
#71=PRESENTATION_STYLE_ASSIGNMENT((#83));
#72=SURFACE_STYLE_USAGE(.BOTH.,#84);
#73=SURFACE_STYLE_USAGE(.BOTH.,#85);
#74=SURFACE_STYLE_USAGE(.BOTH.,#86);
#75=SURFACE_STYLE_USAGE(.BOTH.,#87);
#76=SURFACE_STYLE_USAGE(.BOTH.,#88);
#77=SURFACE_STYLE_USAGE(.BOTH.,#89);
#78=SURFACE_STYLE_USAGE(.BOTH.,#90);
#79=SURFACE_STYLE_USAGE(.BOTH.,#91);
#80=SURFACE_STYLE_USAGE(.BOTH.,#92);
#81=SURFACE_STYLE_USAGE(.BOTH.,#93);
#82=SURFACE_STYLE_USAGE(.BOTH.,#94);
#83=SURFACE_STYLE_USAGE(.BOTH.,#95);
#84=SURFACE_SIDE_STYLE('',(#96));
#85=SURFACE_SIDE_STYLE('',(#97));
#86=SURFACE_SIDE_STYLE('',(#98));
#87=SURFACE_SIDE_STYLE('',(#99));
#88=SURFACE_SIDE_STYLE('',(#100));
#89=SURFACE_SIDE_STYLE('',(#101));
#90=SURFACE_SIDE_STYLE('',(#102));
#91=SURFACE_SIDE_STYLE('',(#103));
#92=SURFACE_SIDE_STYLE('',(#104));
#93=SURFACE_SIDE_STYLE('',(#105));
#94=SURFACE_SIDE_STYLE('',(#106));
#95=SURFACE_SIDE_STYLE('',(#107));
#96=SURFACE_STYLE_FILL_AREA(#108);
#97=SURFACE_STYLE_FILL_AREA(#109);
#98=SURFACE_STYLE_FILL_AREA(#110);
#99=SURFACE_STYLE_FILL_AREA(#111);
#100=SURFACE_STYLE_FILL_AREA(#112);
#101=SURFACE_STYLE_FILL_AREA(#113);
#102=SURFACE_STYLE_FILL_AREA(#114);
#103=SURFACE_STYLE_FILL_AREA(#115);
#104=SURFACE_STYLE_FILL_AREA(#116);
#105=SURFACE_STYLE_FILL_AREA(#117);
#106=SURFACE_STYLE_FILL_AREA(#118);
#107=SURFACE_STYLE_FILL_AREA(#119);
#108=FILL_AREA_STYLE('',(#120));
#109=FILL_AREA_STYLE('',(#121));
#110=FILL_AREA_STYLE('',(#122));
#111=FILL_AREA_STYLE('',(#123));
#112=FILL_AREA_STYLE('',(#124));
#113=FILL_AREA_STYLE('',(#125));
#114=FILL_AREA_STYLE('',(#126));
#115=FILL_AREA_STYLE('',(#127));
#116=FILL_AREA_STYLE('',(#128));
#117=FILL_AREA_STYLE('',(#129));
#118=FILL_AREA_STYLE('',(#130));
#119=FILL_AREA_STYLE('',(#131));
#120=FILL_AREA_STYLE_COLOUR('',#132);
#121=FILL_AREA_STYLE_COLOUR('',#41);
#122=FILL_AREA_STYLE_COLOUR('',#42);
#123=FILL_AREA_STYLE_COLOUR('',#42);
#124=FILL_AREA_STYLE_COLOUR('',#42);
#125=FILL_AREA_STYLE_COLOUR('',#42);
#126=FILL_AREA_STYLE_COLOUR('',#42);
#127=FILL_AREA_STYLE_COLOUR('',#42);
#128=FILL_AREA_STYLE_COLOUR('',#42);
#129=FILL_AREA_STYLE_COLOUR('',#42);
#130=FILL_AREA_STYLE_COLOUR('',#42);
#131=FILL_AREA_STYLE_COLOUR('',#42);
#132=DRAUGHTING_PRE_DEFINED_COLOUR('yellow');
#133=MANIFOLD_SOLID_BREP('',#135);
#134=MANIFOLD_SOLID_BREP('',#136);
#135=CLOSED_SHELL('',(#137,#138));
#136=CLOSED_SHELL('',(#139,#140,#141,#142,#143,#144,#145,#146,#147,#148));
#137=ADVANCED_FACE('',(#151,#152),#149,.F.);
#138=ADVANCED_FACE('',(#153,#154),#150,.F.);
#139=ADVANCED_FACE('',(#56),#55,.F.);
#140=ADVANCED_FACE('',(#155,#156),#52,.T.);
#141=ADVANCED_FACE('',(#157,#158),#49,.T.);
#142=ADVANCED_FACE('',(#159,#160),#47,.T.);
#143=ADVANCED_FACE('',(#161,#162),#50,.T.);
#144=ADVANCED_FACE('',(#163,#164),#53,.F.);
#145=ADVANCED_FACE('',(#165,#166),#54,.T.);
#146=ADVANCED_FACE('',(#167,#168),#51,.T.);
#147=ADVANCED_FACE('',(#169,#170),#44,.T.);
#148=ADVANCED_FACE('',(#171,#172),#48,.F.);
#149=(
BOUNDED_SURFACE()
B_SPLINE_SURFACE(3,3,((#320,#321,#322,#323,#324,#325,#326),(#327,#328,#329,
#330,#331,#332,#333),(#334,#335,#336,#337,#338,#339,#340),(#341,#342,#343,
#344,#345,#346,#347),(#348,#349,#350,#351,#352,#353,#354),(#355,#356,#357,
#358,#359,#360,#361),(#362,#363,#364,#365,#366,#367,#368)),
 .UNSPECIFIED.,.T.,.F.,.F.)
B_SPLINE_SURFACE_WITH_KNOTS((1,3,3,3,1),(4,3,4),(-0.5,0.,0.5,1.,1.5),(0.,
0.5,1.),.UNSPECIFIED.)
GEOMETRIC_REPRESENTATION_ITEM()
RATIONAL_B_SPLINE_SURFACE(((1.,0.597513402114446,0.597513402114446,1.,0.597513402114446,
0.597513402114446,1.),(0.333333333333334,0.199171134038149,0.199171134038149,
0.333333333333334,0.199171134038149,0.199171134038149,0.333333333333334),
(0.333333333333334,0.199171134038149,0.199171134038149,0.333333333333334,
0.199171134038149,0.199171134038149,0.333333333333334),(1.,0.597513402114446,
0.597513402114446,1.,0.597513402114446,0.597513402114446,1.),(0.333333333333334,
0.199171134038149,0.199171134038149,0.333333333333334,0.199171134038149,
0.199171134038149,0.333333333333334),(0.333333333333334,0.199171134038149,
0.199171134038149,0.333333333333334,0.199171134038149,0.199171134038149,
0.333333333333334),(1.,0.597513402114446,0.597513402114446,1.,0.597513402114446,
0.597513402114446,1.)))
REPRESENTATION_ITEM('')
SURFACE()
);
#150=(
BOUNDED_SURFACE()
B_SPLINE_SURFACE(3,3,((#369,#370,#371,#372),(#373,#374,#375,#376),(#377,
#378,#379,#380),(#381,#382,#383,#384),(#385,#386,#387,#388),(#389,#390,
#391,#392),(#393,#394,#395,#396)),.UNSPECIFIED.,.T.,.F.,.F.)
B_SPLINE_SURFACE_WITH_KNOTS((1,3,3,3,1),(4,4),(-0.5,0.,0.5,1.,1.5),(0.,
1.),.UNSPECIFIED.)
GEOMETRIC_REPRESENTATION_ITEM()
RATIONAL_B_SPLINE_SURFACE(((1.,0.79062667377642,0.79062667377642,1.),(0.333333333333334,
0.26354222459214,0.26354222459214,0.333333333333334),(0.333333333333334,
0.26354222459214,0.26354222459214,0.333333333333334),(1.,0.79062667377642,
0.79062667377642,1.),(0.333333333333334,0.26354222459214,0.26354222459214,
0.333333333333334),(0.333333333333334,0.26354222459214,0.26354222459214,
0.333333333333334),(1.,0.79062667377642,0.79062667377642,1.)))
REPRESENTATION_ITEM('')
SURFACE()
);
#151=FACE_BOUND('',#173,.T.);
#152=FACE_BOUND('',#174,.T.);
#153=FACE_BOUND('',#175,.T.);
#154=FACE_BOUND('',#176,.T.);
#155=FACE_BOUND('',#178,.T.);
#156=FACE_BOUND('',#179,.T.);
#157=FACE_BOUND('',#180,.T.);
#158=FACE_BOUND('',#181,.T.);
#159=FACE_BOUND('',#182,.T.);
#160=FACE_BOUND('',#183,.T.);
#161=FACE_BOUND('',#184,.T.);
#162=FACE_BOUND('',#185,.T.);
#163=FACE_BOUND('',#186,.T.);
#164=FACE_BOUND('',#187,.T.);
#165=FACE_BOUND('',#188,.T.);
#166=FACE_BOUND('',#189,.T.);
#167=FACE_BOUND('',#190,.T.);
#168=FACE_BOUND('',#191,.T.);
#169=FACE_BOUND('',#192,.T.);
#170=FACE_BOUND('',#193,.T.);
#171=FACE_BOUND('',#194,.T.);
#172=FACE_BOUND('',#43,.T.);
#173=EDGE_LOOP('',(#195));
#174=EDGE_LOOP('',(#196));
#175=EDGE_LOOP('',(#197));
#176=EDGE_LOOP('',(#198));
#177=EDGE_LOOP('',(#199));
#178=EDGE_LOOP('',(#200));
#179=EDGE_LOOP('',(#201));
#180=EDGE_LOOP('',(#202));
#181=EDGE_LOOP('',(#203));
#182=EDGE_LOOP('',(#204));
#183=EDGE_LOOP('',(#205));
#184=EDGE_LOOP('',(#206));
#185=EDGE_LOOP('',(#207));
#186=EDGE_LOOP('',(#208));
#187=EDGE_LOOP('',(#209));
#188=EDGE_LOOP('',(#210));
#189=EDGE_LOOP('',(#211));
#190=EDGE_LOOP('',(#212));
#191=EDGE_LOOP('',(#213));
#192=EDGE_LOOP('',(#214));
#193=EDGE_LOOP('',(#215));
#194=EDGE_LOOP('',(#216));
#195=ORIENTED_EDGE('',*,*,#229,.T.);
#196=ORIENTED_EDGE('',*,*,#230,.F.);
#197=ORIENTED_EDGE('',*,*,#230,.T.);
#198=ORIENTED_EDGE('',*,*,#229,.F.);
#199=ORIENTED_EDGE('',*,*,#231,.F.);
#200=ORIENTED_EDGE('',*,*,#231,.T.);
#201=ORIENTED_EDGE('',*,*,#232,.F.);
#202=ORIENTED_EDGE('',*,*,#232,.T.);
#203=ORIENTED_EDGE('',*,*,#233,.F.);
#204=ORIENTED_EDGE('',*,*,#234,.F.);
#205=ORIENTED_EDGE('',*,*,#233,.T.);
#206=ORIENTED_EDGE('',*,*,#235,.F.);
#207=ORIENTED_EDGE('',*,*,#234,.T.);
#208=ORIENTED_EDGE('',*,*,#236,.F.);
#209=ORIENTED_EDGE('',*,*,#235,.T.);
#210=ORIENTED_EDGE('',*,*,#237,.F.);
#211=ORIENTED_EDGE('',*,*,#236,.T.);
#212=ORIENTED_EDGE('',*,*,#238,.F.);
#213=ORIENTED_EDGE('',*,*,#237,.T.);
#214=ORIENTED_EDGE('',*,*,#239,.F.);
#215=ORIENTED_EDGE('',*,*,#238,.T.);
#216=ORIENTED_EDGE('',*,*,#239,.T.);
#217=VERTEX_POINT('',#317);
#218=VERTEX_POINT('',#319);
#219=VERTEX_POINT('',#398);
#220=VERTEX_POINT('',#401);
#221=VERTEX_POINT('',#404);
#222=VERTEX_POINT('',#407);
#223=VERTEX_POINT('',#410);
#224=VERTEX_POINT('',#413);
#225=VERTEX_POINT('',#416);
#226=VERTEX_POINT('',#419);
#227=VERTEX_POINT('',#422);
#228=VERTEX_POINT('',#490);
#229=EDGE_CURVE('',#217,#217,#240,.T.);
#230=EDGE_CURVE('',#218,#218,#241,.T.);
#231=EDGE_CURVE('',#219,#219,#242,.T.);
#232=EDGE_CURVE('',#220,#220,#243,.T.);
#233=EDGE_CURVE('',#221,#221,#244,.T.);
#234=EDGE_CURVE('',#222,#222,#245,.T.);
#235=EDGE_CURVE('',#223,#223,#246,.T.);
#236=EDGE_CURVE('',#224,#224,#247,.T.);
#237=EDGE_CURVE('',#225,#225,#248,.T.);
#238=EDGE_CURVE('',#226,#226,#249,.T.);
#239=EDGE_CURVE('',#227,#227,#250,.T.);
#240=CIRCLE('',#252,6.);
#241=CIRCLE('',#253,6.);
#242=CIRCLE('',#254,27.);
#243=CIRCLE('',#256,29.);
#244=CIRCLE('',#258,29.);
#245=CIRCLE('',#260,28.8);
#246=CIRCLE('',#262,28.8);
#247=CIRCLE('',#264,36.5333333333333);
#248=CIRCLE('',#266,37.5);
#249=CIRCLE('',#268,37.5);
#250=CIRCLE('',#270,29.7751854619398);
#251=AXIS2_PLACEMENT_3D('',#315,#272,#273);
#252=AXIS2_PLACEMENT_3D('',#316,#274,#275);
#253=AXIS2_PLACEMENT_3D('',#318,#276,#277);
#254=AXIS2_PLACEMENT_3D('',#397,#278,#279);
#255=AXIS2_PLACEMENT_3D('',#399,#280,#281);
#256=AXIS2_PLACEMENT_3D('',#400,#282,#283);
#257=AXIS2_PLACEMENT_3D('',#402,#284,#285);
#258=AXIS2_PLACEMENT_3D('',#403,#286,#287);
#259=AXIS2_PLACEMENT_3D('',#405,#288,#289);
#260=AXIS2_PLACEMENT_3D('',#406,#290,#291);
#261=AXIS2_PLACEMENT_3D('',#408,#292,#293);
#262=AXIS2_PLACEMENT_3D('',#409,#294,#295);
#263=AXIS2_PLACEMENT_3D('',#411,#296,#297);
#264=AXIS2_PLACEMENT_3D('',#412,#298,#299);
#265=AXIS2_PLACEMENT_3D('',#414,#300,#301);
#266=AXIS2_PLACEMENT_3D('',#415,#302,#303);
#267=AXIS2_PLACEMENT_3D('',#417,#304,#305);
#268=AXIS2_PLACEMENT_3D('',#418,#306,#307);
#269=AXIS2_PLACEMENT_3D('',#420,#308,#309);
#270=AXIS2_PLACEMENT_3D('',#421,#310,#311);
#271=AXIS2_PLACEMENT_3D('',#491,#313,#314);
#272=DIRECTION('',(0.,0.,1.));
#273=DIRECTION('',(1.,0.,0.));
#274=DIRECTION('',(0.121869343405147,0.992149851207488,0.0280452471366921));
#275=DIRECTION('',(0.992489739031157,-0.122115012131593,0.00721399542322546));
#276=DIRECTION('',(0.121869343405147,-0.0865060970576294,0.988769213876451));
#277=DIRECTION('',(0.992489739031157,0.,-0.122327911442424));
#278=DIRECTION('',(-1.,0.,0.));
#279=DIRECTION('',(0.,0.,1.));
#280=DIRECTION('',(-1.,0.,0.));
#281=DIRECTION('',(0.,0.,1.));
#282=DIRECTION('',(-1.,0.,0.));
#283=DIRECTION('',(0.,0.,1.));
#284=DIRECTION('',(-1.,0.,0.));
#285=DIRECTION('',(0.,0.,1.));
#286=DIRECTION('',(-1.,0.,0.));
#287=DIRECTION('',(0.,0.,1.));
#288=DIRECTION('',(-1.,0.,0.));
#289=DIRECTION('',(0.,0.,1.));
#290=DIRECTION('',(-1.,0.,0.));
#291=DIRECTION('',(0.,0.,1.));
#292=DIRECTION('',(1.,0.,0.));
#293=DIRECTION('',(5.72185274460339E-17,0.,-1.));
#294=DIRECTION('',(-1.,0.,0.));
#295=DIRECTION('',(0.,0.,1.));
#296=DIRECTION('',(-1.,0.,0.));
#297=DIRECTION('',(0.,0.,1.));
#298=DIRECTION('',(-1.,0.,0.));
#299=DIRECTION('',(0.,0.,1.));
#300=DIRECTION('',(-1.,0.,0.));
#301=DIRECTION('',(0.,0.,1.));
#302=DIRECTION('',(-1.,0.,0.));
#303=DIRECTION('',(0.,0.,1.));
#304=DIRECTION('',(-1.,0.,0.));
#305=DIRECTION('',(0.,0.,1.));
#306=DIRECTION('',(-1.,0.,0.));
#307=DIRECTION('',(0.,0.,1.));
#308=DIRECTION('',(-1.,0.,0.));
#309=DIRECTION('',(0.,0.,1.));
#310=DIRECTION('',(-1.,0.,0.));
#311=DIRECTION('',(0.,0.,1.));
#312=DIRECTION('',(-1.,0.,0.));
#313=DIRECTION('',(-1.,0.,0.));
#314=DIRECTION('',(4.5642153930865E-18,0.,1.));
#315=CARTESIAN_POINT('',(0.,0.,0.));
#316=CARTESIAN_POINT('',(5.95527690984794,1.27650332147896,33.9600956956952));
#317=CARTESIAN_POINT('',(11.9102153440349,0.5438132486894,34.0033796682346));
#318=CARTESIAN_POINT('',(5.95527690984794,-33.9762703211441,-0.728433562560782));
#319=CARTESIAN_POINT('',(11.9102153440349,-33.9762703211441,-1.46240103121532));
#320=CARTESIAN_POINT('',(11.9102153440349,-33.9762703211441,-1.46240103121532));
#321=CARTESIAN_POINT('',(11.9102153440349,-32.4781950484385,-36.2674984979265));
#322=CARTESIAN_POINT('',(11.9102153440349,0.0711900577620716,-48.6842842494084));
#323=CARTESIAN_POINT('',(11.9102153440349,24.3698111734734,-23.7199887242977));
#324=CARTESIAN_POINT('',(11.9102153440349,48.6684322891848,1.244306800813));
#325=CARTESIAN_POINT('',(11.9102153440349,35.3766813758888,33.4463004789822));
#326=CARTESIAN_POINT('',(11.9102153440349,0.543813248689403,34.0033796682346));
#327=CARTESIAN_POINT('',(12.037200666196,-22.0212544656654,-0.432124066895356));
#328=CARTESIAN_POINT('',(12.0372006661961,-21.5785890370046,-22.9905715001251));
#329=CARTESIAN_POINT('',(12.0372006661961,-0.69149683617762,-31.5233836200345));
#330=CARTESIAN_POINT('',(12.037200666196,15.4196980979173,-15.7275328650066));
#331=CARTESIAN_POINT('',(12.0372006661961,31.5308930320123,0.0683178900211905));
#332=CARTESIAN_POINT('',(12.0372006661961,23.4125705886907,21.1199768266889));
#333=CARTESIAN_POINT('',(12.037200666196,0.867278710203844,22.0084121891972));
#334=CARTESIAN_POINT('',(0.127323797822128,-22.0212544656654,1.03581087041373));
#335=CARTESIAN_POINT('',(0.127323797822128,-23.0823332115392,-21.522636562816));
#336=CARTESIAN_POINT('',(0.127323797822128,-2.79112986989884,-31.4360873066759));
#337=CARTESIAN_POINT('',(0.127323797822128,14.3515433593132,-16.7344481715594));
#338=CARTESIAN_POINT('',(0.127323797822128,31.4942165885254,-2.03280903644292));
#339=CARTESIAN_POINT('',(0.127323797822128,24.7892710252412,19.5322818211475));
#340=CARTESIAN_POINT('',(0.127323797822128,2.33265885578296,21.9218442441185));
#341=CARTESIAN_POINT('',(0.000338475660981857,-33.9762703211441,0.00553390609376171));
#342=CARTESIAN_POINT('',(0.000338475660981857,-33.9819392229731,-34.7995635606174));
#343=CARTESIAN_POINT('',(0.000338475660981857,-2.02844297595915,-48.5969879360498));
#344=CARTESIAN_POINT('',(0.000338475660981857,23.3016564348694,-24.7269040308505));
#345=CARTESIAN_POINT('',(0.000338475660981857,48.6317558456979,-0.856820125651105));
#346=CARTESIAN_POINT('',(0.000338475660981857,36.7533818124392,31.8586054734408));
#347=CARTESIAN_POINT('',(0.000338475660981857,2.00919339426852,33.9168117231559));
#348=CARTESIAN_POINT('',(-0.126646846500164,-45.9312861766228,-1.02474305822621));
#349=CARTESIAN_POINT('',(-0.126646846500165,-44.881545234407,-48.0764905584188));
#350=CARTESIAN_POINT('',(-0.126646846500165,-1.26575608201945,-65.7578885654238));
#351=CARTESIAN_POINT('',(-0.126646846500164,32.2517695104254,-32.7193598901415));
#352=CARTESIAN_POINT('',(-0.126646846500165,65.7692951028704,0.319168785140712));
#353=CARTESIAN_POINT('',(-0.126646846500165,48.7174925996373,44.1849291257342));
#354=CARTESIAN_POINT('',(-0.126646846500164,1.68572793275407,45.9117792021933));
#355=CARTESIAN_POINT('',(11.7832300218737,-45.9312861766228,-2.49267799553529));
#356=CARTESIAN_POINT('',(11.7832300218738,-43.3778010598725,-49.5444254957279));
#357=CARTESIAN_POINT('',(11.7832300218738,0.833876951701765,-65.8451848787823));
#358=CARTESIAN_POINT('',(11.7832300218737,33.3199242490295,-31.7124445835887));
#359=CARTESIAN_POINT('',(11.7832300218738,65.8059715463573,2.42029571160482));
#360=CARTESIAN_POINT('',(11.7832300218738,47.3407921630868,45.7726241312755));
#361=CARTESIAN_POINT('',(11.7832300218737,0.22034778717496,45.998347147272));
#362=CARTESIAN_POINT('',(11.9102153440349,-33.9762703211441,-1.46240103121532));
#363=CARTESIAN_POINT('',(11.9102153440349,-32.4781950484385,-36.2674984979265));
#364=CARTESIAN_POINT('',(11.9102153440349,0.0711900577620716,-48.6842842494084));
#365=CARTESIAN_POINT('',(11.9102153440349,24.3698111734734,-23.7199887242977));
#366=CARTESIAN_POINT('',(11.9102153440349,48.6684322891848,1.244306800813));
#367=CARTESIAN_POINT('',(11.9102153440349,35.3766813758888,33.4463004789822));
#368=CARTESIAN_POINT('',(11.9102153440349,0.543813248689403,34.0033796682346));
#369=CARTESIAN_POINT('',(11.9102153440349,0.543813248689398,34.0033796682346));
#370=CARTESIAN_POINT('',(11.9102153440349,-20.3196656933968,34.3370475675187));
#371=CARTESIAN_POINT('',(11.9102153440349,-34.873556809056,19.3844444086228));
#372=CARTESIAN_POINT('',(11.9102153440349,-33.9762703211441,-1.46240103121532));
#373=CARTESIAN_POINT('',(12.037200666196,0.867278710203842,22.0084121891972));
#374=CARTESIAN_POINT('',(12.037200666196,-12.6364391183808,22.5405490321758));
#375=CARTESIAN_POINT('',(12.037200666196,-22.2863931506433,13.0794734068091));
#376=CARTESIAN_POINT('',(12.037200666196,-22.0212544656654,-0.432124066895355));
#377=CARTESIAN_POINT('',(0.127323797822128,2.33265885578296,21.9218442441185));
#378=CARTESIAN_POINT('',(0.127323797822128,-11.1179434143827,23.353095472424));
#379=CARTESIAN_POINT('',(0.127323797822128,-21.3857112198554,14.5474083441182));
#380=CARTESIAN_POINT('',(0.127323797822128,-22.0212544656654,1.03581087041373));
#381=CARTESIAN_POINT('',(0.000338475660981857,2.00919339426852,33.9168117231559));
#382=CARTESIAN_POINT('',(0.000338475660981857,-18.8011699893988,35.1495940077668));
#383=CARTESIAN_POINT('',(0.000338475660981857,-33.9728748782681,20.8523793459318));
#384=CARTESIAN_POINT('',(0.000338475660981857,-33.9762703211441,0.00553390609376496));
#385=CARTESIAN_POINT('',(-0.126646846500164,1.68572793275407,45.9117792021933));
#386=CARTESIAN_POINT('',(-0.126646846500164,-26.4843965644149,46.9460925431097));
#387=CARTESIAN_POINT('',(-0.126646846500164,-46.5600385366809,27.1573503477455));
#388=CARTESIAN_POINT('',(-0.126646846500164,-45.9312861766228,-1.0247430582262));
#389=CARTESIAN_POINT('',(11.7832300218737,0.220347787174953,45.998347147272));
#390=CARTESIAN_POINT('',(11.7832300218737,-28.0028922684129,46.1335461028615));
#391=CARTESIAN_POINT('',(11.7832300218737,-47.4607204674688,25.6894154104364));
#392=CARTESIAN_POINT('',(11.7832300218737,-45.9312861766228,-2.49267799553529));
#393=CARTESIAN_POINT('',(11.9102153440349,0.543813248689398,34.0033796682346));
#394=CARTESIAN_POINT('',(11.9102153440349,-20.3196656933968,34.3370475675187));
#395=CARTESIAN_POINT('',(11.9102153440349,-34.873556809056,19.3844444086228));
#396=CARTESIAN_POINT('',(11.9102153440349,-33.9762703211441,-1.46240103121532));
#397=CARTESIAN_POINT('',(50.,0.,0.));
#398=CARTESIAN_POINT('',(50.,0.,27.));
#399=CARTESIAN_POINT('',(50.,14.5,0.));
#400=CARTESIAN_POINT('',(48.,0.,0.));
#401=CARTESIAN_POINT('',(48.,0.,29.));
#402=CARTESIAN_POINT('',(48.,0.,0.));
#403=CARTESIAN_POINT('',(40.,0.,0.));
#404=CARTESIAN_POINT('',(40.,0.,29.));
#405=CARTESIAN_POINT('',(0.,0.,0.));
#406=CARTESIAN_POINT('',(39.6535898384862,0.,0.));
#407=CARTESIAN_POINT('',(39.6535898384862,0.,28.8));
#408=CARTESIAN_POINT('',(40.,0.,0.));
#409=CARTESIAN_POINT('',(39.,0.,0.));
#410=CARTESIAN_POINT('',(39.,0.,28.8));
#411=CARTESIAN_POINT('',(0.,0.,0.));
#412=CARTESIAN_POINT('',(18.1402567396219,0.,0.));
#413=CARTESIAN_POINT('',(18.1402567396219,0.,36.5333333333333));
#414=CARTESIAN_POINT('',(39.,0.,0.));
#415=CARTESIAN_POINT('',(15.5327888320746,0.,0.));
#416=CARTESIAN_POINT('',(15.5327888320746,0.,37.5));
#417=CARTESIAN_POINT('',(15.5327888320746,0.,0.));
#418=CARTESIAN_POINT('',(8.39786443070926,0.,0.));
#419=CARTESIAN_POINT('',(8.39786443070926,0.,37.5));
#420=CARTESIAN_POINT('',(0.,0.,0.));
#421=CARTESIAN_POINT('',(3.50000000002634,0.,0.));
#422=CARTESIAN_POINT('',(3.50000000002634,0.,29.7751854619398));
#423=CARTESIAN_POINT('',(0.78212686715075,34.2197841293267,0.));
#424=CARTESIAN_POINT('',(0.788570447902812,33.6119329406895,0.));
#425=CARTESIAN_POINT('',(0.821315741739285,33.3113273740715,0.));
#426=CARTESIAN_POINT('',(0.946011504309629,32.7168680185699,0.));
#427=CARTESIAN_POINT('',(1.03672559881318,32.4295390683026,0.));
#428=CARTESIAN_POINT('',(1.27187361809403,31.8779246204663,0.));
#429=CARTESIAN_POINT('',(1.41838486846279,31.6103445942853,0.));
#430=CARTESIAN_POINT('',(1.75959281989867,31.1125099744548,0.));
#431=CARTESIAN_POINT('',(1.95271484482104,30.8832193214648,0.));
#432=CARTESIAN_POINT('',(2.38378496330335,30.4637082680837,0.));
#433=CARTESIAN_POINT('',(2.62362696070983,30.2730247464657,0.));
#434=CARTESIAN_POINT('',(3.12843497873269,29.9482458433782,0.));
#435=CARTESIAN_POINT('',(3.39548046932902,29.8116325116401,0.));
#436=CARTESIAN_POINT('',(3.95964798635226,29.5913551611419,0.));
#437=CARTESIAN_POINT('',(4.25161937451054,29.510179781427,0.));
#438=CARTESIAN_POINT('',(4.84190930486357,29.4072851903155,0.));
#439=CARTESIAN_POINT('',(5.1447601532962,29.3848824740865,0.));
#440=CARTESIAN_POINT('',(5.74951924246232,29.400711535488,0.));
#441=CARTESIAN_POINT('',(6.04694612898631,29.4382789048395,0.));
#442=CARTESIAN_POINT('',(6.63220659932241,29.5708512162659,0.));
#443=CARTESIAN_POINT('',(6.92286177009101,29.6674813590909,0.));
#444=CARTESIAN_POINT('',(7.47230257645194,29.9120950741839,0.));
#445=CARTESIAN_POINT('',(7.73291872600067,30.0598501748878,0.));
#446=CARTESIAN_POINT('',(8.2259507816498,30.4062419522448,0.));
#447=CARTESIAN_POINT('',(8.45774133067616,30.6054589359049,0.));
#448=CARTESIAN_POINT('',(8.87284548607454,31.0382582201857,0.));
#449=CARTESIAN_POINT('',(9.05904642135231,31.2736446168535,0.));
#450=CARTESIAN_POINT('',(9.387276066542,31.7836980811431,0.));
#451=CARTESIAN_POINT('',(9.52512416911092,32.0523120869738,0.));
#452=CARTESIAN_POINT('',(9.74663096431197,32.6093138564013,0.));
#453=CARTESIAN_POINT('',(9.83141140569997,32.901540081152,0.));
#454=CARTESIAN_POINT('',(9.94212235987926,33.4956204513958,0.));
#455=CARTESIAN_POINT('',(9.9680948868592,33.7943468891606,0.));
#456=CARTESIAN_POINT('',(9.96196368473827,34.3951326921175,0.));
#457=CARTESIAN_POINT('',(9.92886949152976,34.699751747724,0.));
#458=CARTESIAN_POINT('',(9.80546171489281,35.2878867715099,0.));
#459=CARTESIAN_POINT('',(9.71560655951291,35.5739455647264,0.));
#460=CARTESIAN_POINT('',(9.47836132196469,36.1296951119621,0.));
#461=CARTESIAN_POINT('',(9.33155247726683,36.3963629462183,0.));
#462=CARTESIAN_POINT('',(8.99216537438735,36.8904891290879,0.));
#463=CARTESIAN_POINT('',(8.79726447718163,37.1218748580035,0.));
#464=CARTESIAN_POINT('',(8.3621940431093,37.5439076798661,0.));
#465=CARTESIAN_POINT('',(8.12700289443657,37.7302123842926,0.));
#466=CARTESIAN_POINT('',(7.62234381372272,38.054847105207,0.));
#467=CARTESIAN_POINT('',(7.34959516501301,38.1941376624472,0.));
#468=CARTESIAN_POINT('',(6.78906608032125,38.4130088984329,0.));
#469=CARTESIAN_POINT('',(6.50055257087384,38.49390971475,0.));
#470=CARTESIAN_POINT('',(5.90699222144618,38.5985193011577,0.));
#471=CARTESIAN_POINT('',(5.60218462598125,38.6213084481014,0.));
#472=CARTESIAN_POINT('',(5.00279698742239,38.6070371572102,0.));
#473=CARTESIAN_POINT('',(4.70480935881631,38.5707596931573,0.));
#474=CARTESIAN_POINT('',(4.11236210224645,38.4379463447169,0.));
#475=CARTESIAN_POINT('',(3.82639741838304,38.3431631725673,0.));
#476=CARTESIAN_POINT('',(3.27837843064685,38.100689405953,0.));
#477=CARTESIAN_POINT('',(3.01312928841356,37.9510007953011,0.));
#478=CARTESIAN_POINT('',(2.51882720055063,37.603992570613,0.));
#479=CARTESIAN_POINT('',(2.29148122094406,37.4086961182251,0.));
#480=CARTESIAN_POINT('',(1.87560664897383,36.9753908198644,0.));
#481=CARTESIAN_POINT('',(1.68592857215892,36.7348053993175,0.));
#482=CARTESIAN_POINT('',(1.36139592416215,36.2290267139401,0.));
#483=CARTESIAN_POINT('',(1.22450529260176,35.9624239712375,0.));
#484=CARTESIAN_POINT('',(1.00208650726887,35.4014614421444,0.));
#485=CARTESIAN_POINT('',(0.917838322806935,35.1083486753065,0.));
#486=CARTESIAN_POINT('',(0.808507537871635,34.5189831151668,0.));
#487=CARTESIAN_POINT('',(0.78212686715075,34.2197841293267,0.));
#488=CARTESIAN_POINT('',(0.788570447902812,33.6119329406895,0.));
#489=CARTESIAN_POINT('',(0.,0.,0.));
#490=CARTESIAN_POINT('',(8.75016855252341,0.,0.));
#491=CARTESIAN_POINT('',(3.50000000002634,0.,0.));
#492=(
GEOMETRIC_REPRESENTATION_CONTEXT(3)
GLOBAL_UNCERTAINTY_ASSIGNED_CONTEXT((#493))
GLOBAL_UNIT_ASSIGNED_CONTEXT((#499,#495,#494))
REPRESENTATION_CONTEXT('model1','TOP_LEVEL_ASSEMBLY_PART')
);
#493=UNCERTAINTY_MEASURE_WITH_UNIT(LENGTH_MEASURE(2.E-5),#499,
'DISTANCE_ACCURACY_VALUE','Maximum Tolerance applied to model');
#494=(
NAMED_UNIT(*)
SI_UNIT($,.STERADIAN.)
SOLID_ANGLE_UNIT()
);
#495=(
CONVERSION_BASED_UNIT('DEGREE',#497)
NAMED_UNIT(#496)
PLANE_ANGLE_UNIT()
);
#496=DIMENSIONAL_EXPONENTS(0.,0.,0.,0.,0.,0.,0.);
#497=PLANE_ANGLE_MEASURE_WITH_UNIT(PLANE_ANGLE_MEASURE(0.0174532925),#498);
#498=(
NAMED_UNIT(*)
PLANE_ANGLE_UNIT()
SI_UNIT($,.RADIAN.)
);
#499=(
LENGTH_UNIT()
NAMED_UNIT(*)
SI_UNIT(.MILLI.,.METRE.)
);
ENDSEC;
END-ISO-10303-21;
