ISO-10303-21;
HEADER;
/* Generated by software containing ST-Developer
 * from STEP Tools, Inc. (www.steptools.com) 
 */
/* OPTION: using custom schema-name function */

FILE_DESCRIPTION(
/* description */ (''),
/* implementation_level */ '2;1');

FILE_NAME(
/* name */ 'model1.stp',
/* time_stamp */ '2023-11-06T16:01:47+03:00',
/* author */ (''),
/* organization */ (''),
/* preprocessor_version */ 'ST-DEVELOPER v19.4',
/* originating_system */ 'SIEMENS PLM Software NX2306.3001',
/* authorisation */ '');

FILE_SCHEMA (('AUTOMOTIVE_DESIGN { 1 0 10303 214 3 1 1 1 }'));
ENDSEC;

DATA;
#10=PROPERTY_DEFINITION_REPRESENTATION(#14,#12);
#11=PROPERTY_DEFINITION_REPRESENTATION(#15,#13);
#12=REPRESENTATION('',(#16),#465);
#13=REPRESENTATION('',(#17),#465);
#14=PROPERTY_DEFINITION('pmi validation property','',#21);
#15=PROPERTY_DEFINITION('pmi validation property','',#21);
#16=VALUE_REPRESENTATION_ITEM('number of annotations',COUNT_MEASURE(0.));
#17=VALUE_REPRESENTATION_ITEM('number of views',COUNT_MEASURE(0.));
#18=SHAPE_REPRESENTATION_RELATIONSHIP('None',
'relationship between model1_objects-None and model1_objects-None',#30,
#19);
#19=ADVANCED_BREP_SHAPE_REPRESENTATION('model1_objects-None',(#125,#126),
#465);
#20=SHAPE_DEFINITION_REPRESENTATION(#21,#30);
#21=PRODUCT_DEFINITION_SHAPE('','',#22);
#22=PRODUCT_DEFINITION(' ','',#24,#23);
#23=PRODUCT_DEFINITION_CONTEXT('part definition',#29,'design');
#24=PRODUCT_DEFINITION_FORMATION_WITH_SPECIFIED_SOURCE(' ',' ',#26,
 .NOT_KNOWN.);
#25=PRODUCT_RELATED_PRODUCT_CATEGORY('part','',(#26));
#26=PRODUCT('model1_objects','model1_objects',' ',(#27));
#27=PRODUCT_CONTEXT(' ',#29,'mechanical');
#28=APPLICATION_PROTOCOL_DEFINITION('international standard',
'automotive_design',2010,#29);
#29=APPLICATION_CONTEXT(
'core data for automotive mechanical design processes');
#30=SHAPE_REPRESENTATION('model1_objects-None',(#233),#465);
#31=OVER_RIDING_STYLED_ITEM('',(#60),#131,#57);
#32=OVER_RIDING_STYLED_ITEM('',(#61),#132,#57);
#33=OVER_RIDING_STYLED_ITEM('',(#62),#133,#57);
#34=OVER_RIDING_STYLED_ITEM('',(#63),#134,#57);
#35=OVER_RIDING_STYLED_ITEM('',(#64),#135,#57);
#36=OVER_RIDING_STYLED_ITEM('',(#65),#136,#57);
#37=OVER_RIDING_STYLED_ITEM('',(#66),#137,#57);
#38=OVER_RIDING_STYLED_ITEM('',(#67),#138,#57);
#39=OVER_RIDING_STYLED_ITEM('',(#68),#139,#57);
#40=COLOUR_RGB('Medium Steel',0.611764705882353,0.658823529411765,0.670588235294118);
#41=COLOUR_RGB('silver gray',0.6,0.6,0.6);
#42=SURFACE_OF_REVOLUTION('',#44,#43);
#43=AXIS1_PLACEMENT('',#457,#280);
#44=B_SPLINE_CURVE_WITH_KNOTS('',3,(#391,#392,#393,#394,#395,#396,#397,
#398,#399,#400,#401,#402,#403,#404,#405,#406,#407,#408,#409,#410,#411,#412,
#413,#414,#415,#416,#417,#418,#419,#420,#421,#422,#423,#424,#425,#426,#427,
#428,#429,#430,#431,#432,#433,#434,#435,#436,#437,#438,#439,#440,#441,#442,
#443,#444,#445,#446,#447,#448,#449,#450,#451,#452,#453,#454,#455,#456),
 .UNSPECIFIED.,.T.,.F.,(2,2,2,2,2,2,2,2,2,2,2,2,2,2,2,2,2,2,2,2,2,2,2,2,
2,2,2,2,2,2,2,2,2,2,2),(-0.03125,0.,0.03125,0.0625,0.09375,0.125,0.15625,
0.1875,0.21875,0.25,0.28125,0.3125,0.34375,0.375,0.40625,0.4375,0.46875,
0.5,0.53125,0.5625,0.59375,0.625,0.65625,0.6875,0.71875,0.75,0.78125,0.8125,
0.84375,0.875,0.90625,0.9375,0.96875,1.,1.03125),.UNSPECIFIED.);
#45=CONICAL_SURFACE('',#245,10.106102188018,70.000000000058);
#46=VERTEX_LOOP('',#209);
#47=PLANE('',#241);
#48=FACE_OUTER_BOUND('',#170,.T.);
#49=TOROIDAL_SURFACE('',#240,17.,1.);
#50=TOROIDAL_SURFACE('',#243,13.,5.);
#51=TOROIDAL_SURFACE('',#250,13.,5.);
#52=TOROIDAL_SURFACE('',#251,57.,40.);
#53=CYLINDRICAL_SURFACE('',#238,18.);
#54=CYLINDRICAL_SURFACE('',#248,18.);
#55=PRESENTATION_LAYER_ASSIGNMENT('1','Layer 1',(#125,#126));
#56=STYLED_ITEM('',(#58),#125);
#57=STYLED_ITEM('',(#59),#126);
#58=PRESENTATION_STYLE_ASSIGNMENT((#69));
#59=PRESENTATION_STYLE_ASSIGNMENT((#70));
#60=PRESENTATION_STYLE_ASSIGNMENT((#71));
#61=PRESENTATION_STYLE_ASSIGNMENT((#72));
#62=PRESENTATION_STYLE_ASSIGNMENT((#73));
#63=PRESENTATION_STYLE_ASSIGNMENT((#74));
#64=PRESENTATION_STYLE_ASSIGNMENT((#75));
#65=PRESENTATION_STYLE_ASSIGNMENT((#76));
#66=PRESENTATION_STYLE_ASSIGNMENT((#77));
#67=PRESENTATION_STYLE_ASSIGNMENT((#78));
#68=PRESENTATION_STYLE_ASSIGNMENT((#79));
#69=SURFACE_STYLE_USAGE(.BOTH.,#80);
#70=SURFACE_STYLE_USAGE(.BOTH.,#81);
#71=SURFACE_STYLE_USAGE(.BOTH.,#82);
#72=SURFACE_STYLE_USAGE(.BOTH.,#83);
#73=SURFACE_STYLE_USAGE(.BOTH.,#84);
#74=SURFACE_STYLE_USAGE(.BOTH.,#85);
#75=SURFACE_STYLE_USAGE(.BOTH.,#86);
#76=SURFACE_STYLE_USAGE(.BOTH.,#87);
#77=SURFACE_STYLE_USAGE(.BOTH.,#88);
#78=SURFACE_STYLE_USAGE(.BOTH.,#89);
#79=SURFACE_STYLE_USAGE(.BOTH.,#90);
#80=SURFACE_SIDE_STYLE('',(#91));
#81=SURFACE_SIDE_STYLE('',(#92));
#82=SURFACE_SIDE_STYLE('',(#93));
#83=SURFACE_SIDE_STYLE('',(#94));
#84=SURFACE_SIDE_STYLE('',(#95));
#85=SURFACE_SIDE_STYLE('',(#96));
#86=SURFACE_SIDE_STYLE('',(#97));
#87=SURFACE_SIDE_STYLE('',(#98));
#88=SURFACE_SIDE_STYLE('',(#99));
#89=SURFACE_SIDE_STYLE('',(#100));
#90=SURFACE_SIDE_STYLE('',(#101));
#91=SURFACE_STYLE_FILL_AREA(#102);
#92=SURFACE_STYLE_FILL_AREA(#103);
#93=SURFACE_STYLE_FILL_AREA(#104);
#94=SURFACE_STYLE_FILL_AREA(#105);
#95=SURFACE_STYLE_FILL_AREA(#106);
#96=SURFACE_STYLE_FILL_AREA(#107);
#97=SURFACE_STYLE_FILL_AREA(#108);
#98=SURFACE_STYLE_FILL_AREA(#109);
#99=SURFACE_STYLE_FILL_AREA(#110);
#100=SURFACE_STYLE_FILL_AREA(#111);
#101=SURFACE_STYLE_FILL_AREA(#112);
#102=FILL_AREA_STYLE('',(#113));
#103=FILL_AREA_STYLE('',(#114));
#104=FILL_AREA_STYLE('',(#115));
#105=FILL_AREA_STYLE('',(#116));
#106=FILL_AREA_STYLE('',(#117));
#107=FILL_AREA_STYLE('',(#118));
#108=FILL_AREA_STYLE('',(#119));
#109=FILL_AREA_STYLE('',(#120));
#110=FILL_AREA_STYLE('',(#121));
#111=FILL_AREA_STYLE('',(#122));
#112=FILL_AREA_STYLE('',(#123));
#113=FILL_AREA_STYLE_COLOUR('',#124);
#114=FILL_AREA_STYLE_COLOUR('',#40);
#115=FILL_AREA_STYLE_COLOUR('',#41);
#116=FILL_AREA_STYLE_COLOUR('',#41);
#117=FILL_AREA_STYLE_COLOUR('',#41);
#118=FILL_AREA_STYLE_COLOUR('',#41);
#119=FILL_AREA_STYLE_COLOUR('',#41);
#120=FILL_AREA_STYLE_COLOUR('',#41);
#121=FILL_AREA_STYLE_COLOUR('',#41);
#122=FILL_AREA_STYLE_COLOUR('',#41);
#123=FILL_AREA_STYLE_COLOUR('',#41);
#124=DRAUGHTING_PRE_DEFINED_COLOUR('yellow');
#125=MANIFOLD_SOLID_BREP('',#127);
#126=MANIFOLD_SOLID_BREP('',#128);
#127=CLOSED_SHELL('',(#129,#130));
#128=CLOSED_SHELL('',(#131,#132,#133,#134,#135,#136,#137,#138,#139));
#129=ADVANCED_FACE('',(#142,#143),#140,.F.);
#130=ADVANCED_FACE('',(#144,#145),#141,.F.);
#131=ADVANCED_FACE('',(#146,#147),#53,.T.);
#132=ADVANCED_FACE('',(#148,#149),#49,.T.);
#133=ADVANCED_FACE('',(#48),#47,.F.);
#134=ADVANCED_FACE('',(#150,#151),#50,.T.);
#135=ADVANCED_FACE('',(#152,#153),#45,.F.);
#136=ADVANCED_FACE('',(#154,#155),#42,.T.);
#137=ADVANCED_FACE('',(#156,#157),#54,.T.);
#138=ADVANCED_FACE('',(#158,#159),#51,.T.);
#139=ADVANCED_FACE('',(#160,#161),#52,.F.);
#140=(
BOUNDED_SURFACE()
B_SPLINE_SURFACE(3,3,((#296,#297,#298,#299,#300,#301,#302),(#303,#304,#305,
#306,#307,#308,#309),(#310,#311,#312,#313,#314,#315,#316),(#317,#318,#319,
#320,#321,#322,#323),(#324,#325,#326,#327,#328,#329,#330),(#331,#332,#333,
#334,#335,#336,#337),(#338,#339,#340,#341,#342,#343,#344)),
 .UNSPECIFIED.,.T.,.F.,.F.)
B_SPLINE_SURFACE_WITH_KNOTS((1,3,3,3,1),(4,3,4),(-0.5,0.,0.5,1.,1.5),(0.,
0.5,1.),.UNSPECIFIED.)
GEOMETRIC_REPRESENTATION_ITEM()
RATIONAL_B_SPLINE_SURFACE(((1.,0.600493528033231,0.600493528033231,1.,0.600493528033231,
0.600493528033231,1.),(0.333333333333334,0.20016450934441,0.20016450934441,
0.333333333333334,0.20016450934441,0.20016450934441,0.333333333333334),
(0.333333333333334,0.20016450934441,0.20016450934441,0.333333333333334,
0.20016450934441,0.20016450934441,0.333333333333334),(1.,0.600493528033231,
0.600493528033231,1.,0.600493528033231,0.600493528033231,1.),(0.333333333333334,
0.20016450934441,0.20016450934441,0.333333333333334,0.20016450934441,0.20016450934441,
0.333333333333334),(0.333333333333334,0.20016450934441,0.20016450934441,
0.333333333333334,0.20016450934441,0.20016450934441,0.333333333333334),
(1.,0.600493528033231,0.600493528033231,1.,0.600493528033231,0.600493528033231,
1.)))
REPRESENTATION_ITEM('')
SURFACE()
);
#141=(
BOUNDED_SURFACE()
B_SPLINE_SURFACE(3,3,((#345,#346,#347,#348),(#349,#350,#351,#352),(#353,
#354,#355,#356),(#357,#358,#359,#360),(#361,#362,#363,#364),(#365,#366,
#367,#368),(#369,#370,#371,#372)),.UNSPECIFIED.,.T.,.F.,.F.)
B_SPLINE_SURFACE_WITH_KNOTS((1,3,3,3,1),(4,4),(-0.5,0.,0.5,1.,1.5),(0.,
1.),.UNSPECIFIED.)
GEOMETRIC_REPRESENTATION_ITEM()
RATIONAL_B_SPLINE_SURFACE(((1.,0.785876291103739,0.785876291103739,1.),
(0.333333333333334,0.261958763701246,0.261958763701246,0.333333333333334),
(0.333333333333334,0.261958763701246,0.261958763701246,0.333333333333334),
(1.,0.785876291103739,0.785876291103739,1.),(0.333333333333334,0.261958763701246,
0.261958763701246,0.333333333333334),(0.333333333333334,0.261958763701246,
0.261958763701246,0.333333333333334),(1.,0.785876291103739,0.785876291103739,
1.)))
REPRESENTATION_ITEM('')
SURFACE()
);
#142=FACE_BOUND('',#162,.T.);
#143=FACE_BOUND('',#163,.T.);
#144=FACE_BOUND('',#164,.T.);
#145=FACE_BOUND('',#165,.T.);
#146=FACE_BOUND('',#166,.T.);
#147=FACE_BOUND('',#167,.T.);
#148=FACE_BOUND('',#168,.T.);
#149=FACE_BOUND('',#169,.T.);
#150=FACE_BOUND('',#171,.T.);
#151=FACE_BOUND('',#172,.T.);
#152=FACE_BOUND('',#173,.T.);
#153=FACE_BOUND('',#46,.T.);
#154=FACE_BOUND('',#174,.T.);
#155=FACE_BOUND('',#175,.T.);
#156=FACE_BOUND('',#176,.T.);
#157=FACE_BOUND('',#177,.T.);
#158=FACE_BOUND('',#178,.T.);
#159=FACE_BOUND('',#179,.T.);
#160=FACE_BOUND('',#180,.T.);
#161=FACE_BOUND('',#181,.T.);
#162=EDGE_LOOP('',(#182));
#163=EDGE_LOOP('',(#183));
#164=EDGE_LOOP('',(#184));
#165=EDGE_LOOP('',(#185));
#166=EDGE_LOOP('',(#186));
#167=EDGE_LOOP('',(#187));
#168=EDGE_LOOP('',(#188));
#169=EDGE_LOOP('',(#189));
#170=EDGE_LOOP('',(#190));
#171=EDGE_LOOP('',(#191));
#172=EDGE_LOOP('',(#192));
#173=EDGE_LOOP('',(#193));
#174=EDGE_LOOP('',(#194));
#175=EDGE_LOOP('',(#195));
#176=EDGE_LOOP('',(#196));
#177=EDGE_LOOP('',(#197));
#178=EDGE_LOOP('',(#198));
#179=EDGE_LOOP('',(#199));
#180=EDGE_LOOP('',(#200));
#181=EDGE_LOOP('',(#201));
#182=ORIENTED_EDGE('',*,*,#213,.T.);
#183=ORIENTED_EDGE('',*,*,#214,.F.);
#184=ORIENTED_EDGE('',*,*,#214,.T.);
#185=ORIENTED_EDGE('',*,*,#213,.F.);
#186=ORIENTED_EDGE('',*,*,#215,.T.);
#187=ORIENTED_EDGE('',*,*,#216,.F.);
#188=ORIENTED_EDGE('',*,*,#217,.T.);
#189=ORIENTED_EDGE('',*,*,#215,.F.);
#190=ORIENTED_EDGE('',*,*,#217,.F.);
#191=ORIENTED_EDGE('',*,*,#218,.F.);
#192=ORIENTED_EDGE('',*,*,#216,.T.);
#193=ORIENTED_EDGE('',*,*,#219,.T.);
#194=ORIENTED_EDGE('',*,*,#219,.F.);
#195=ORIENTED_EDGE('',*,*,#220,.T.);
#196=ORIENTED_EDGE('',*,*,#220,.F.);
#197=ORIENTED_EDGE('',*,*,#221,.T.);
#198=ORIENTED_EDGE('',*,*,#221,.F.);
#199=ORIENTED_EDGE('',*,*,#222,.T.);
#200=ORIENTED_EDGE('',*,*,#222,.F.);
#201=ORIENTED_EDGE('',*,*,#218,.T.);
#202=VERTEX_POINT('',#293);
#203=VERTEX_POINT('',#295);
#204=VERTEX_POINT('',#374);
#205=VERTEX_POINT('',#376);
#206=VERTEX_POINT('',#379);
#207=VERTEX_POINT('',#383);
#208=VERTEX_POINT('',#386);
#209=VERTEX_POINT('',#387);
#210=VERTEX_POINT('',#390);
#211=VERTEX_POINT('',#459);
#212=VERTEX_POINT('',#462);
#213=EDGE_CURVE('',#202,#202,#223,.T.);
#214=EDGE_CURVE('',#203,#203,#224,.T.);
#215=EDGE_CURVE('',#204,#204,#225,.T.);
#216=EDGE_CURVE('',#205,#205,#226,.T.);
#217=EDGE_CURVE('',#206,#206,#227,.T.);
#218=EDGE_CURVE('',#207,#207,#228,.T.);
#219=EDGE_CURVE('',#208,#208,#229,.T.);
#220=EDGE_CURVE('',#210,#210,#230,.T.);
#221=EDGE_CURVE('',#211,#211,#231,.T.);
#222=EDGE_CURVE('',#212,#212,#232,.T.);
#223=CIRCLE('',#234,6.);
#224=CIRCLE('',#235,6.);
#225=CIRCLE('',#236,18.);
#226=CIRCLE('',#237,18.);
#227=CIRCLE('',#239,17.);
#228=CIRCLE('',#242,17.8888888888889);
#229=CIRCLE('',#244,10.106102188018);
#230=CIRCLE('',#246,18.);
#231=CIRCLE('',#247,18.);
#232=CIRCLE('',#249,17.8888888888889);
#233=AXIS2_PLACEMENT_3D('',#291,#252,#253);
#234=AXIS2_PLACEMENT_3D('',#292,#254,#255);
#235=AXIS2_PLACEMENT_3D('',#294,#256,#257);
#236=AXIS2_PLACEMENT_3D('',#373,#258,#259);
#237=AXIS2_PLACEMENT_3D('',#375,#260,#261);
#238=AXIS2_PLACEMENT_3D('',#377,#262,#263);
#239=AXIS2_PLACEMENT_3D('',#378,#264,#265);
#240=AXIS2_PLACEMENT_3D('',#380,#266,#267);
#241=AXIS2_PLACEMENT_3D('',#381,#268,#269);
#242=AXIS2_PLACEMENT_3D('',#382,#270,#271);
#243=AXIS2_PLACEMENT_3D('',#384,#272,#273);
#244=AXIS2_PLACEMENT_3D('',#385,#274,#275);
#245=AXIS2_PLACEMENT_3D('',#388,#276,#277);
#246=AXIS2_PLACEMENT_3D('',#389,#278,#279);
#247=AXIS2_PLACEMENT_3D('',#458,#281,#282);
#248=AXIS2_PLACEMENT_3D('',#460,#283,#284);
#249=AXIS2_PLACEMENT_3D('',#461,#285,#286);
#250=AXIS2_PLACEMENT_3D('',#463,#287,#288);
#251=AXIS2_PLACEMENT_3D('',#464,#289,#290);
#252=DIRECTION('',(0.,0.,1.));
#253=DIRECTION('',(1.,0.,0.));
#254=DIRECTION('',(0.121869343405147,0.992508034853001,0.00869849930923351));
#255=DIRECTION('',(0.992489739031157,-0.121951173125867,0.00959318982874519));
#256=DIRECTION('',(0.121869343405147,-0.0865060970576294,0.988769213876451));
#257=DIRECTION('',(0.992489739031157,0.,-0.122327911442424));
#258=DIRECTION('',(-1.,0.,0.));
#259=DIRECTION('',(0.,0.,1.));
#260=DIRECTION('',(-1.,0.,0.));
#261=DIRECTION('',(0.,0.,1.));
#262=DIRECTION('',(-1.,0.,0.));
#263=DIRECTION('',(0.,0.,1.));
#264=DIRECTION('',(-1.,0.,0.));
#265=DIRECTION('',(0.,0.,1.));
#266=DIRECTION('',(-1.,0.,0.));
#267=DIRECTION('',(0.,0.,1.));
#268=DIRECTION('',(-1.,0.,0.));
#269=DIRECTION('',(0.,0.,1.));
#270=DIRECTION('',(-1.,0.,0.));
#271=DIRECTION('',(0.,0.,1.));
#272=DIRECTION('',(-1.,0.,0.));
#273=DIRECTION('',(0.,0.,1.));
#274=DIRECTION('',(-1.,0.,0.));
#275=DIRECTION('',(0.,0.,1.));
#276=DIRECTION('',(-1.,0.,0.));
#277=DIRECTION('',(-9.27883818196586E-18,0.,1.));
#278=DIRECTION('',(-1.,0.,0.));
#279=DIRECTION('',(0.,0.,1.));
#280=DIRECTION('',(-1.,0.,0.));
#281=DIRECTION('',(-1.,0.,0.));
#282=DIRECTION('',(0.,0.,1.));
#283=DIRECTION('',(-1.,0.,0.));
#284=DIRECTION('',(0.,0.,1.));
#285=DIRECTION('',(-1.,0.,0.));
#286=DIRECTION('',(0.,0.,1.));
#287=DIRECTION('',(-1.,0.,0.));
#288=DIRECTION('',(0.,0.,1.));
#289=DIRECTION('',(-1.,0.,0.));
#290=DIRECTION('',(0.,0.,1.));
#291=CARTESIAN_POINT('',(0.,0.,0.));
#292=CARTESIAN_POINT('',(5.95527690984794,0.370428181283607,13.997628525673));
#293=CARTESIAN_POINT('',(11.9102153440349,-0.361278857471592,14.0551876646455));
#294=CARTESIAN_POINT('',(5.95527690984794,-13.9835691411441,-0.728433562560782));
#295=CARTESIAN_POINT('',(11.9102153440349,-13.9835691411441,-1.46240103121532));
#296=CARTESIAN_POINT('',(11.9102153440349,-13.9835691411441,-1.46240103121532));
#297=CARTESIAN_POINT('',(11.9102153440349,-12.4960819170637,-15.6858459006507));
#298=CARTESIAN_POINT('',(11.9102153440349,1.13141618279826,-20.0229299134325));
#299=CARTESIAN_POINT('',(11.9102153440349,10.5661040956127,-9.27557367185092));
#300=CARTESIAN_POINT('',(11.9102153440349,20.0007920084272,1.47178256973066));
#301=CARTESIAN_POINT('',(11.9102153440349,13.935013087726,14.4226639405428));
#302=CARTESIAN_POINT('',(11.9102153440349,-0.361278857471595,14.0551876646455));
#303=CARTESIAN_POINT('',(12.037200666196,-2.02855328566541,-0.432124066895357));
#304=CARTESIAN_POINT('',(12.037200666196,-1.58901651360069,-2.49547538529941));
#305=CARTESIAN_POINT('',(12.037200666196,0.477548918471865,-2.91964345590301));
#306=CARTESIAN_POINT('',(12.037200666196,1.69432421598489,-1.19625461048277));
#307=CARTESIAN_POINT('',(12.037200666196,2.91109951349792,0.527134234937463));
#308=CARTESIAN_POINT('',(12.037200666196,1.81975585759418,2.33256500399937));
#309=CARTESIAN_POINT('',(12.037200666196,-0.271710190706068,2.05619386591843));
#310=CARTESIAN_POINT('',(0.127323797822132,-2.02855328566541,1.03581087041373));
#311=CARTESIAN_POINT('',(0.127323797822132,-3.08213257302653,-1.02754044799032));
#312=CARTESIAN_POINT('',(0.127323797822132,-1.6139189066726,-2.81968904892933));
#313=CARTESIAN_POINT('',(0.127323797822132,0.616405127581021,-2.19271003799932));
#314=CARTESIAN_POINT('',(0.127323797822132,2.84672916183464,-1.56573102706932));
#315=CARTESIAN_POINT('',(0.127323797822132,3.16607690518588,0.728929077768123));
#316=CARTESIAN_POINT('',(0.127323797822132,1.19170388680433,1.94107558797349));
#317=CARTESIAN_POINT('',(0.000338475660986194,-13.9835691411441,0.00553390609376128));
#318=CARTESIAN_POINT('',(0.000338475660986194,-13.9891979764896,-14.2179109633416));
#319=CARTESIAN_POINT('',(0.000338475660986194,-0.9600516423462,-19.9229755064588));
#320=CARTESIAN_POINT('',(0.000338475660986194,9.48818500720886,-10.2720290993675));
#321=CARTESIAN_POINT('',(0.000338475660986194,19.9364216567639,-0.621082692276119));
#322=CARTESIAN_POINT('',(0.000338475660986194,15.2813341353177,12.8190280143115));
#323=CARTESIAN_POINT('',(0.000338475660986194,1.10213522003881,13.9400693867005));
#324=CARTESIAN_POINT('',(-0.12664684650016,-25.9385849966229,-1.02474305822621));
#325=CARTESIAN_POINT('',(-0.12664684650016,-24.8962633799526,-27.4082814786929));
#326=CARTESIAN_POINT('',(-0.12664684650016,-0.306184378019807,-37.0262619639883));
#327=CARTESIAN_POINT('',(-0.12664684650016,18.3599648868367,-18.3513481607356));
#328=CARTESIAN_POINT('',(-0.12664684650016,37.0261141516932,0.323565642517075));
#329=CARTESIAN_POINT('',(-0.12664684650016,27.3965913654496,24.9091269508549));
#330=CARTESIAN_POINT('',(-0.12664684650016,1.01256655327328,25.9390631854275));
#331=CARTESIAN_POINT('',(11.7832300218737,-25.9385849966229,-2.49267799553529));
#332=CARTESIAN_POINT('',(11.7832300218737,-23.4031473205268,-28.876216416002));
#333=CARTESIAN_POINT('',(11.7832300218737,1.78528344712465,-37.126216370962));
#334=CARTESIAN_POINT('',(11.7832300218737,19.4378839752405,-17.3548927332191));
#335=CARTESIAN_POINT('',(11.7832300218737,37.0904845033565,2.41643090452385));
#336=CARTESIAN_POINT('',(11.7832300218737,26.0502703178579,26.5127628770861));
#337=CARTESIAN_POINT('',(11.7832300218737,-0.450847524237118,26.0541814633725));
#338=CARTESIAN_POINT('',(11.9102153440349,-13.9835691411441,-1.46240103121532));
#339=CARTESIAN_POINT('',(11.9102153440349,-12.4960819170637,-15.6858459006507));
#340=CARTESIAN_POINT('',(11.9102153440349,1.13141618279826,-20.0229299134325));
#341=CARTESIAN_POINT('',(11.9102153440349,10.5661040956127,-9.27557367185092));
#342=CARTESIAN_POINT('',(11.9102153440349,20.0007920084272,1.47178256973066));
#343=CARTESIAN_POINT('',(11.9102153440349,13.935013087726,14.4226639405428));
#344=CARTESIAN_POINT('',(11.9102153440349,-0.361278857471595,14.0551876646455));
#345=CARTESIAN_POINT('',(11.9102153440349,-0.361278857471593,14.0551876646455));
#346=CARTESIAN_POINT('',(11.9102153440349,-9.11656931759159,13.8301389915338));
#347=CARTESIAN_POINT('',(11.9102153440349,-14.8945314209062,7.24827665029649));
#348=CARTESIAN_POINT('',(11.9102153440349,-13.9835691411441,-1.46240103121532));
#349=CARTESIAN_POINT('',(12.037200666196,-0.271710190706068,2.05619386591843));
#350=CARTESIAN_POINT('',(12.037200666196,-1.5525592955328,1.88693951675096));
#351=CARTESIAN_POINT('',(12.037200666196,-2.2977330227666,0.831507102861739));
#352=CARTESIAN_POINT('',(12.037200666196,-2.02855328566541,-0.432124066895357));
#353=CARTESIAN_POINT('',(0.127323797822132,1.19170388680433,1.94107558797349));
#354=CARTESIAN_POINT('',(0.127323797822133,-0.0174354703672997,2.68341456774186));
#355=CARTESIAN_POINT('',(0.127323797822133,-1.38332354924334,2.29944204017082));
#356=CARTESIAN_POINT('',(0.127323797822132,-2.02855328566541,1.03581087041373));
#357=CARTESIAN_POINT('',(0.000338475660986194,1.10213522003881,13.9400693867005));
#358=CARTESIAN_POINT('',(0.000338475660986194,-7.58144549242608,14.6266140425247));
#359=CARTESIAN_POINT('',(0.000338475660986194,-13.9801219473829,8.71621158760557));
#360=CARTESIAN_POINT('',(0.000338475660986194,-13.9835691411441,0.00553390609376193));
#361=CARTESIAN_POINT('',(-0.12664684650016,1.01256655327328,25.9390631854275));
#362=CARTESIAN_POINT('',(-0.12664684650016,-15.1454555144849,26.5698135173075));
#363=CARTESIAN_POINT('',(-0.12664684650016,-26.5769203455226,15.1329811350404));
#364=CARTESIAN_POINT('',(-0.12664684650016,-25.9385849966229,-1.0247430582262));
#365=CARTESIAN_POINT('',(11.7832300218737,-0.450847524237118,26.0541814633725));
#366=CARTESIAN_POINT('',(11.7832300218738,-16.6805793396504,25.7733384663167));
#367=CARTESIAN_POINT('',(11.7832300218738,-27.4913298190459,13.6650461977313));
#368=CARTESIAN_POINT('',(11.7832300218737,-25.9385849966229,-2.49267799553529));
#369=CARTESIAN_POINT('',(11.9102153440349,-0.361278857471593,14.0551876646455));
#370=CARTESIAN_POINT('',(11.9102153440349,-9.11656931759159,13.8301389915338));
#371=CARTESIAN_POINT('',(11.9102153440349,-14.8945314209062,7.24827665029649));
#372=CARTESIAN_POINT('',(11.9102153440349,-13.9835691411441,-1.46240103121532));
#373=CARTESIAN_POINT('',(39.,0.,0.));
#374=CARTESIAN_POINT('',(39.,0.,18.));
#375=CARTESIAN_POINT('',(33.,0.,0.));
#376=CARTESIAN_POINT('',(33.,0.,18.));
#377=CARTESIAN_POINT('',(0.,0.,0.));
#378=CARTESIAN_POINT('',(40.,0.,0.));
#379=CARTESIAN_POINT('',(40.,0.,17.));
#380=CARTESIAN_POINT('',(39.,0.,0.));
#381=CARTESIAN_POINT('',(40.,9.,0.));
#382=CARTESIAN_POINT('',(31.951779874216,0.,0.));
#383=CARTESIAN_POINT('',(31.951779874216,0.,17.8888888888889));
#384=CARTESIAN_POINT('',(33.,0.,0.));
#385=CARTESIAN_POINT('',(3.50000000000453,0.,0.));
#386=CARTESIAN_POINT('',(3.50000000000453,0.,10.106102188018));
#387=CARTESIAN_POINT('',(7.17832038088405,0.,0.));
#388=CARTESIAN_POINT('',(3.50000000000453,0.,0.));
#389=CARTESIAN_POINT('',(8.68638476236777,0.,0.));
#390=CARTESIAN_POINT('',(8.68638476236777,0.,18.));
#391=CARTESIAN_POINT('',(0.668149402828302,14.5455390564109,0.));
#392=CARTESIAN_POINT('',(0.674921292775457,13.9188394712832,0.));
#393=CARTESIAN_POINT('',(0.709831173704024,13.6069453165829,0.));
#394=CARTESIAN_POINT('',(0.842608728827813,12.9961230950253,0.));
#395=CARTESIAN_POINT('',(0.939101484061263,12.7019411510725,0.));
#396=CARTESIAN_POINT('',(1.19218833638465,12.1359958286314,0.));
#397=CARTESIAN_POINT('',(1.35091744651318,11.8623093780044,0.));
#398=CARTESIAN_POINT('',(1.71671774436775,11.3626718007922,0.));
#399=CARTESIAN_POINT('',(1.92457569272033,11.1336814236257,0.));
#400=CARTESIAN_POINT('',(2.39158558629999,10.7185078276111,0.));
#401=CARTESIAN_POINT('',(2.6458390455592,10.5373496394646,0.));
#402=CARTESIAN_POINT('',(3.18218007668955,10.2328699163632,0.));
#403=CARTESIAN_POINT('',(3.46823885948971,10.1073403584617,0.));
#404=CARTESIAN_POINT('',(4.06230782577442,9.91555815756036,0.));
#405=CARTESIAN_POINT('',(4.36416928918644,9.85072697114259,0.));
#406=CARTESIAN_POINT('',(4.97677288559084,9.77820857203628,0.));
#407=CARTESIAN_POINT('',(5.29065726022882,9.7708624216347,0.));
#408=CARTESIAN_POINT('',(5.91140436189369,9.81361536682043,0.));
#409=CARTESIAN_POINT('',(6.21633661692675,9.86289102219283,0.));
#410=CARTESIAN_POINT('',(6.81575514685375,10.0150020584073,0.));
#411=CARTESIAN_POINT('',(7.11294527700737,10.1193120681299,0.));
#412=CARTESIAN_POINT('',(7.67794953771992,10.3766469596087,0.));
#413=CARTESIAN_POINT('',(7.94676463411755,10.5293033683571,0.));
#414=CARTESIAN_POINT('',(8.45644538403239,10.8836025588989,0.));
#415=CARTESIAN_POINT('',(8.69766986706008,11.0864825515814,0.));
#416=CARTESIAN_POINT('',(9.13183037620426,11.5278725422125,0.));
#417=CARTESIAN_POINT('',(9.32743229181627,11.7679093247899,0.));
#418=CARTESIAN_POINT('',(9.67280209996797,12.2892575865245,0.));
#419=CARTESIAN_POINT('',(9.81825780172839,12.5645325060989,0.));
#420=CARTESIAN_POINT('',(10.0513757247433,13.1374815752544,0.));
#421=CARTESIAN_POINT('',(10.1402327800537,13.4397596315546,0.));
#422=CARTESIAN_POINT('',(10.2530128023949,14.0510569729082,0.));
#423=CARTESIAN_POINT('',(10.2776838269811,14.3591260479976,0.));
#424=CARTESIAN_POINT('',(10.2631525706442,14.9801382262322,0.));
#425=CARTESIAN_POINT('',(10.2229544287315,15.293016726266,0.));
#426=CARTESIAN_POINT('',(10.0813429868552,15.8947107816218,0.));
#427=CARTESIAN_POINT('',(9.97996366167741,16.1875620019577,0.));
#428=CARTESIAN_POINT('',(9.71443834029636,16.7552149553072,0.));
#429=CARTESIAN_POINT('',(9.55486995060748,17.0203721359504,0.));
#430=CARTESIAN_POINT('',(9.18490741443762,17.5152880531343,0.));
#431=CARTESIAN_POINT('',(8.97158352311838,17.7473569956187,0.));
#432=CARTESIAN_POINT('',(8.50721435124569,18.1598726190548,0.));
#433=CARTESIAN_POINT('',(8.2570573242764,18.3407867975933,0.));
#434=CARTESIAN_POINT('',(7.72150535914089,18.6529248152364,0.));
#435=CARTESIAN_POINT('',(7.43424949775175,18.7840589879392,0.));
#436=CARTESIAN_POINT('',(6.84931722926396,18.984776032512,0.));
#437=CARTESIAN_POINT('',(6.54882829756454,19.0563767049721,0.));
#438=CARTESIAN_POINT('',(5.93163816914742,19.1414649184907,0.));
#439=CARTESIAN_POINT('',(5.61852320032126,19.1538526006826,0.));
#440=CARTESIAN_POINT('',(5.00201196843304,19.1197626660881,0.));
#441=CARTESIAN_POINT('',(4.69534418697563,19.0736073403749,0.));
#442=CARTESIAN_POINT('',(4.08814035666416,18.9215413736848,0.));
#443=CARTESIAN_POINT('',(3.79651103745721,18.8179552349479,0.));
#444=CARTESIAN_POINT('',(3.23614491448325,18.558099225565,0.));
#445=CARTESIAN_POINT('',(2.96497134763818,18.3999629747889,0.));
#446=CARTESIAN_POINT('',(2.45948756702357,18.0368674634098,0.));
#447=CARTESIAN_POINT('',(2.22663068748779,17.8337674676302,0.));
#448=CARTESIAN_POINT('',(1.8001305417219,17.3850660553544,0.));
#449=CARTESIAN_POINT('',(1.60524417754847,17.1368350694086,0.));
#450=CARTESIAN_POINT('',(1.2706256072349,16.6151796390251,0.));
#451=CARTESIAN_POINT('',(1.1290004694005,16.3405135151049,0.));
#452=CARTESIAN_POINT('',(0.89826190875875,15.7628883842478,0.));
#453=CARTESIAN_POINT('',(0.810391523918615,15.4610196928355,0.));
#454=CARTESIAN_POINT('',(0.696017425859606,14.8538503261722,0.));
#455=CARTESIAN_POINT('',(0.668149402828302,14.5455390564109,0.));
#456=CARTESIAN_POINT('',(0.674921292775457,13.9188394712832,0.));
#457=CARTESIAN_POINT('',(0.,0.,0.));
#458=CARTESIAN_POINT('',(14.1320377358868,0.,0.));
#459=CARTESIAN_POINT('',(14.1320377358868,0.,18.));
#460=CARTESIAN_POINT('',(0.,0.,0.));
#461=CARTESIAN_POINT('',(15.180257861671,0.,0.));
#462=CARTESIAN_POINT('',(15.180257861671,0.,17.8888888888889));
#463=CARTESIAN_POINT('',(14.1320377358868,0.,0.));
#464=CARTESIAN_POINT('',(23.5660188679434,0.,0.));
#465=(
GEOMETRIC_REPRESENTATION_CONTEXT(3)
GLOBAL_UNCERTAINTY_ASSIGNED_CONTEXT((#466))
GLOBAL_UNIT_ASSIGNED_CONTEXT((#472,#468,#467))
REPRESENTATION_CONTEXT('model1','TOP_LEVEL_ASSEMBLY_PART')
);
#466=UNCERTAINTY_MEASURE_WITH_UNIT(LENGTH_MEASURE(2.E-5),#472,
'DISTANCE_ACCURACY_VALUE','Maximum Tolerance applied to model');
#467=(
NAMED_UNIT(*)
SI_UNIT($,.STERADIAN.)
SOLID_ANGLE_UNIT()
);
#468=(
CONVERSION_BASED_UNIT('DEGREE',#470)
NAMED_UNIT(#469)
PLANE_ANGLE_UNIT()
);
#469=DIMENSIONAL_EXPONENTS(0.,0.,0.,0.,0.,0.,0.);
#470=PLANE_ANGLE_MEASURE_WITH_UNIT(PLANE_ANGLE_MEASURE(0.0174532925),#471);
#471=(
NAMED_UNIT(*)
PLANE_ANGLE_UNIT()
SI_UNIT($,.RADIAN.)
);
#472=(
LENGTH_UNIT()
NAMED_UNIT(*)
SI_UNIT(.MILLI.,.METRE.)
);
ENDSEC;
END-ISO-10303-21;
