ISO-10303-21;
HEADER;
/* Generated by software containing ST-Developer
 * from STEP Tools, Inc. (www.steptools.com) 
 */
/* OPTION: using custom schema-name function */

FILE_DESCRIPTION(
/* description */ (''),
/* implementation_level */ '2;1');

FILE_NAME(
/* name */ 'model1.stp',
/* time_stamp */ '2023-11-02T15:38:33+03:00',
/* author */ (''),
/* organization */ (''),
/* preprocessor_version */ 'ST-DEVELOPER v19.4',
/* originating_system */ 'SIEMENS PLM Software NX2306.3001',
/* authorisation */ '');

FILE_SCHEMA (('AUTOMOTIVE_DESIGN { 1 0 10303 214 3 1 1 1 }'));
ENDSEC;

DATA;
#10=PROPERTY_DEFINITION_REPRESENTATION(#14,#12);
#11=PROPERTY_DEFINITION_REPRESENTATION(#15,#13);
#12=REPRESENTATION('',(#16),#465);
#13=REPRESENTATION('',(#17),#465);
#14=PROPERTY_DEFINITION('pmi validation property','',#21);
#15=PROPERTY_DEFINITION('pmi validation property','',#21);
#16=VALUE_REPRESENTATION_ITEM('number of annotations',COUNT_MEASURE(0.));
#17=VALUE_REPRESENTATION_ITEM('number of views',COUNT_MEASURE(0.));
#18=SHAPE_REPRESENTATION_RELATIONSHIP('None',
'relationship between model1_objects-None and model1_objects-None',#30,
#19);
#19=ADVANCED_BREP_SHAPE_REPRESENTATION('model1_objects-None',(#125,#126),
#465);
#20=SHAPE_DEFINITION_REPRESENTATION(#21,#30);
#21=PRODUCT_DEFINITION_SHAPE('','',#22);
#22=PRODUCT_DEFINITION(' ','',#24,#23);
#23=PRODUCT_DEFINITION_CONTEXT('part definition',#29,'design');
#24=PRODUCT_DEFINITION_FORMATION_WITH_SPECIFIED_SOURCE(' ',' ',#26,
 .NOT_KNOWN.);
#25=PRODUCT_RELATED_PRODUCT_CATEGORY('part','',(#26));
#26=PRODUCT('model1_objects','model1_objects',' ',(#27));
#27=PRODUCT_CONTEXT(' ',#29,'mechanical');
#28=APPLICATION_PROTOCOL_DEFINITION('international standard',
'automotive_design',2010,#29);
#29=APPLICATION_CONTEXT(
'core data for automotive mechanical design processes');
#30=SHAPE_REPRESENTATION('model1_objects-None',(#233),#465);
#31=OVER_RIDING_STYLED_ITEM('',(#60),#131,#57);
#32=OVER_RIDING_STYLED_ITEM('',(#61),#132,#57);
#33=OVER_RIDING_STYLED_ITEM('',(#62),#133,#57);
#34=OVER_RIDING_STYLED_ITEM('',(#63),#134,#57);
#35=OVER_RIDING_STYLED_ITEM('',(#64),#135,#57);
#36=OVER_RIDING_STYLED_ITEM('',(#65),#136,#57);
#37=OVER_RIDING_STYLED_ITEM('',(#66),#137,#57);
#38=OVER_RIDING_STYLED_ITEM('',(#67),#138,#57);
#39=OVER_RIDING_STYLED_ITEM('',(#68),#139,#57);
#40=COLOUR_RGB('Medium Steel',0.611764705882353,0.658823529411765,0.670588235294118);
#41=COLOUR_RGB('silver gray',0.6,0.6,0.6);
#42=SURFACE_OF_REVOLUTION('',#44,#43);
#43=AXIS1_PLACEMENT('',#457,#280);
#44=B_SPLINE_CURVE_WITH_KNOTS('',3,(#391,#392,#393,#394,#395,#396,#397,
#398,#399,#400,#401,#402,#403,#404,#405,#406,#407,#408,#409,#410,#411,#412,
#413,#414,#415,#416,#417,#418,#419,#420,#421,#422,#423,#424,#425,#426,#427,
#428,#429,#430,#431,#432,#433,#434,#435,#436,#437,#438,#439,#440,#441,#442,
#443,#444,#445,#446,#447,#448,#449,#450,#451,#452,#453,#454,#455,#456),
 .UNSPECIFIED.,.T.,.F.,(2,2,2,2,2,2,2,2,2,2,2,2,2,2,2,2,2,2,2,2,2,2,2,2,
2,2,2,2,2,2,2,2,2,2,2),(-0.03125,0.,0.0625,0.09375,0.125,0.15625,0.1875,
0.21875,0.25,0.28125,0.3125,0.34375,0.375,0.40625,0.4375,0.46875,0.5,0.53125,
0.5625,0.59375,0.625,0.65625,0.6875,0.71875,0.734375,0.75,0.78125,0.8125,
0.84375,0.875,0.90625,0.9375,0.96875,1.,1.0625),.UNSPECIFIED.);
#45=CONICAL_SURFACE('',#245,16.049392054018,74.9999999995003);
#46=VERTEX_LOOP('',#209);
#47=PLANE('',#241);
#48=FACE_OUTER_BOUND('',#170,.T.);
#49=TOROIDAL_SURFACE('',#240,19.5,1.5);
#50=TOROIDAL_SURFACE('',#243,16.,5.);
#51=TOROIDAL_SURFACE('',#250,19.,5.);
#52=TOROIDAL_SURFACE('',#251,70.5,50.);
#53=CYLINDRICAL_SURFACE('',#238,21.);
#54=CYLINDRICAL_SURFACE('',#248,24.);
#55=PRESENTATION_LAYER_ASSIGNMENT('1','Layer 1',(#125,#126));
#56=STYLED_ITEM('',(#58),#125);
#57=STYLED_ITEM('',(#59),#126);
#58=PRESENTATION_STYLE_ASSIGNMENT((#69));
#59=PRESENTATION_STYLE_ASSIGNMENT((#70));
#60=PRESENTATION_STYLE_ASSIGNMENT((#71));
#61=PRESENTATION_STYLE_ASSIGNMENT((#72));
#62=PRESENTATION_STYLE_ASSIGNMENT((#73));
#63=PRESENTATION_STYLE_ASSIGNMENT((#74));
#64=PRESENTATION_STYLE_ASSIGNMENT((#75));
#65=PRESENTATION_STYLE_ASSIGNMENT((#76));
#66=PRESENTATION_STYLE_ASSIGNMENT((#77));
#67=PRESENTATION_STYLE_ASSIGNMENT((#78));
#68=PRESENTATION_STYLE_ASSIGNMENT((#79));
#69=SURFACE_STYLE_USAGE(.BOTH.,#80);
#70=SURFACE_STYLE_USAGE(.BOTH.,#81);
#71=SURFACE_STYLE_USAGE(.BOTH.,#82);
#72=SURFACE_STYLE_USAGE(.BOTH.,#83);
#73=SURFACE_STYLE_USAGE(.BOTH.,#84);
#74=SURFACE_STYLE_USAGE(.BOTH.,#85);
#75=SURFACE_STYLE_USAGE(.BOTH.,#86);
#76=SURFACE_STYLE_USAGE(.BOTH.,#87);
#77=SURFACE_STYLE_USAGE(.BOTH.,#88);
#78=SURFACE_STYLE_USAGE(.BOTH.,#89);
#79=SURFACE_STYLE_USAGE(.BOTH.,#90);
#80=SURFACE_SIDE_STYLE('',(#91));
#81=SURFACE_SIDE_STYLE('',(#92));
#82=SURFACE_SIDE_STYLE('',(#93));
#83=SURFACE_SIDE_STYLE('',(#94));
#84=SURFACE_SIDE_STYLE('',(#95));
#85=SURFACE_SIDE_STYLE('',(#96));
#86=SURFACE_SIDE_STYLE('',(#97));
#87=SURFACE_SIDE_STYLE('',(#98));
#88=SURFACE_SIDE_STYLE('',(#99));
#89=SURFACE_SIDE_STYLE('',(#100));
#90=SURFACE_SIDE_STYLE('',(#101));
#91=SURFACE_STYLE_FILL_AREA(#102);
#92=SURFACE_STYLE_FILL_AREA(#103);
#93=SURFACE_STYLE_FILL_AREA(#104);
#94=SURFACE_STYLE_FILL_AREA(#105);
#95=SURFACE_STYLE_FILL_AREA(#106);
#96=SURFACE_STYLE_FILL_AREA(#107);
#97=SURFACE_STYLE_FILL_AREA(#108);
#98=SURFACE_STYLE_FILL_AREA(#109);
#99=SURFACE_STYLE_FILL_AREA(#110);
#100=SURFACE_STYLE_FILL_AREA(#111);
#101=SURFACE_STYLE_FILL_AREA(#112);
#102=FILL_AREA_STYLE('',(#113));
#103=FILL_AREA_STYLE('',(#114));
#104=FILL_AREA_STYLE('',(#115));
#105=FILL_AREA_STYLE('',(#116));
#106=FILL_AREA_STYLE('',(#117));
#107=FILL_AREA_STYLE('',(#118));
#108=FILL_AREA_STYLE('',(#119));
#109=FILL_AREA_STYLE('',(#120));
#110=FILL_AREA_STYLE('',(#121));
#111=FILL_AREA_STYLE('',(#122));
#112=FILL_AREA_STYLE('',(#123));
#113=FILL_AREA_STYLE_COLOUR('',#124);
#114=FILL_AREA_STYLE_COLOUR('',#40);
#115=FILL_AREA_STYLE_COLOUR('',#41);
#116=FILL_AREA_STYLE_COLOUR('',#41);
#117=FILL_AREA_STYLE_COLOUR('',#41);
#118=FILL_AREA_STYLE_COLOUR('',#41);
#119=FILL_AREA_STYLE_COLOUR('',#41);
#120=FILL_AREA_STYLE_COLOUR('',#41);
#121=FILL_AREA_STYLE_COLOUR('',#41);
#122=FILL_AREA_STYLE_COLOUR('',#41);
#123=FILL_AREA_STYLE_COLOUR('',#41);
#124=DRAUGHTING_PRE_DEFINED_COLOUR('yellow');
#125=MANIFOLD_SOLID_BREP('',#127);
#126=MANIFOLD_SOLID_BREP('',#128);
#127=CLOSED_SHELL('',(#129,#130));
#128=CLOSED_SHELL('',(#131,#132,#133,#134,#135,#136,#137,#138,#139));
#129=ADVANCED_FACE('',(#142,#143),#140,.F.);
#130=ADVANCED_FACE('',(#144,#145),#141,.F.);
#131=ADVANCED_FACE('',(#146,#147),#53,.T.);
#132=ADVANCED_FACE('',(#148,#149),#49,.T.);
#133=ADVANCED_FACE('',(#48),#47,.F.);
#134=ADVANCED_FACE('',(#150,#151),#50,.T.);
#135=ADVANCED_FACE('',(#152,#153),#45,.F.);
#136=ADVANCED_FACE('',(#154,#155),#42,.T.);
#137=ADVANCED_FACE('',(#156,#157),#54,.T.);
#138=ADVANCED_FACE('',(#158,#159),#51,.T.);
#139=ADVANCED_FACE('',(#160,#161),#52,.F.);
#140=(
BOUNDED_SURFACE()
B_SPLINE_SURFACE(3,3,((#296,#297,#298,#299,#300,#301,#302),(#303,#304,#305,
#306,#307,#308,#309),(#310,#311,#312,#313,#314,#315,#316),(#317,#318,#319,
#320,#321,#322,#323),(#324,#325,#326,#327,#328,#329,#330),(#331,#332,#333,
#334,#335,#336,#337),(#338,#339,#340,#341,#342,#343,#344)),
 .UNSPECIFIED.,.T.,.F.,.F.)
B_SPLINE_SURFACE_WITH_KNOTS((1,3,3,3,1),(4,3,4),(-0.5,0.,0.5,1.,1.5),(0.,
0.5,1.),.UNSPECIFIED.)
GEOMETRIC_REPRESENTATION_ITEM()
RATIONAL_B_SPLINE_SURFACE(((1.,0.59730618443442,0.59730618443442,1.,0.59730618443442,
0.59730618443442,1.),(0.333333333333334,0.19910206147814,0.19910206147814,
0.333333333333334,0.19910206147814,0.19910206147814,0.333333333333334),
(0.333333333333334,0.19910206147814,0.19910206147814,0.333333333333334,
0.19910206147814,0.19910206147814,0.333333333333334),(1.,0.59730618443442,
0.59730618443442,1.,0.59730618443442,0.59730618443442,1.),(0.333333333333334,
0.19910206147814,0.19910206147814,0.333333333333334,0.19910206147814,0.19910206147814,
0.333333333333334),(0.333333333333334,0.19910206147814,0.19910206147814,
0.333333333333334,0.19910206147814,0.19910206147814,0.333333333333334),
(1.,0.59730618443442,0.59730618443442,1.,0.59730618443442,0.59730618443442,
1.)))
REPRESENTATION_ITEM('')
SURFACE()
);
#141=(
BOUNDED_SURFACE()
B_SPLINE_SURFACE(3,3,((#345,#346,#347,#348),(#349,#350,#351,#352),(#353,
#354,#355,#356),(#357,#358,#359,#360),(#361,#362,#363,#364),(#365,#366,
#367,#368),(#369,#370,#371,#372)),.UNSPECIFIED.,.T.,.F.,.F.)
B_SPLINE_SURFACE_WITH_KNOTS((1,3,3,3,1),(4,4),(-0.5,0.,0.5,1.,1.5),(0.,
1.),.UNSPECIFIED.)
GEOMETRIC_REPRESENTATION_ITEM()
RATIONAL_B_SPLINE_SURFACE(((1.,0.790955001644691,0.790955001644691,1.),
(0.333333333333334,0.263651667214897,0.263651667214897,0.333333333333334),
(0.333333333333334,0.263651667214897,0.263651667214897,0.333333333333334),
(1.,0.790955001644691,0.790955001644691,1.),(0.333333333333334,0.263651667214897,
0.263651667214897,0.333333333333334),(0.333333333333334,0.263651667214897,
0.263651667214897,0.333333333333334),(1.,0.790955001644691,0.790955001644691,
1.)))
REPRESENTATION_ITEM('')
SURFACE()
);
#142=FACE_BOUND('',#162,.T.);
#143=FACE_BOUND('',#163,.T.);
#144=FACE_BOUND('',#164,.T.);
#145=FACE_BOUND('',#165,.T.);
#146=FACE_BOUND('',#166,.T.);
#147=FACE_BOUND('',#167,.T.);
#148=FACE_BOUND('',#168,.T.);
#149=FACE_BOUND('',#169,.T.);
#150=FACE_BOUND('',#171,.T.);
#151=FACE_BOUND('',#172,.T.);
#152=FACE_BOUND('',#173,.T.);
#153=FACE_BOUND('',#46,.T.);
#154=FACE_BOUND('',#174,.T.);
#155=FACE_BOUND('',#175,.T.);
#156=FACE_BOUND('',#176,.T.);
#157=FACE_BOUND('',#177,.T.);
#158=FACE_BOUND('',#178,.T.);
#159=FACE_BOUND('',#179,.T.);
#160=FACE_BOUND('',#180,.T.);
#161=FACE_BOUND('',#181,.T.);
#162=EDGE_LOOP('',(#182));
#163=EDGE_LOOP('',(#183));
#164=EDGE_LOOP('',(#184));
#165=EDGE_LOOP('',(#185));
#166=EDGE_LOOP('',(#186));
#167=EDGE_LOOP('',(#187));
#168=EDGE_LOOP('',(#188));
#169=EDGE_LOOP('',(#189));
#170=EDGE_LOOP('',(#190));
#171=EDGE_LOOP('',(#191));
#172=EDGE_LOOP('',(#192));
#173=EDGE_LOOP('',(#193));
#174=EDGE_LOOP('',(#194));
#175=EDGE_LOOP('',(#195));
#176=EDGE_LOOP('',(#196));
#177=EDGE_LOOP('',(#197));
#178=EDGE_LOOP('',(#198));
#179=EDGE_LOOP('',(#199));
#180=EDGE_LOOP('',(#200));
#181=EDGE_LOOP('',(#201));
#182=ORIENTED_EDGE('',*,*,#213,.T.);
#183=ORIENTED_EDGE('',*,*,#214,.F.);
#184=ORIENTED_EDGE('',*,*,#214,.T.);
#185=ORIENTED_EDGE('',*,*,#213,.F.);
#186=ORIENTED_EDGE('',*,*,#215,.T.);
#187=ORIENTED_EDGE('',*,*,#216,.F.);
#188=ORIENTED_EDGE('',*,*,#217,.T.);
#189=ORIENTED_EDGE('',*,*,#215,.F.);
#190=ORIENTED_EDGE('',*,*,#217,.F.);
#191=ORIENTED_EDGE('',*,*,#218,.F.);
#192=ORIENTED_EDGE('',*,*,#216,.T.);
#193=ORIENTED_EDGE('',*,*,#219,.T.);
#194=ORIENTED_EDGE('',*,*,#219,.F.);
#195=ORIENTED_EDGE('',*,*,#220,.T.);
#196=ORIENTED_EDGE('',*,*,#220,.F.);
#197=ORIENTED_EDGE('',*,*,#221,.T.);
#198=ORIENTED_EDGE('',*,*,#221,.F.);
#199=ORIENTED_EDGE('',*,*,#222,.T.);
#200=ORIENTED_EDGE('',*,*,#222,.F.);
#201=ORIENTED_EDGE('',*,*,#218,.T.);
#202=VERTEX_POINT('',#293);
#203=VERTEX_POINT('',#295);
#204=VERTEX_POINT('',#374);
#205=VERTEX_POINT('',#376);
#206=VERTEX_POINT('',#379);
#207=VERTEX_POINT('',#383);
#208=VERTEX_POINT('',#386);
#209=VERTEX_POINT('',#387);
#210=VERTEX_POINT('',#390);
#211=VERTEX_POINT('',#459);
#212=VERTEX_POINT('',#462);
#213=EDGE_CURVE('',#202,#202,#223,.T.);
#214=EDGE_CURVE('',#203,#203,#224,.T.);
#215=EDGE_CURVE('',#204,#204,#225,.T.);
#216=EDGE_CURVE('',#205,#205,#226,.T.);
#217=EDGE_CURVE('',#206,#206,#227,.T.);
#218=EDGE_CURVE('',#207,#207,#228,.T.);
#219=EDGE_CURVE('',#208,#208,#229,.T.);
#220=EDGE_CURVE('',#210,#210,#230,.T.);
#221=EDGE_CURVE('',#211,#211,#231,.T.);
#222=EDGE_CURVE('',#212,#212,#232,.T.);
#223=CIRCLE('',#234,6.);
#224=CIRCLE('',#235,6.);
#225=CIRCLE('',#236,21.);
#226=CIRCLE('',#237,21.);
#227=CIRCLE('',#239,19.5);
#228=CIRCLE('',#242,20.9545454545454);
#229=CIRCLE('',#244,16.049392054018);
#230=CIRCLE('',#246,24.);
#231=CIRCLE('',#247,24.);
#232=CIRCLE('',#249,23.6818181818182);
#233=AXIS2_PLACEMENT_3D('',#291,#252,#253);
#234=AXIS2_PLACEMENT_3D('',#292,#254,#255);
#235=AXIS2_PLACEMENT_3D('',#294,#256,#257);
#236=AXIS2_PLACEMENT_3D('',#373,#258,#259);
#237=AXIS2_PLACEMENT_3D('',#375,#260,#261);
#238=AXIS2_PLACEMENT_3D('',#377,#262,#263);
#239=AXIS2_PLACEMENT_3D('',#378,#264,#265);
#240=AXIS2_PLACEMENT_3D('',#380,#266,#267);
#241=AXIS2_PLACEMENT_3D('',#381,#268,#269);
#242=AXIS2_PLACEMENT_3D('',#382,#270,#271);
#243=AXIS2_PLACEMENT_3D('',#384,#272,#273);
#244=AXIS2_PLACEMENT_3D('',#385,#274,#275);
#245=AXIS2_PLACEMENT_3D('',#388,#276,#277);
#246=AXIS2_PLACEMENT_3D('',#389,#278,#279);
#247=AXIS2_PLACEMENT_3D('',#458,#281,#282);
#248=AXIS2_PLACEMENT_3D('',#460,#283,#284);
#249=AXIS2_PLACEMENT_3D('',#461,#285,#286);
#250=AXIS2_PLACEMENT_3D('',#463,#287,#288);
#251=AXIS2_PLACEMENT_3D('',#464,#289,#290);
#252=DIRECTION('',(0.,0.,1.));
#253=DIRECTION('',(1.,0.,0.));
#254=DIRECTION('',(0.121869343405147,0.992110966511952,0.0293886587771395));
#255=DIRECTION('',(0.992489739031157,-0.122124668415747,0.00704863690433738));
#256=DIRECTION('',(0.121869343405147,-0.0865060970576294,0.988769213876451));
#257=DIRECTION('',(0.992489739031157,0.,-0.122327911442424));
#258=DIRECTION('',(-1.,0.,0.));
#259=DIRECTION('',(0.,0.,1.));
#260=DIRECTION('',(-1.,0.,0.));
#261=DIRECTION('',(0.,0.,1.));
#262=DIRECTION('',(-1.,0.,0.));
#263=DIRECTION('',(0.,0.,1.));
#264=DIRECTION('',(-1.,0.,0.));
#265=DIRECTION('',(0.,0.,1.));
#266=DIRECTION('',(-1.,0.,0.));
#267=DIRECTION('',(0.,0.,1.));
#268=DIRECTION('',(-1.,0.,0.));
#269=DIRECTION('',(0.,0.,1.));
#270=DIRECTION('',(-1.,0.,0.));
#271=DIRECTION('',(0.,0.,1.));
#272=DIRECTION('',(-1.,0.,0.));
#273=DIRECTION('',(0.,0.,1.));
#274=DIRECTION('',(-1.,0.,0.));
#275=DIRECTION('',(0.,0.,1.));
#276=DIRECTION('',(-1.,0.,0.));
#277=DIRECTION('',(1.26120466914855E-17,0.,1.));
#278=DIRECTION('',(-1.,0.,0.));
#279=DIRECTION('',(0.,0.,1.));
#280=DIRECTION('',(-1.,0.,0.));
#281=DIRECTION('',(-1.,0.,0.));
#282=DIRECTION('',(0.,0.,1.));
#283=DIRECTION('',(-1.,0.,0.));
#284=DIRECTION('',(0.,0.,1.));
#285=DIRECTION('',(-1.,0.,0.));
#286=DIRECTION('',(0.,0.,1.));
#287=DIRECTION('',(-1.,0.,0.));
#288=DIRECTION('',(0.,0.,1.));
#289=DIRECTION('',(-1.,0.,0.));
#290=DIRECTION('',(0.,0.,1.));
#291=CARTESIAN_POINT('',(0.,0.,0.));
#292=CARTESIAN_POINT('',(5.95527690984794,0.42477000209498,20.0014064995577));
#293=CARTESIAN_POINT('',(11.9102153440349,-0.307978008399505,20.0436983209837));
#294=CARTESIAN_POINT('',(5.95527690984794,-19.9926505511442,-0.728433562560782));
#295=CARTESIAN_POINT('',(11.9102153440349,-19.9926505511442,-1.46240103121532));
#296=CARTESIAN_POINT('',(11.9102153440349,-19.9926505511442,-1.46240103121532));
#297=CARTESIAN_POINT('',(11.9102153440349,-18.4938366990351,-21.9528553914181));
#298=CARTESIAN_POINT('',(11.9102153440349,0.91536256026804,-28.6899279725542));
#299=CARTESIAN_POINT('',(11.9102153440349,14.787053706361,-13.5346863843038));
#300=CARTESIAN_POINT('',(11.9102153440349,28.6587448524539,1.62055520394657));
#301=CARTESIAN_POINT('',(11.9102153440349,20.2347951774344,20.3593447786114));
#302=CARTESIAN_POINT('',(11.9102153440349,-0.307978008399499,20.0436983209838));
#303=CARTESIAN_POINT('',(12.037200666196,-8.03763469566541,-0.432124066895357));
#304=CARTESIAN_POINT('',(12.037200666196,-7.59475102458771,-8.6698905638489));
#305=CARTESIAN_POINT('',(12.037200666196,0.145090828513814,-11.5250246926448));
#306=CARTESIAN_POINT('',(12.037200666196,5.83153152054028,-5.54829188445415));
#307=CARTESIAN_POINT('',(12.037200666196,11.5179722125668,0.428440923736527));
#308=CARTESIAN_POINT('',(12.037200666196,8.28132824573964,8.01666065147497));
#309=CARTESIAN_POINT('',(12.037200666196,0.0317291459456898,8.04917983222217));
#310=CARTESIAN_POINT('',(0.127323797822133,-8.03763469566541,1.03581087041373));
#311=CARTESIAN_POINT('',(0.127323797822133,-9.09923657340142,-7.2019556265398));
#312=CARTESIAN_POINT('',(0.127323797822133,-1.95510972994101,-11.4386107989242));
#313=CARTESIAN_POINT('',(0.127323797822133,4.76405874228315,-6.55593013693002));
#314=CARTESIAN_POINT('',(0.127323797822133,11.4832272145073,-1.67324947493588));
#315=CARTESIAN_POINT('',(0.127323797822133,9.66013454697153,6.43009110353667));
#316=CARTESIAN_POINT('',(0.127323797822133,1.49722516693466,7.96459618937013));
#317=CARTESIAN_POINT('',(0.000338475660987061,-19.9926505511442,0.00553390609376095));
#318=CARTESIAN_POINT('',(0.000338475660987061,-19.9983222478488,-20.484920454109));
#319=CARTESIAN_POINT('',(0.000338475660987061,-1.18483799818679,-28.6035140788336));
#320=CARTESIAN_POINT('',(0.000338475660987061,13.7195809281038,-14.5423246367797));
#321=CARTESIAN_POINT('',(0.000338475660987061,28.6239998543945,-0.48113519472584));
#322=CARTESIAN_POINT('',(0.000338475660987061,21.6136014786663,18.7727752306731));
#323=CARTESIAN_POINT('',(0.000338475660987061,1.15751801258947,19.9591146781317));
#324=CARTESIAN_POINT('',(-0.126646846500159,-31.9476664066229,-1.02474305822621));
#325=CARTESIAN_POINT('',(-0.126646846500159,-30.8974079222961,-33.7678852816783));
#326=CARTESIAN_POINT('',(-0.126646846500159,-0.414566266432562,-45.768417358743));
#327=CARTESIAN_POINT('',(-0.126646846500159,22.6751031139245,-22.5287191366294));
#328=CARTESIAN_POINT('',(-0.126646846500159,45.7647724942816,0.710979085484203));
#329=CARTESIAN_POINT('',(-0.126646846500159,33.567068410361,31.1154593578095));
#330=CARTESIAN_POINT('',(-0.126646846500159,0.817810858244286,31.9536331668932));
#331=CARTESIAN_POINT('',(11.7832300218737,-31.9476664066229,-2.49267799553529));
#332=CARTESIAN_POINT('',(11.7832300218737,-29.3929223734824,-35.2358202189874));
#333=CARTESIAN_POINT('',(11.7832300218737,1.68563429202227,-45.8548312524637));
#334=CARTESIAN_POINT('',(11.7832300218737,23.7425758921817,-21.5210808841535));
#335=CARTESIAN_POINT('',(11.7832300218737,45.7995174923411,2.81266948415662));
#336=CARTESIAN_POINT('',(11.7832300218737,32.1882621091291,32.7020289057478));
#337=CARTESIAN_POINT('',(11.7832300218737,-0.647685162744688,32.0382168097452));
#338=CARTESIAN_POINT('',(11.9102153440349,-19.9926505511442,-1.46240103121532));
#339=CARTESIAN_POINT('',(11.9102153440349,-18.4938366990351,-21.9528553914181));
#340=CARTESIAN_POINT('',(11.9102153440349,0.91536256026804,-28.6899279725542));
#341=CARTESIAN_POINT('',(11.9102153440349,14.787053706361,-13.5346863843038));
#342=CARTESIAN_POINT('',(11.9102153440349,28.6587448524539,1.62055520394657));
#343=CARTESIAN_POINT('',(11.9102153440349,20.2347951774344,20.3593447786114));
#344=CARTESIAN_POINT('',(11.9102153440349,-0.307978008399499,20.0436983209838));
#345=CARTESIAN_POINT('',(11.9102153440349,-0.307978008399506,20.0436983209838));
#346=CARTESIAN_POINT('',(11.9102153440349,-12.5932513476264,19.8549310608171));
#347=CARTESIAN_POINT('',(11.9102153440349,-20.8889919404595,10.7915838803075));
#348=CARTESIAN_POINT('',(11.9102153440349,-19.9926505511442,-1.46240103121532));
#349=CARTESIAN_POINT('',(12.037200666196,0.0317291459456868,8.04917983222217));
#350=CARTESIAN_POINT('',(12.037200666196,-4.90181020452027,8.06862740245201));
#351=CARTESIAN_POINT('',(12.037200666196,-8.30249411398493,4.49433898676813));
#352=CARTESIAN_POINT('',(12.037200666196,-8.03763469566541,-0.432124066895358));
#353=CARTESIAN_POINT('',(0.127323797822133,1.49722516693466,7.96459618937013));
#354=CARTESIAN_POINT('',(0.127323797822133,-3.38447079835238,8.88228214390804));
#355=CARTESIAN_POINT('',(0.127323797822133,-7.40276085816343,5.96227392407722));
#356=CARTESIAN_POINT('',(0.127323797822133,-8.03763469566541,1.03581087041373));
#357=CARTESIAN_POINT('',(0.000338475660987061,1.15751801258946,19.9591146781317));
#358=CARTESIAN_POINT('',(0.000338475660987061,-11.0759119414585,20.6685858022731));
#359=CARTESIAN_POINT('',(0.000338475660987061,-19.9892586846379,12.2595188176166));
#360=CARTESIAN_POINT('',(0.000338475660987061,-19.9926505511442,0.00553390609376041));
#361=CARTESIAN_POINT('',(-0.126646846500159,0.817810858244272,31.9536331668932));
#362=CARTESIAN_POINT('',(-0.126646846500159,-18.7673530845646,32.4548894606382));
#363=CARTESIAN_POINT('',(-0.126646846500159,-32.5757565111124,18.556763711156));
#364=CARTESIAN_POINT('',(-0.126646846500159,-31.9476664066228,-1.02474305822621));
#365=CARTESIAN_POINT('',(11.7832300218737,-0.647685162744699,32.0382168097452));
#366=CARTESIAN_POINT('',(11.7832300218737,-20.2846924907325,31.6412347191822));
#367=CARTESIAN_POINT('',(11.7832300218737,-33.4754897669339,17.0888287738469));
#368=CARTESIAN_POINT('',(11.7832300218737,-31.9476664066228,-2.49267799553529));
#369=CARTESIAN_POINT('',(11.9102153440349,-0.307978008399506,20.0436983209838));
#370=CARTESIAN_POINT('',(11.9102153440349,-12.5932513476264,19.8549310608171));
#371=CARTESIAN_POINT('',(11.9102153440349,-20.8889919404595,10.7915838803075));
#372=CARTESIAN_POINT('',(11.9102153440349,-19.9926505511442,-1.46240103121532));
#373=CARTESIAN_POINT('',(48.5,0.,0.));
#374=CARTESIAN_POINT('',(48.5,0.,21.));
#375=CARTESIAN_POINT('',(42.,0.,0.));
#376=CARTESIAN_POINT('',(42.,0.,21.));
#377=CARTESIAN_POINT('',(0.,0.,0.));
#378=CARTESIAN_POINT('',(50.,0.,0.));
#379=CARTESIAN_POINT('',(50.,0.,19.5));
#380=CARTESIAN_POINT('',(48.5,0.,0.));
#381=CARTESIAN_POINT('',(50.,12.,0.));
#382=CARTESIAN_POINT('',(41.3273341551387,0.,0.));
#383=CARTESIAN_POINT('',(41.3273341551387,0.,20.9545454545454));
#384=CARTESIAN_POINT('',(42.,0.,0.));
#385=CARTESIAN_POINT('',(2.99999999992879,0.,0.));
#386=CARTESIAN_POINT('',(2.99999999992879,0.,16.049392054018));
#387=CARTESIAN_POINT('',(7.3004216399634,0.,0.));
#388=CARTESIAN_POINT('',(2.99999999992879,0.,0.));
#389=CARTESIAN_POINT('',(8.44897769512609,0.,0.));
#390=CARTESIAN_POINT('',(8.44897769512609,0.,24.));
#391=CARTESIAN_POINT('',(0.668162059296902,20.3812796697229,0.));
#392=CARTESIAN_POINT('',(0.678281924811834,19.4316533344713,0.));
#393=CARTESIAN_POINT('',(0.811739412474589,18.8041995140001,0.));
#394=CARTESIAN_POINT('',(1.18363328953443,17.9437534505176,0.));
#395=CARTESIAN_POINT('',(1.33864860070655,17.6653471273812,0.));
#396=CARTESIAN_POINT('',(1.69806423224517,17.1510166610482,0.));
#397=CARTESIAN_POINT('',(1.90174779440235,16.914447790349,0.));
#398=CARTESIAN_POINT('',(2.3573546382372,16.4827503750409,0.));
#399=CARTESIAN_POINT('',(2.60982180788624,16.2884519558266,0.));
#400=CARTESIAN_POINT('',(3.14055831645629,15.9596477468664,0.));
#401=CARTESIAN_POINT('',(3.42142479815497,15.8223890893467,0.));
#402=CARTESIAN_POINT('',(4.01508999018402,15.6037975735012,0.));
#403=CARTESIAN_POINT('',(4.31874308834884,15.5259631075195,0.));
#404=CARTESIAN_POINT('',(4.93516886419249,15.4306161190557,0.));
#405=CARTESIAN_POINT('',(5.25169899478984,15.413104327869,0.));
#406=CARTESIAN_POINT('',(5.88026061702543,15.4400338567747,0.));
#407=CARTESIAN_POINT('',(6.1892553860248,15.4836511694978,0.));
#408=CARTESIAN_POINT('',(6.79704242472101,15.6290827116175,0.));
#409=CARTESIAN_POINT('',(7.09863234828272,15.7325374243432,0.));
#410=CARTESIAN_POINT('',(7.66916171443004,15.9911693669933,0.));
#411=CARTESIAN_POINT('',(7.93999996690269,16.1461819670775,0.));
#412=CARTESIAN_POINT('',(8.4527244032342,16.507777134867,0.));
#413=CARTESIAN_POINT('',(8.69423827343441,16.715126206658,0.));
#414=CARTESIAN_POINT('',(9.12758951161647,17.1652757829446,0.));
#415=CARTESIAN_POINT('',(9.32232856408105,17.4098698225893,0.));
#416=CARTESIAN_POINT('',(9.66600374609758,17.9398135400352,0.));
#417=CARTESIAN_POINT('',(9.81070127425646,18.219110926332,0.));
#418=CARTESIAN_POINT('',(10.0433010787747,18.7987066685954,0.));
#419=CARTESIAN_POINT('',(10.132425621502,19.1032460187326,0.));
#420=CARTESIAN_POINT('',(10.2482553899932,19.7214932040534,0.));
#421=CARTESIAN_POINT('',(10.2751998934764,20.0326132147304,0.));
#422=CARTESIAN_POINT('',(10.2673563884736,20.6588326478992,0.));
#423=CARTESIAN_POINT('',(10.2315085724623,20.9759784458285,0.));
#424=CARTESIAN_POINT('',(10.0993487878536,21.5872181662489,0.));
#425=CARTESIAN_POINT('',(10.0034096622157,21.8845386107403,0.));
#426=CARTESIAN_POINT('',(9.75010333667306,22.4621054804592,0.));
#427=CARTESIAN_POINT('',(9.59459323220256,22.7369087218781,0.));
#428=CARTESIAN_POINT('',(9.23471417621062,23.2468970028047,0.));
#429=CARTESIAN_POINT('',(9.0272989621667,23.4861426615459,0.));
#430=CARTESIAN_POINT('',(8.56881639181552,23.9178618038229,0.));
#431=CARTESIAN_POINT('',(8.32117228977517,24.107981101235,0.));
#432=CARTESIAN_POINT('',(7.79002467294023,24.4380626409332,0.));
#433=CARTESIAN_POINT('',(7.50345198401077,24.5786879394166,0.));
#434=CARTESIAN_POINT('',(6.91702504062327,24.7972882587414,0.));
#435=CARTESIAN_POINT('',(6.61534520974739,24.8770611394185,0.));
#436=CARTESIAN_POINT('',(6.1500570032936,24.9521891717591,0.));
#437=CARTESIAN_POINT('',(5.9920863348939,24.9697413847896,0.));
#438=CARTESIAN_POINT('',(5.67832565407318,24.9890171889828,0.));
#439=CARTESIAN_POINT('',(5.52192626971173,24.9909097081176,0.));
#440=CARTESIAN_POINT('',(5.05413491143285,24.9739320467298,0.));
#441=CARTESIAN_POINT('',(4.7441362072795,24.932624456559,0.));
#442=CARTESIAN_POINT('',(4.12799803614499,24.7878595851855,0.));
#443=CARTESIAN_POINT('',(3.83183558260197,24.6867195145143,0.));
#444=CARTESIAN_POINT('',(3.26303819081152,24.4298634002936,0.));
#445=CARTESIAN_POINT('',(2.98770218329668,24.2721709995875,0.));
#446=CARTESIAN_POINT('',(2.47490319957105,23.9082853015932,0.));
#447=CARTESIAN_POINT('',(2.23890496202601,23.7039995586905,0.));
#448=CARTESIAN_POINT('',(1.80700757952342,23.2515126470276,0.));
#449=CARTESIAN_POINT('',(1.60993135452237,23.0006770232626,0.));
#450=CARTESIAN_POINT('',(1.27238794954088,22.4735948113985,0.));
#451=CARTESIAN_POINT('',(1.12983702559598,22.1958930100438,0.));
#452=CARTESIAN_POINT('',(0.898014309109692,21.611715679244,0.));
#453=CARTESIAN_POINT('',(0.810069748477451,21.3065453789965,0.));
#454=CARTESIAN_POINT('',(0.695818067782266,20.6928497019063,0.));
#455=CARTESIAN_POINT('',(0.668162059296902,20.3812796697229,0.));
#456=CARTESIAN_POINT('',(0.678281924811834,19.4316533344713,0.));
#457=CARTESIAN_POINT('',(0.,0.,0.));
#458=CARTESIAN_POINT('',(15.2939411302178,0.,0.));
#459=CARTESIAN_POINT('',(15.2939411302178,0.,24.));
#460=CARTESIAN_POINT('',(0.,0.,0.));
#461=CARTESIAN_POINT('',(17.0490988189731,0.,0.));
#462=CARTESIAN_POINT('',(17.0490988189731,0.,23.6818181818182));
#463=CARTESIAN_POINT('',(15.2939411302179,0.,0.));
#464=CARTESIAN_POINT('',(34.6006757065257,0.,0.));
#465=(
GEOMETRIC_REPRESENTATION_CONTEXT(3)
GLOBAL_UNCERTAINTY_ASSIGNED_CONTEXT((#466))
GLOBAL_UNIT_ASSIGNED_CONTEXT((#472,#468,#467))
REPRESENTATION_CONTEXT('model1','TOP_LEVEL_ASSEMBLY_PART')
);
#466=UNCERTAINTY_MEASURE_WITH_UNIT(LENGTH_MEASURE(2.E-5),#472,
'DISTANCE_ACCURACY_VALUE','Maximum Tolerance applied to model');
#467=(
NAMED_UNIT(*)
SI_UNIT($,.STERADIAN.)
SOLID_ANGLE_UNIT()
);
#468=(
CONVERSION_BASED_UNIT('DEGREE',#470)
NAMED_UNIT(#469)
PLANE_ANGLE_UNIT()
);
#469=DIMENSIONAL_EXPONENTS(0.,0.,0.,0.,0.,0.,0.);
#470=PLANE_ANGLE_MEASURE_WITH_UNIT(PLANE_ANGLE_MEASURE(0.0174532925),#471);
#471=(
NAMED_UNIT(*)
PLANE_ANGLE_UNIT()
SI_UNIT($,.RADIAN.)
);
#472=(
LENGTH_UNIT()
NAMED_UNIT(*)
SI_UNIT(.MILLI.,.METRE.)
);
ENDSEC;
END-ISO-10303-21;
