ISO-10303-21;
HEADER;
/* Generated by software containing ST-Developer
 * from STEP Tools, Inc. (www.steptools.com) 
 */
/* OPTION: using custom schema-name function */

FILE_DESCRIPTION(
/* description */ (''),
/* implementation_level */ '2;1');

FILE_NAME(
/* name */ 'model1.stp',
/* time_stamp */ '2023-11-06T16:10:19+03:00',
/* author */ (''),
/* organization */ (''),
/* preprocessor_version */ 'ST-DEVELOPER v19.4',
/* originating_system */ 'SIEMENS PLM Software NX2306.3001',
/* authorisation */ '');

FILE_SCHEMA (('AUTOMOTIVE_DESIGN { 1 0 10303 214 3 1 1 1 }'));
ENDSEC;

DATA;
#10=PROPERTY_DEFINITION_REPRESENTATION(#14,#12);
#11=PROPERTY_DEFINITION_REPRESENTATION(#15,#13);
#12=REPRESENTATION('',(#16),#519);
#13=REPRESENTATION('',(#17),#519);
#14=PROPERTY_DEFINITION('pmi validation property','',#21);
#15=PROPERTY_DEFINITION('pmi validation property','',#21);
#16=VALUE_REPRESENTATION_ITEM('number of annotations',COUNT_MEASURE(0.));
#17=VALUE_REPRESENTATION_ITEM('number of views',COUNT_MEASURE(0.));
#18=SHAPE_REPRESENTATION_RELATIONSHIP('None',
'relationship between model1_objects-None and model1_objects-None',#30,
#19);
#19=ADVANCED_BREP_SHAPE_REPRESENTATION('model1_objects-None',(#141,#142),
#519);
#20=SHAPE_DEFINITION_REPRESENTATION(#21,#30);
#21=PRODUCT_DEFINITION_SHAPE('','',#22);
#22=PRODUCT_DEFINITION(' ','',#24,#23);
#23=PRODUCT_DEFINITION_CONTEXT('part definition',#29,'design');
#24=PRODUCT_DEFINITION_FORMATION_WITH_SPECIFIED_SOURCE(' ',' ',#26,
 .NOT_KNOWN.);
#25=PRODUCT_RELATED_PRODUCT_CATEGORY('part','',(#26));
#26=PRODUCT('model1_objects','model1_objects',' ',(#27));
#27=PRODUCT_CONTEXT(' ',#29,'mechanical');
#28=APPLICATION_PROTOCOL_DEFINITION('international standard',
'automotive_design',2010,#29);
#29=APPLICATION_CONTEXT(
'core data for automotive mechanical design processes');
#30=SHAPE_REPRESENTATION('model1_objects-None',(#269),#519);
#31=OVER_RIDING_STYLED_ITEM('',(#64),#147,#61);
#32=OVER_RIDING_STYLED_ITEM('',(#65),#148,#61);
#33=OVER_RIDING_STYLED_ITEM('',(#66),#149,#61);
#34=OVER_RIDING_STYLED_ITEM('',(#67),#150,#61);
#35=OVER_RIDING_STYLED_ITEM('',(#68),#151,#61);
#36=OVER_RIDING_STYLED_ITEM('',(#69),#152,#61);
#37=OVER_RIDING_STYLED_ITEM('',(#70),#153,#61);
#38=OVER_RIDING_STYLED_ITEM('',(#71),#154,#61);
#39=OVER_RIDING_STYLED_ITEM('',(#72),#155,#61);
#40=OVER_RIDING_STYLED_ITEM('',(#73),#156,#61);
#41=OVER_RIDING_STYLED_ITEM('',(#74),#157,#61);
#42=COLOUR_RGB('Medium Steel',0.611764705882353,0.658823529411765,0.670588235294118);
#43=COLOUR_RGB('silver gray',0.6,0.6,0.6);
#44=VERTEX_LOOP('',#244);
#45=SURFACE_OF_REVOLUTION('',#47,#46);
#46=AXIS1_PLACEMENT('',#516,#336);
#47=B_SPLINE_CURVE_WITH_KNOTS('',3,(#450,#451,#452,#453,#454,#455,#456,
#457,#458,#459,#460,#461,#462,#463,#464,#465,#466,#467,#468,#469,#470,#471,
#472,#473,#474,#475,#476,#477,#478,#479,#480,#481,#482,#483,#484,#485,#486,
#487,#488,#489,#490,#491,#492,#493,#494,#495,#496,#497,#498,#499,#500,#501,
#502,#503,#504,#505,#506,#507,#508,#509,#510,#511,#512,#513,#514,#515),
 .UNSPECIFIED.,.T.,.F.,(2,2,2,2,2,2,2,2,2,2,2,2,2,2,2,2,2,2,2,2,2,2,2,2,
2,2,2,2,2,2,2,2,2,2,2),(-0.03125,0.,0.03125,0.0625,0.09375,0.125,0.15625,
0.1875,0.21875,0.25,0.28125,0.3125,0.34375,0.375,0.40625,0.4375,0.46875,
0.5,0.53125,0.5625,0.59375,0.625,0.65625,0.6875,0.71875,0.75,0.78125,0.8125,
0.84375,0.875,0.90625,0.9375,0.96875,1.,1.03125),.UNSPECIFIED.);
#48=CONICAL_SURFACE('',#279,40.,29.9999999999995);
#49=CONICAL_SURFACE('',#285,44.4791111376204,40.0000000000001);
#50=CONICAL_SURFACE('',#291,52.0714359248066,75.0000000000002);
#51=CYLINDRICAL_SURFACE('',#277,40.);
#52=CYLINDRICAL_SURFACE('',#281,39.8);
#53=CYLINDRICAL_SURFACE('',#289,60.5);
#54=TOROIDAL_SURFACE('',#275,38.,2.);
#55=TOROIDAL_SURFACE('',#283,59.8,20.);
#56=TOROIDAL_SURFACE('',#287,55.5,5.);
#57=PLANE('',#273);
#58=FACE_OUTER_BOUND('',#188,.T.);
#59=PRESENTATION_LAYER_ASSIGNMENT('1','Layer 1',(#141,#142));
#60=STYLED_ITEM('',(#62),#141);
#61=STYLED_ITEM('',(#63),#142);
#62=PRESENTATION_STYLE_ASSIGNMENT((#75));
#63=PRESENTATION_STYLE_ASSIGNMENT((#76));
#64=PRESENTATION_STYLE_ASSIGNMENT((#77));
#65=PRESENTATION_STYLE_ASSIGNMENT((#78));
#66=PRESENTATION_STYLE_ASSIGNMENT((#79));
#67=PRESENTATION_STYLE_ASSIGNMENT((#80));
#68=PRESENTATION_STYLE_ASSIGNMENT((#81));
#69=PRESENTATION_STYLE_ASSIGNMENT((#82));
#70=PRESENTATION_STYLE_ASSIGNMENT((#83));
#71=PRESENTATION_STYLE_ASSIGNMENT((#84));
#72=PRESENTATION_STYLE_ASSIGNMENT((#85));
#73=PRESENTATION_STYLE_ASSIGNMENT((#86));
#74=PRESENTATION_STYLE_ASSIGNMENT((#87));
#75=SURFACE_STYLE_USAGE(.BOTH.,#88);
#76=SURFACE_STYLE_USAGE(.BOTH.,#89);
#77=SURFACE_STYLE_USAGE(.BOTH.,#90);
#78=SURFACE_STYLE_USAGE(.BOTH.,#91);
#79=SURFACE_STYLE_USAGE(.BOTH.,#92);
#80=SURFACE_STYLE_USAGE(.BOTH.,#93);
#81=SURFACE_STYLE_USAGE(.BOTH.,#94);
#82=SURFACE_STYLE_USAGE(.BOTH.,#95);
#83=SURFACE_STYLE_USAGE(.BOTH.,#96);
#84=SURFACE_STYLE_USAGE(.BOTH.,#97);
#85=SURFACE_STYLE_USAGE(.BOTH.,#98);
#86=SURFACE_STYLE_USAGE(.BOTH.,#99);
#87=SURFACE_STYLE_USAGE(.BOTH.,#100);
#88=SURFACE_SIDE_STYLE('',(#101));
#89=SURFACE_SIDE_STYLE('',(#102));
#90=SURFACE_SIDE_STYLE('',(#103));
#91=SURFACE_SIDE_STYLE('',(#104));
#92=SURFACE_SIDE_STYLE('',(#105));
#93=SURFACE_SIDE_STYLE('',(#106));
#94=SURFACE_SIDE_STYLE('',(#107));
#95=SURFACE_SIDE_STYLE('',(#108));
#96=SURFACE_SIDE_STYLE('',(#109));
#97=SURFACE_SIDE_STYLE('',(#110));
#98=SURFACE_SIDE_STYLE('',(#111));
#99=SURFACE_SIDE_STYLE('',(#112));
#100=SURFACE_SIDE_STYLE('',(#113));
#101=SURFACE_STYLE_FILL_AREA(#114);
#102=SURFACE_STYLE_FILL_AREA(#115);
#103=SURFACE_STYLE_FILL_AREA(#116);
#104=SURFACE_STYLE_FILL_AREA(#117);
#105=SURFACE_STYLE_FILL_AREA(#118);
#106=SURFACE_STYLE_FILL_AREA(#119);
#107=SURFACE_STYLE_FILL_AREA(#120);
#108=SURFACE_STYLE_FILL_AREA(#121);
#109=SURFACE_STYLE_FILL_AREA(#122);
#110=SURFACE_STYLE_FILL_AREA(#123);
#111=SURFACE_STYLE_FILL_AREA(#124);
#112=SURFACE_STYLE_FILL_AREA(#125);
#113=SURFACE_STYLE_FILL_AREA(#126);
#114=FILL_AREA_STYLE('',(#127));
#115=FILL_AREA_STYLE('',(#128));
#116=FILL_AREA_STYLE('',(#129));
#117=FILL_AREA_STYLE('',(#130));
#118=FILL_AREA_STYLE('',(#131));
#119=FILL_AREA_STYLE('',(#132));
#120=FILL_AREA_STYLE('',(#133));
#121=FILL_AREA_STYLE('',(#134));
#122=FILL_AREA_STYLE('',(#135));
#123=FILL_AREA_STYLE('',(#136));
#124=FILL_AREA_STYLE('',(#137));
#125=FILL_AREA_STYLE('',(#138));
#126=FILL_AREA_STYLE('',(#139));
#127=FILL_AREA_STYLE_COLOUR('',#140);
#128=FILL_AREA_STYLE_COLOUR('',#42);
#129=FILL_AREA_STYLE_COLOUR('',#43);
#130=FILL_AREA_STYLE_COLOUR('',#43);
#131=FILL_AREA_STYLE_COLOUR('',#43);
#132=FILL_AREA_STYLE_COLOUR('',#43);
#133=FILL_AREA_STYLE_COLOUR('',#43);
#134=FILL_AREA_STYLE_COLOUR('',#43);
#135=FILL_AREA_STYLE_COLOUR('',#43);
#136=FILL_AREA_STYLE_COLOUR('',#43);
#137=FILL_AREA_STYLE_COLOUR('',#43);
#138=FILL_AREA_STYLE_COLOUR('',#43);
#139=FILL_AREA_STYLE_COLOUR('',#43);
#140=DRAUGHTING_PRE_DEFINED_COLOUR('yellow');
#141=MANIFOLD_SOLID_BREP('',#143);
#142=MANIFOLD_SOLID_BREP('',#144);
#143=CLOSED_SHELL('',(#145,#146));
#144=CLOSED_SHELL('',(#147,#148,#149,#150,#151,#152,#153,#154,#155,#156,
#157));
#145=ADVANCED_FACE('',(#160,#161),#158,.F.);
#146=ADVANCED_FACE('',(#162,#163),#159,.F.);
#147=ADVANCED_FACE('',(#58),#57,.F.);
#148=ADVANCED_FACE('',(#164,#165),#54,.T.);
#149=ADVANCED_FACE('',(#166,#167),#51,.T.);
#150=ADVANCED_FACE('',(#168,#169),#48,.T.);
#151=ADVANCED_FACE('',(#170,#171),#52,.T.);
#152=ADVANCED_FACE('',(#172,#173),#55,.F.);
#153=ADVANCED_FACE('',(#174,#175),#49,.T.);
#154=ADVANCED_FACE('',(#176,#177),#56,.T.);
#155=ADVANCED_FACE('',(#178,#179),#53,.T.);
#156=ADVANCED_FACE('',(#180,#181),#45,.T.);
#157=ADVANCED_FACE('',(#182,#183),#50,.F.);
#158=(
BOUNDED_SURFACE()
B_SPLINE_SURFACE(3,3,((#344,#345,#346,#347,#348,#349,#350),(#351,#352,#353,
#354,#355,#356,#357),(#358,#359,#360,#361,#362,#363,#364),(#365,#366,#367,
#368,#369,#370,#371),(#372,#373,#374,#375,#376,#377,#378),(#379,#380,#381,
#382,#383,#384,#385),(#386,#387,#388,#389,#390,#391,#392)),
 .UNSPECIFIED.,.T.,.F.,.F.)
B_SPLINE_SURFACE_WITH_KNOTS((1,3,3,3,1),(4,3,4),(-0.5,0.,0.5,1.,1.5),(0.,
0.5,1.),.UNSPECIFIED.)
GEOMETRIC_REPRESENTATION_ITEM()
RATIONAL_B_SPLINE_SURFACE(((1.,0.591533590807863,0.591533590807863,1.,0.591533590807863,
0.591533590807863,1.),(0.333333333333334,0.197177863602621,0.197177863602621,
0.333333333333334,0.197177863602621,0.197177863602621,0.333333333333334),
(0.333333333333334,0.197177863602621,0.197177863602621,0.333333333333334,
0.197177863602621,0.197177863602621,0.333333333333334),(1.,0.591533590807863,
0.591533590807863,1.,0.591533590807863,0.591533590807863,1.),(0.333333333333334,
0.197177863602621,0.197177863602621,0.333333333333334,0.197177863602621,
0.197177863602621,0.333333333333334),(0.333333333333334,0.197177863602621,
0.197177863602621,0.333333333333334,0.197177863602621,0.197177863602621,
0.333333333333334),(1.,0.591533590807863,0.591533590807863,1.,0.591533590807863,
0.591533590807863,1.)))
REPRESENTATION_ITEM('')
SURFACE()
);
#159=(
BOUNDED_SURFACE()
B_SPLINE_SURFACE(3,3,((#393,#394,#395,#396),(#397,#398,#399,#400),(#401,
#402,#403,#404),(#405,#406,#407,#408),(#409,#410,#411,#412),(#413,#414,
#415,#416),(#417,#418,#419,#420)),.UNSPECIFIED.,.T.,.F.,.F.)
B_SPLINE_SURFACE_WITH_KNOTS((1,3,3,3,1),(4,4),(-0.5,0.,0.5,1.,1.5),(0.,
1.),.UNSPECIFIED.)
GEOMETRIC_REPRESENTATION_ITEM()
RATIONAL_B_SPLINE_SURFACE(((1.,0.799997881120259,0.799997881120259,1.),
(0.333333333333334,0.26666596037342,0.26666596037342,0.333333333333334),
(0.333333333333334,0.26666596037342,0.26666596037342,0.333333333333334),
(1.,0.799997881120259,0.799997881120259,1.),(0.333333333333334,0.26666596037342,
0.26666596037342,0.333333333333334),(0.333333333333334,0.26666596037342,
0.26666596037342,0.333333333333334),(1.,0.799997881120259,0.799997881120259,
1.)))
REPRESENTATION_ITEM('')
SURFACE()
);
#160=FACE_BOUND('',#184,.T.);
#161=FACE_BOUND('',#185,.T.);
#162=FACE_BOUND('',#186,.T.);
#163=FACE_BOUND('',#187,.T.);
#164=FACE_BOUND('',#189,.T.);
#165=FACE_BOUND('',#190,.T.);
#166=FACE_BOUND('',#191,.T.);
#167=FACE_BOUND('',#192,.T.);
#168=FACE_BOUND('',#193,.T.);
#169=FACE_BOUND('',#194,.T.);
#170=FACE_BOUND('',#195,.T.);
#171=FACE_BOUND('',#196,.T.);
#172=FACE_BOUND('',#197,.T.);
#173=FACE_BOUND('',#198,.T.);
#174=FACE_BOUND('',#199,.T.);
#175=FACE_BOUND('',#200,.T.);
#176=FACE_BOUND('',#201,.T.);
#177=FACE_BOUND('',#202,.T.);
#178=FACE_BOUND('',#203,.T.);
#179=FACE_BOUND('',#204,.T.);
#180=FACE_BOUND('',#205,.T.);
#181=FACE_BOUND('',#206,.T.);
#182=FACE_BOUND('',#207,.T.);
#183=FACE_BOUND('',#44,.T.);
#184=EDGE_LOOP('',(#208));
#185=EDGE_LOOP('',(#209));
#186=EDGE_LOOP('',(#210));
#187=EDGE_LOOP('',(#211));
#188=EDGE_LOOP('',(#212));
#189=EDGE_LOOP('',(#213));
#190=EDGE_LOOP('',(#214));
#191=EDGE_LOOP('',(#215));
#192=EDGE_LOOP('',(#216));
#193=EDGE_LOOP('',(#217));
#194=EDGE_LOOP('',(#218));
#195=EDGE_LOOP('',(#219));
#196=EDGE_LOOP('',(#220));
#197=EDGE_LOOP('',(#221));
#198=EDGE_LOOP('',(#222));
#199=EDGE_LOOP('',(#223));
#200=EDGE_LOOP('',(#224));
#201=EDGE_LOOP('',(#225));
#202=EDGE_LOOP('',(#226));
#203=EDGE_LOOP('',(#227));
#204=EDGE_LOOP('',(#228));
#205=EDGE_LOOP('',(#229));
#206=EDGE_LOOP('',(#230));
#207=EDGE_LOOP('',(#231));
#208=ORIENTED_EDGE('',*,*,#245,.T.);
#209=ORIENTED_EDGE('',*,*,#246,.F.);
#210=ORIENTED_EDGE('',*,*,#246,.T.);
#211=ORIENTED_EDGE('',*,*,#245,.F.);
#212=ORIENTED_EDGE('',*,*,#247,.F.);
#213=ORIENTED_EDGE('',*,*,#248,.F.);
#214=ORIENTED_EDGE('',*,*,#247,.T.);
#215=ORIENTED_EDGE('',*,*,#248,.T.);
#216=ORIENTED_EDGE('',*,*,#249,.F.);
#217=ORIENTED_EDGE('',*,*,#250,.F.);
#218=ORIENTED_EDGE('',*,*,#249,.T.);
#219=ORIENTED_EDGE('',*,*,#251,.F.);
#220=ORIENTED_EDGE('',*,*,#250,.T.);
#221=ORIENTED_EDGE('',*,*,#252,.F.);
#222=ORIENTED_EDGE('',*,*,#251,.T.);
#223=ORIENTED_EDGE('',*,*,#253,.F.);
#224=ORIENTED_EDGE('',*,*,#252,.T.);
#225=ORIENTED_EDGE('',*,*,#254,.F.);
#226=ORIENTED_EDGE('',*,*,#253,.T.);
#227=ORIENTED_EDGE('',*,*,#255,.F.);
#228=ORIENTED_EDGE('',*,*,#254,.T.);
#229=ORIENTED_EDGE('',*,*,#256,.F.);
#230=ORIENTED_EDGE('',*,*,#255,.T.);
#231=ORIENTED_EDGE('',*,*,#256,.T.);
#232=VERTEX_POINT('',#341);
#233=VERTEX_POINT('',#343);
#234=VERTEX_POINT('',#422);
#235=VERTEX_POINT('',#425);
#236=VERTEX_POINT('',#428);
#237=VERTEX_POINT('',#431);
#238=VERTEX_POINT('',#434);
#239=VERTEX_POINT('',#437);
#240=VERTEX_POINT('',#440);
#241=VERTEX_POINT('',#443);
#242=VERTEX_POINT('',#446);
#243=VERTEX_POINT('',#449);
#244=VERTEX_POINT('',#517);
#245=EDGE_CURVE('',#232,#232,#257,.T.);
#246=EDGE_CURVE('',#233,#233,#258,.T.);
#247=EDGE_CURVE('',#234,#234,#259,.T.);
#248=EDGE_CURVE('',#235,#235,#260,.T.);
#249=EDGE_CURVE('',#236,#236,#261,.T.);
#250=EDGE_CURVE('',#237,#237,#262,.T.);
#251=EDGE_CURVE('',#238,#238,#263,.T.);
#252=EDGE_CURVE('',#239,#239,#264,.T.);
#253=EDGE_CURVE('',#240,#240,#265,.T.);
#254=EDGE_CURVE('',#241,#241,#266,.T.);
#255=EDGE_CURVE('',#242,#242,#267,.T.);
#256=EDGE_CURVE('',#243,#243,#268,.T.);
#257=CIRCLE('',#270,6.);
#258=CIRCLE('',#271,6.);
#259=CIRCLE('',#272,38.);
#260=CIRCLE('',#274,40.);
#261=CIRCLE('',#276,40.);
#262=CIRCLE('',#278,39.8);
#263=CIRCLE('',#280,39.8);
#264=CIRCLE('',#282,44.4791111376204);
#265=CIRCLE('',#284,59.3302222155949);
#266=CIRCLE('',#286,60.5);
#267=CIRCLE('',#288,60.5);
#268=CIRCLE('',#290,52.0714359248066);
#269=AXIS2_PLACEMENT_3D('',#339,#292,#293);
#270=AXIS2_PLACEMENT_3D('',#340,#294,#295);
#271=AXIS2_PLACEMENT_3D('',#342,#296,#297);
#272=AXIS2_PLACEMENT_3D('',#421,#298,#299);
#273=AXIS2_PLACEMENT_3D('',#423,#300,#301);
#274=AXIS2_PLACEMENT_3D('',#424,#302,#303);
#275=AXIS2_PLACEMENT_3D('',#426,#304,#305);
#276=AXIS2_PLACEMENT_3D('',#427,#306,#307);
#277=AXIS2_PLACEMENT_3D('',#429,#308,#309);
#278=AXIS2_PLACEMENT_3D('',#430,#310,#311);
#279=AXIS2_PLACEMENT_3D('',#432,#312,#313);
#280=AXIS2_PLACEMENT_3D('',#433,#314,#315);
#281=AXIS2_PLACEMENT_3D('',#435,#316,#317);
#282=AXIS2_PLACEMENT_3D('',#436,#318,#319);
#283=AXIS2_PLACEMENT_3D('',#438,#320,#321);
#284=AXIS2_PLACEMENT_3D('',#439,#322,#323);
#285=AXIS2_PLACEMENT_3D('',#441,#324,#325);
#286=AXIS2_PLACEMENT_3D('',#442,#326,#327);
#287=AXIS2_PLACEMENT_3D('',#444,#328,#329);
#288=AXIS2_PLACEMENT_3D('',#445,#330,#331);
#289=AXIS2_PLACEMENT_3D('',#447,#332,#333);
#290=AXIS2_PLACEMENT_3D('',#448,#334,#335);
#291=AXIS2_PLACEMENT_3D('',#518,#337,#338);
#292=DIRECTION('',(0.,0.,1.));
#293=DIRECTION('',(1.,0.,0.));
#294=DIRECTION('',(0.121869343405147,0.99202684745636,0.0321029136340248));
#295=DIRECTION('',(0.992525908034916,-0.122009670306498,0.00244176804093874));
#296=DIRECTION('',(0.121869343405147,-0.0519458519614027,0.991185901636016));
#297=DIRECTION('',(0.992525908034916,0.,-0.122034101297409));
#298=DIRECTION('',(-1.,0.,0.));
#299=DIRECTION('',(0.,0.,1.));
#300=DIRECTION('',(-1.,0.,0.));
#301=DIRECTION('',(0.,0.,1.));
#302=DIRECTION('',(-1.,0.,0.));
#303=DIRECTION('',(0.,0.,1.));
#304=DIRECTION('',(-1.,0.,0.));
#305=DIRECTION('',(0.,0.,1.));
#306=DIRECTION('',(-1.,0.,0.));
#307=DIRECTION('',(0.,0.,1.));
#308=DIRECTION('',(-1.,0.,0.));
#309=DIRECTION('',(0.,0.,1.));
#310=DIRECTION('',(-1.,0.,0.));
#311=DIRECTION('',(0.,0.,1.));
#312=DIRECTION('',(1.,0.,0.));
#313=DIRECTION('',(-1.01158205077228E-16,0.,-1.));
#314=DIRECTION('',(-1.,0.,0.));
#315=DIRECTION('',(0.,0.,1.));
#316=DIRECTION('',(-1.,0.,0.));
#317=DIRECTION('',(0.,0.,1.));
#318=DIRECTION('',(-1.,0.,0.));
#319=DIRECTION('',(0.,0.,1.));
#320=DIRECTION('',(-1.,0.,0.));
#321=DIRECTION('',(0.,0.,1.));
#322=DIRECTION('',(-1.,0.,0.));
#323=DIRECTION('',(0.,0.,1.));
#324=DIRECTION('',(-1.,0.,0.));
#325=DIRECTION('',(3.92658490500117E-17,0.,1.));
#326=DIRECTION('',(-1.,0.,0.));
#327=DIRECTION('',(0.,0.,1.));
#328=DIRECTION('',(-1.,0.,0.));
#329=DIRECTION('',(0.,0.,1.));
#330=DIRECTION('',(-1.,0.,0.));
#331=DIRECTION('',(0.,0.,1.));
#332=DIRECTION('',(-1.,0.,0.));
#333=DIRECTION('',(0.,0.,1.));
#334=DIRECTION('',(-1.,0.,0.));
#335=DIRECTION('',(0.,0.,1.));
#336=DIRECTION('',(-1.,0.,0.));
#337=DIRECTION('',(-1.,0.,0.));
#338=DIRECTION('',(-1.38672542195281E-17,0.,1.));
#339=CARTESIAN_POINT('',(0.,0.,0.));
#340=CARTESIAN_POINT('',(5.95527690984794,0.400423810978126,56.502738387433));
#341=CARTESIAN_POINT('',(11.9104323580574,-0.331634210860864,56.5173889956786));
#342=CARTESIAN_POINT('',(5.95527690984794,-56.4994386882572,-0.730213954233169));
#343=CARTESIAN_POINT('',(11.9104323580574,-56.4994386882572,-1.46241856201762));
#344=CARTESIAN_POINT('',(11.9104323580574,-56.4994386882572,-1.46241856201762));
#345=CARTESIAN_POINT('',(11.9104323580574,-54.9799058949156,-60.1684225214828));
#346=CARTESIAN_POINT('',(11.9104323580574,-0.267179511139603,-81.5043418232813));
#347=CARTESIAN_POINT('',(11.9104323580574,40.5938078137921,-39.3251574353565));
#348=CARTESIAN_POINT('',(11.9104323580574,81.4547951387239,2.85402695256823));
#349=CARTESIAN_POINT('',(11.9104323580574,58.3930210988306,56.8619750614503));
#350=CARTESIAN_POINT('',(11.9104323580574,-0.331634210860861,56.5173889956786));
#351=CARTESIAN_POINT('',(11.9865023423803,-44.5156398540469,-0.843727315377959));
#352=CARTESIAN_POINT('',(11.9865023423803,-43.6389610716155,-47.0979094843234));
#353=CARTESIAN_POINT('',(11.9865023423803,-0.655214020221993,-64.2039149568872));
#354=CARTESIAN_POINT('',(11.9865023423803,31.763350865016,-31.2000578400717));
#355=CARTESIAN_POINT('',(11.9865023423803,64.181915750254,1.80379927674374));
#356=CARTESIAN_POINT('',(11.9865023423803,46.3096140998302,44.4746179649505));
#357=CARTESIAN_POINT('',(11.9865023423803,0.0471505511864985,44.5236099639669));
#358=CARTESIAN_POINT('',(0.0761914459612939,-44.5156398540469,0.620681900190946));
#359=CARTESIAN_POINT('',(0.076191445961294,-45.1605622627674,-45.6335002687545));
#360=CARTESIAN_POINT('',(0.076191445961294,-2.76613194036734,-64.1423514127459));
#361=CARTESIAN_POINT('',(0.0761914459612939,30.7175489425421,-32.2251396366093));
#362=CARTESIAN_POINT('',(0.076191445961294,64.2012298254515,-0.307927860472922));
#363=CARTESIAN_POINT('',(0.076191445961294,47.7432845785382,42.9240201789211));
#364=CARTESIAN_POINT('',(0.0761914459612939,1.51126659486448,44.4943087474757));
#365=CARTESIAN_POINT('',(0.000121461638436307,-56.4994386882572,0.00199065355128394));
#366=CARTESIAN_POINT('',(0.000121461638436307,-56.5015070860674,-58.704013305914));
#367=CARTESIAN_POINT('',(0.000121461638436307,-2.37809743128495,-81.4427782791401));
#368=CARTESIAN_POINT('',(0.000121461638436307,39.5480058913182,-40.3502392318942));
#369=CARTESIAN_POINT('',(0.000121461638436307,81.4741092139214,0.74229981535158));
#370=CARTESIAN_POINT('',(0.000121461638436307,59.8266915775385,55.3113772754209));
#371=CARTESIAN_POINT('',(0.000121461638436307,1.13248183281713,56.4880877791873));
#372=CARTESIAN_POINT('',(-0.0759485226844213,-68.4832375224673,-0.616700593088377));
#373=CARTESIAN_POINT('',(-0.0759485226844214,-67.8424519093675,-71.7745263430734));
#374=CARTESIAN_POINT('',(-0.0759485226844214,-1.99006292220257,-98.7432051455344));
#375=CARTESIAN_POINT('',(-0.0759485226844213,48.3784628400942,-48.475338827179));
#376=CARTESIAN_POINT('',(-0.0759485226844214,98.7469886023911,1.79252749117608));
#377=CARTESIAN_POINT('',(-0.0759485226844214,71.9100985765388,67.6987343719206));
#378=CARTESIAN_POINT('',(-0.0759485226844213,0.753697070769763,68.481866810899));
#379=CARTESIAN_POINT('',(11.8343623737346,-68.4832375224673,-2.08110980865728));
#380=CARTESIAN_POINT('',(11.8343623737346,-66.3208507182157,-73.2389355586423));
#381=CARTESIAN_POINT('',(11.8343623737346,0.120854997942781,-98.8047686896755));
#382=CARTESIAN_POINT('',(11.8343623737346,49.4242647625681,-47.4502570306413));
#383=CARTESIAN_POINT('',(11.8343623737346,98.7276745271937,3.90425462839273));
#384=CARTESIAN_POINT('',(11.8343623737346,70.4764280978309,69.24933215795));
#385=CARTESIAN_POINT('',(11.8343623737346,-0.710418972908217,68.5111680273903));
#386=CARTESIAN_POINT('',(11.9104323580574,-56.4994386882572,-1.46241856201762));
#387=CARTESIAN_POINT('',(11.9104323580574,-54.9799058949156,-60.1684225214828));
#388=CARTESIAN_POINT('',(11.9104323580574,-0.267179511139603,-81.5043418232813));
#389=CARTESIAN_POINT('',(11.9104323580574,40.5938078137921,-39.3251574353565));
#390=CARTESIAN_POINT('',(11.9104323580574,81.4547951387239,2.85402695256823));
#391=CARTESIAN_POINT('',(11.9104323580574,58.3930210988306,56.8619750614503));
#392=CARTESIAN_POINT('',(11.9104323580574,-0.331634210860861,56.5173889956786));
#393=CARTESIAN_POINT('',(11.9104323580574,-0.331634210860866,56.5173889956786));
#394=CARTESIAN_POINT('',(11.9104323580574,-33.9664440628649,56.3200257801985));
#395=CARTESIAN_POINT('',(11.9104323580574,-57.3697579144561,32.1617086454475));
#396=CARTESIAN_POINT('',(11.9104323580574,-56.4994386882572,-1.46241856201763));
#397=CARTESIAN_POINT('',(11.9865023423803,0.047150551186494,44.5236099639669));
#398=CARTESIAN_POINT('',(11.9865023423803,-26.4498830463373,44.5516703512522));
#399=CARTESIAN_POINT('',(11.9865023423803,-45.0177615607282,25.6485630847615));
#400=CARTESIAN_POINT('',(11.9865023423803,-44.5156398540469,-0.843727315377963));
#401=CARTESIAN_POINT('',(0.0761914459612939,1.51126659486448,44.4943087474757));
#402=CARTESIAN_POINT('',(0.0761914459612938,-24.9683291687001,45.3936985716913));
#403=CARTESIAN_POINT('',(0.0761914459612938,-44.1462576504017,27.1129723003304));
#404=CARTESIAN_POINT('',(0.0761914459612939,-44.515639854047,0.620681900190942));
#405=CARTESIAN_POINT('',(0.000121461638436307,1.13248183281712,56.4880877791873));
#406=CARTESIAN_POINT('',(0.000121461638436307,-32.4848901852276,57.1620540006376));
#407=CARTESIAN_POINT('',(0.000121461638436307,-56.4982540041295,33.6261178610164));
#408=CARTESIAN_POINT('',(0.000121461638436307,-56.4994386882572,0.00199065355127939));
#409=CARTESIAN_POINT('',(-0.0759485226844213,0.753697070769757,68.4818668108989));
#410=CARTESIAN_POINT('',(-0.0759485226844212,-40.0014512017551,68.9304094295838));
#411=CARTESIAN_POINT('',(-0.0759485226844212,-68.8502503578574,40.1392634217024));
#412=CARTESIAN_POINT('',(-0.0759485226844213,-68.4832375224673,-0.616700593088383));
#413=CARTESIAN_POINT('',(11.8343623737346,-0.710418972908226,68.5111680273903));
#414=CARTESIAN_POINT('',(11.8343623737346,-41.4830050793923,68.0883812091447));
#415=CARTESIAN_POINT('',(11.8343623737346,-69.7217542681839,38.6748542061335));
#416=CARTESIAN_POINT('',(11.8343623737346,-68.4832375224673,-2.08110980865729));
#417=CARTESIAN_POINT('',(11.9104323580574,-0.331634210860866,56.5173889956786));
#418=CARTESIAN_POINT('',(11.9104323580574,-33.9664440628649,56.3200257801985));
#419=CARTESIAN_POINT('',(11.9104323580574,-57.3697579144561,32.1617086454475));
#420=CARTESIAN_POINT('',(11.9104323580574,-56.4994386882572,-1.46241856201763));
#421=CARTESIAN_POINT('',(63.,0.,0.));
#422=CARTESIAN_POINT('',(63.,0.,38.));
#423=CARTESIAN_POINT('',(63.,21.5,0.));
#424=CARTESIAN_POINT('',(61.,0.,0.));
#425=CARTESIAN_POINT('',(61.,0.,40.));
#426=CARTESIAN_POINT('',(61.,0.,0.));
#427=CARTESIAN_POINT('',(51.,0.,0.));
#428=CARTESIAN_POINT('',(51.,0.,40.));
#429=CARTESIAN_POINT('',(0.,0.,0.));
#430=CARTESIAN_POINT('',(50.6535898384862,0.,0.));
#431=CARTESIAN_POINT('',(50.6535898384862,0.,39.8));
#432=CARTESIAN_POINT('',(51.,0.,0.));
#433=CARTESIAN_POINT('',(50.,0.,0.));
#434=CARTESIAN_POINT('',(50.,0.,39.8));
#435=CARTESIAN_POINT('',(0.,0.,0.));
#436=CARTESIAN_POINT('',(37.1442478062692,0.,0.));
#437=CARTESIAN_POINT('',(37.1442478062692,0.,44.4791111376204));
#438=CARTESIAN_POINT('',(50.,0.,0.));
#439=CARTESIAN_POINT('',(19.4453828250775,0.,0.));
#440=CARTESIAN_POINT('',(19.4453828250775,0.,59.3302222155949));
#441=CARTESIAN_POINT('',(37.1442478062692,0.,0.));
#442=CARTESIAN_POINT('',(16.2314447766448,0.,0.));
#443=CARTESIAN_POINT('',(16.2314447766448,0.,60.5));
#444=CARTESIAN_POINT('',(16.2314447766448,0.,0.));
#445=CARTESIAN_POINT('',(8.16179923135003,0.,0.));
#446=CARTESIAN_POINT('',(8.16179923135003,0.,60.5));
#447=CARTESIAN_POINT('',(0.,0.,0.));
#448=CARTESIAN_POINT('',(3.5,0.,0.));
#449=CARTESIAN_POINT('',(3.5,0.,52.0714359248066));
#450=CARTESIAN_POINT('',(0.669342828082917,56.7587162652289,0.));
#451=CARTESIAN_POINT('',(0.673378023431959,56.1223152439101,0.));
#452=CARTESIAN_POINT('',(0.706260024425842,55.8075229477869,0.));
#453=CARTESIAN_POINT('',(0.833664768339474,55.184795506461,0.));
#454=CARTESIAN_POINT('',(0.927113038358012,54.8830986470908,0.));
#455=CARTESIAN_POINT('',(1.16971135029997,54.3042279874014,0.));
#456=CARTESIAN_POINT('',(1.32089853189045,54.0234825836663,0.));
#457=CARTESIAN_POINT('',(1.67435586929919,53.4990623260933,0.));
#458=CARTESIAN_POINT('',(1.87452079580099,53.2572598971732,0.));
#459=CARTESIAN_POINT('',(2.32126627683797,52.8140725929459,0.));
#460=CARTESIAN_POINT('',(2.57026884656644,52.6117365297338,0.));
#461=CARTESIAN_POINT('',(3.0952434682462,52.2655117706957,0.));
#462=CARTESIAN_POINT('',(3.37302111862714,52.1191918091577,0.));
#463=CARTESIAN_POINT('',(3.95988534236934,51.8814127836287,0.));
#464=CARTESIAN_POINT('',(4.26526648998391,51.7921082825873,0.));
#465=CARTESIAN_POINT('',(4.88192924609263,51.6762118502841,0.));
#466=CARTESIAN_POINT('',(5.19798309957168,51.6485711958595,0.));
#467=CARTESIAN_POINT('',(5.83199885647947,51.6569508878168,0.));
#468=CARTESIAN_POINT('',(6.14398815921583,51.6924349103073,0.));
#469=CARTESIAN_POINT('',(6.75824199499178,51.8240433992223,0.));
#470=CARTESIAN_POINT('',(7.06360292774952,51.9218651266692,0.));
#471=CARTESIAN_POINT('',(7.64152212942786,52.172355893011,0.));
#472=CARTESIAN_POINT('',(7.91572821932319,52.3246454180032,0.));
#473=CARTESIAN_POINT('',(8.43466308359661,52.6832582979275,0.));
#474=CARTESIAN_POINT('',(8.67879063636668,52.890261912326,0.));
#475=CARTESIAN_POINT('',(9.11594953252155,53.3408325888318,0.));
#476=CARTESIAN_POINT('',(9.31207224844735,53.5862924262094,0.));
#477=CARTESIAN_POINT('',(9.65799195958852,54.118829830811,0.));
#478=CARTESIAN_POINT('',(9.80333513967625,54.3995190719892,0.));
#479=CARTESIAN_POINT('',(10.0372279796055,54.9817538340865,0.));
#480=CARTESIAN_POINT('',(10.1269708933649,55.2872734959614,0.));
#481=CARTESIAN_POINT('',(10.2450861825789,55.9089425449821,0.));
#482=CARTESIAN_POINT('',(10.2734264641049,56.2215707292963,0.));
#483=CARTESIAN_POINT('',(10.2697001277131,56.8503544002887,0.));
#484=CARTESIAN_POINT('',(10.2366205937581,57.1693850576321,0.));
#485=CARTESIAN_POINT('',(10.1108412574702,57.7860361796745,0.));
#486=CARTESIAN_POINT('',(10.018673377855,58.0860470967307,0.));
#487=CARTESIAN_POINT('',(9.77477385905054,58.6691535719745,0.));
#488=CARTESIAN_POINT('',(9.62316265785043,58.9500160728657,0.));
#489=CARTESIAN_POINT('',(9.27244650524245,59.4705771643582,0.));
#490=CARTESIAN_POINT('',(9.07143838182325,59.7140959250487,0.));
#491=CARTESIAN_POINT('',(8.6200376292311,60.1613327156066,0.));
#492=CARTESIAN_POINT('',(8.37583864080515,60.3591987163332,0.));
#493=CARTESIAN_POINT('',(7.85161966434859,60.7050633813285,0.));
#494=CARTESIAN_POINT('',(7.56813199735854,60.8542064208041,0.));
#495=CARTESIAN_POINT('',(6.98360274470723,61.0907075036805,0.));
#496=CARTESIAN_POINT('',(6.68257031215144,61.1790893638884,0.));
#497=CARTESIAN_POINT('',(6.06296752937325,61.2961078688565,0.));
#498=CARTESIAN_POINT('',(5.74384179506789,61.3238755578798,0.));
#499=CARTESIAN_POINT('',(5.11595692024704,61.3162540905558,0.));
#500=CARTESIAN_POINT('',(4.8036468796558,61.2817809538045,0.));
#501=CARTESIAN_POINT('',(4.18239736073439,61.149523151222,0.));
#502=CARTESIAN_POINT('',(3.88143390298065,61.0531781825215,0.));
#503=CARTESIAN_POINT('',(3.30530575977009,60.8047541892292,0.));
#504=CARTESIAN_POINT('',(3.02637288370143,60.6505707744135,0.));
#505=CARTESIAN_POINT('',(2.5057650473361,60.2913347794904,0.));
#506=CARTESIAN_POINT('',(2.26624412576595,60.0886026842894,0.));
#507=CARTESIAN_POINT('',(1.82786236686376,59.6379178176443,0.));
#508=CARTESIAN_POINT('',(1.62773982244498,59.3872123900518,0.));
#509=CARTESIAN_POINT('',(1.28505719327778,58.8595381405304,0.));
#510=CARTESIAN_POINT('',(1.14036924105556,58.5811477281528,0.));
#511=CARTESIAN_POINT('',(0.904816054730615,57.9949785850877,0.));
#512=CARTESIAN_POINT('',(0.815282834750888,57.688434925448,0.));
#513=CARTESIAN_POINT('',(0.698238430273589,57.0718559493921,0.));
#514=CARTESIAN_POINT('',(0.669342828082917,56.7587162652289,0.));
#515=CARTESIAN_POINT('',(0.673378023431959,56.1223152439101,0.));
#516=CARTESIAN_POINT('',(0.,0.,0.));
#517=CARTESIAN_POINT('',(17.4524992047807,0.,0.));
#518=CARTESIAN_POINT('',(3.5,0.,0.));
#519=(
GEOMETRIC_REPRESENTATION_CONTEXT(3)
GLOBAL_UNCERTAINTY_ASSIGNED_CONTEXT((#520))
GLOBAL_UNIT_ASSIGNED_CONTEXT((#526,#522,#521))
REPRESENTATION_CONTEXT('model1','TOP_LEVEL_ASSEMBLY_PART')
);
#520=UNCERTAINTY_MEASURE_WITH_UNIT(LENGTH_MEASURE(2.E-5),#526,
'DISTANCE_ACCURACY_VALUE','Maximum Tolerance applied to model');
#521=(
NAMED_UNIT(*)
SI_UNIT($,.STERADIAN.)
SOLID_ANGLE_UNIT()
);
#522=(
CONVERSION_BASED_UNIT('DEGREE',#524)
NAMED_UNIT(#523)
PLANE_ANGLE_UNIT()
);
#523=DIMENSIONAL_EXPONENTS(0.,0.,0.,0.,0.,0.,0.);
#524=PLANE_ANGLE_MEASURE_WITH_UNIT(PLANE_ANGLE_MEASURE(0.0174532925),#525);
#525=(
NAMED_UNIT(*)
PLANE_ANGLE_UNIT()
SI_UNIT($,.RADIAN.)
);
#526=(
LENGTH_UNIT()
NAMED_UNIT(*)
SI_UNIT(.MILLI.,.METRE.)
);
ENDSEC;
END-ISO-10303-21;
