ISO-10303-21;
HEADER;
/* Generated by software containing ST-Developer
 * from STEP Tools, Inc. (www.steptools.com) 
 */
/* OPTION: using custom schema-name function */

FILE_DESCRIPTION(
/* description */ (''),
/* implementation_level */ '2;1');

FILE_NAME(
/* name */ 'model1.stp',
/* time_stamp */ '2023-11-03T12:13:36+03:00',
/* author */ (''),
/* organization */ (''),
/* preprocessor_version */ 'ST-DEVELOPER v19.4',
/* originating_system */ 'SIEMENS PLM Software NX2306.3001',
/* authorisation */ '');

FILE_SCHEMA (('AUTOMOTIVE_DESIGN { 1 0 10303 214 3 1 1 1 }'));
ENDSEC;

DATA;
#10=PROPERTY_DEFINITION_REPRESENTATION(#14,#12);
#11=PROPERTY_DEFINITION_REPRESENTATION(#15,#13);
#12=REPRESENTATION('',(#16),#483);
#13=REPRESENTATION('',(#17),#483);
#14=PROPERTY_DEFINITION('pmi validation property','',#21);
#15=PROPERTY_DEFINITION('pmi validation property','',#21);
#16=VALUE_REPRESENTATION_ITEM('number of annotations',COUNT_MEASURE(0.));
#17=VALUE_REPRESENTATION_ITEM('number of views',COUNT_MEASURE(0.));
#18=SHAPE_REPRESENTATION_RELATIONSHIP('None',
'relationship between model1_objects-None and model1_objects-None',#30,
#19);
#19=ADVANCED_BREP_SHAPE_REPRESENTATION('model1_objects-None',(#125,#126),
#483);
#20=SHAPE_DEFINITION_REPRESENTATION(#21,#30);
#21=PRODUCT_DEFINITION_SHAPE('','',#22);
#22=PRODUCT_DEFINITION(' ','',#24,#23);
#23=PRODUCT_DEFINITION_CONTEXT('part definition',#29,'design');
#24=PRODUCT_DEFINITION_FORMATION_WITH_SPECIFIED_SOURCE(' ',' ',#26,
 .NOT_KNOWN.);
#25=PRODUCT_RELATED_PRODUCT_CATEGORY('part','',(#26));
#26=PRODUCT('model1_objects','model1_objects',' ',(#27));
#27=PRODUCT_CONTEXT(' ',#29,'mechanical');
#28=APPLICATION_PROTOCOL_DEFINITION('international standard',
'automotive_design',2010,#29);
#29=APPLICATION_CONTEXT(
'core data for automotive mechanical design processes');
#30=SHAPE_REPRESENTATION('model1_objects-None',(#233),#483);
#31=OVER_RIDING_STYLED_ITEM('',(#60),#131,#57);
#32=OVER_RIDING_STYLED_ITEM('',(#61),#132,#57);
#33=OVER_RIDING_STYLED_ITEM('',(#62),#133,#57);
#34=OVER_RIDING_STYLED_ITEM('',(#63),#134,#57);
#35=OVER_RIDING_STYLED_ITEM('',(#64),#135,#57);
#36=OVER_RIDING_STYLED_ITEM('',(#65),#136,#57);
#37=OVER_RIDING_STYLED_ITEM('',(#66),#137,#57);
#38=OVER_RIDING_STYLED_ITEM('',(#67),#138,#57);
#39=OVER_RIDING_STYLED_ITEM('',(#68),#139,#57);
#40=COLOUR_RGB('Medium Steel',0.611764705882353,0.658823529411765,0.670588235294118);
#41=COLOUR_RGB('silver gray',0.6,0.6,0.6);
#42=CONICAL_SURFACE('',#251,12.0771858925694,85.0000000000961);
#43=VERTEX_LOOP('',#212);
#44=SURFACE_OF_REVOLUTION('',#46,#45);
#45=AXIS1_PLACEMENT('',#480,#288);
#46=B_SPLINE_CURVE_WITH_KNOTS('',3,(#396,#397,#398,#399,#400,#401,#402,
#403,#404,#405,#406,#407,#408,#409,#410,#411,#412,#413,#414,#415,#416,#417,
#418,#419,#420,#421,#422,#423,#424,#425,#426,#427,#428,#429,#430,#431,#432,
#433,#434,#435,#436,#437,#438,#439,#440,#441,#442,#443,#444,#445,#446,#447,
#448,#449,#450,#451,#452,#453,#454,#455,#456,#457,#458,#459,#460,#461,#462,
#463,#464,#465,#466,#467,#468,#469,#470,#471,#472,#473,#474,#475,#476,#477,
#478,#479),.UNSPECIFIED.,.T.,.F.,(2,2,2,2,2,2,2,2,2,2,2,2,2,2,2,2,2,2,2,
2,2,2,2,2,2,2,2,2,2,2,2,2,2,2,2,2,2,2,2,2,2,2,2,2),(-0.03125,0.,0.03125,
0.0625,0.09375,0.125,0.140625,0.15625,0.1875,0.21875,0.234375,0.25,0.28125,
0.296875,0.3125,0.34375,0.375,0.40625,0.4375,0.453125,0.46875,0.5,0.515625,
0.53125,0.5625,0.59375,0.609375,0.625,0.65625,0.6875,0.71875,0.734375,0.75,
0.78125,0.8125,0.828125,0.84375,0.875,0.90625,0.9375,0.953125,0.96875,1.,
1.03125),.UNSPECIFIED.);
#47=TOROIDAL_SURFACE('',#241,19.5,1.5);
#48=TOROIDAL_SURFACE('',#243,16.,5.);
#49=TOROIDAL_SURFACE('',#245,58.5,38.);
#50=TOROIDAL_SURFACE('',#247,18.5,5.);
#51=PLANE('',#240);
#52=FACE_OUTER_BOUND('',#168,.T.);
#53=CYLINDRICAL_SURFACE('',#238,21.);
#54=CYLINDRICAL_SURFACE('',#249,23.5);
#55=PRESENTATION_LAYER_ASSIGNMENT('1','Layer 1',(#125,#126));
#56=STYLED_ITEM('',(#58),#125);
#57=STYLED_ITEM('',(#59),#126);
#58=PRESENTATION_STYLE_ASSIGNMENT((#69));
#59=PRESENTATION_STYLE_ASSIGNMENT((#70));
#60=PRESENTATION_STYLE_ASSIGNMENT((#71));
#61=PRESENTATION_STYLE_ASSIGNMENT((#72));
#62=PRESENTATION_STYLE_ASSIGNMENT((#73));
#63=PRESENTATION_STYLE_ASSIGNMENT((#74));
#64=PRESENTATION_STYLE_ASSIGNMENT((#75));
#65=PRESENTATION_STYLE_ASSIGNMENT((#76));
#66=PRESENTATION_STYLE_ASSIGNMENT((#77));
#67=PRESENTATION_STYLE_ASSIGNMENT((#78));
#68=PRESENTATION_STYLE_ASSIGNMENT((#79));
#69=SURFACE_STYLE_USAGE(.BOTH.,#80);
#70=SURFACE_STYLE_USAGE(.BOTH.,#81);
#71=SURFACE_STYLE_USAGE(.BOTH.,#82);
#72=SURFACE_STYLE_USAGE(.BOTH.,#83);
#73=SURFACE_STYLE_USAGE(.BOTH.,#84);
#74=SURFACE_STYLE_USAGE(.BOTH.,#85);
#75=SURFACE_STYLE_USAGE(.BOTH.,#86);
#76=SURFACE_STYLE_USAGE(.BOTH.,#87);
#77=SURFACE_STYLE_USAGE(.BOTH.,#88);
#78=SURFACE_STYLE_USAGE(.BOTH.,#89);
#79=SURFACE_STYLE_USAGE(.BOTH.,#90);
#80=SURFACE_SIDE_STYLE('',(#91));
#81=SURFACE_SIDE_STYLE('',(#92));
#82=SURFACE_SIDE_STYLE('',(#93));
#83=SURFACE_SIDE_STYLE('',(#94));
#84=SURFACE_SIDE_STYLE('',(#95));
#85=SURFACE_SIDE_STYLE('',(#96));
#86=SURFACE_SIDE_STYLE('',(#97));
#87=SURFACE_SIDE_STYLE('',(#98));
#88=SURFACE_SIDE_STYLE('',(#99));
#89=SURFACE_SIDE_STYLE('',(#100));
#90=SURFACE_SIDE_STYLE('',(#101));
#91=SURFACE_STYLE_FILL_AREA(#102);
#92=SURFACE_STYLE_FILL_AREA(#103);
#93=SURFACE_STYLE_FILL_AREA(#104);
#94=SURFACE_STYLE_FILL_AREA(#105);
#95=SURFACE_STYLE_FILL_AREA(#106);
#96=SURFACE_STYLE_FILL_AREA(#107);
#97=SURFACE_STYLE_FILL_AREA(#108);
#98=SURFACE_STYLE_FILL_AREA(#109);
#99=SURFACE_STYLE_FILL_AREA(#110);
#100=SURFACE_STYLE_FILL_AREA(#111);
#101=SURFACE_STYLE_FILL_AREA(#112);
#102=FILL_AREA_STYLE('',(#113));
#103=FILL_AREA_STYLE('',(#114));
#104=FILL_AREA_STYLE('',(#115));
#105=FILL_AREA_STYLE('',(#116));
#106=FILL_AREA_STYLE('',(#117));
#107=FILL_AREA_STYLE('',(#118));
#108=FILL_AREA_STYLE('',(#119));
#109=FILL_AREA_STYLE('',(#120));
#110=FILL_AREA_STYLE('',(#121));
#111=FILL_AREA_STYLE('',(#122));
#112=FILL_AREA_STYLE('',(#123));
#113=FILL_AREA_STYLE_COLOUR('',#124);
#114=FILL_AREA_STYLE_COLOUR('',#40);
#115=FILL_AREA_STYLE_COLOUR('',#41);
#116=FILL_AREA_STYLE_COLOUR('',#41);
#117=FILL_AREA_STYLE_COLOUR('',#41);
#118=FILL_AREA_STYLE_COLOUR('',#41);
#119=FILL_AREA_STYLE_COLOUR('',#41);
#120=FILL_AREA_STYLE_COLOUR('',#41);
#121=FILL_AREA_STYLE_COLOUR('',#41);
#122=FILL_AREA_STYLE_COLOUR('',#41);
#123=FILL_AREA_STYLE_COLOUR('',#41);
#124=DRAUGHTING_PRE_DEFINED_COLOUR('yellow');
#125=MANIFOLD_SOLID_BREP('',#127);
#126=MANIFOLD_SOLID_BREP('',#128);
#127=CLOSED_SHELL('',(#129,#130));
#128=CLOSED_SHELL('',(#131,#132,#133,#134,#135,#136,#137,#138,#139));
#129=ADVANCED_FACE('',(#142,#143),#140,.F.);
#130=ADVANCED_FACE('',(#144,#145),#141,.F.);
#131=ADVANCED_FACE('',(#146,#147),#53,.T.);
#132=ADVANCED_FACE('',(#52),#51,.F.);
#133=ADVANCED_FACE('',(#148,#149),#47,.T.);
#134=ADVANCED_FACE('',(#150,#151),#48,.T.);
#135=ADVANCED_FACE('',(#152,#153),#49,.F.);
#136=ADVANCED_FACE('',(#154,#155),#50,.T.);
#137=ADVANCED_FACE('',(#156,#157),#54,.T.);
#138=ADVANCED_FACE('',(#158,#159),#44,.T.);
#139=ADVANCED_FACE('',(#160,#161),#42,.F.);
#140=(
BOUNDED_SURFACE()
B_SPLINE_SURFACE(3,3,((#296,#297,#298,#299,#300,#301,#302),(#303,#304,#305,
#306,#307,#308,#309),(#310,#311,#312,#313,#314,#315,#316),(#317,#318,#319,
#320,#321,#322,#323),(#324,#325,#326,#327,#328,#329,#330),(#331,#332,#333,
#334,#335,#336,#337),(#338,#339,#340,#341,#342,#343,#344)),
 .UNSPECIFIED.,.T.,.F.,.F.)
B_SPLINE_SURFACE_WITH_KNOTS((1,3,3,3,1),(4,3,4),(-0.5,0.,0.5,1.,1.5),(0.,
0.5,1.),.UNSPECIFIED.)
GEOMETRIC_REPRESENTATION_ITEM()
RATIONAL_B_SPLINE_SURFACE(((1.,0.585358898969155,0.585358898969155,1.,0.585358898969155,
0.585358898969155,1.),(0.333333333333334,0.195119632989719,0.195119632989719,
0.333333333333334,0.195119632989719,0.195119632989719,0.333333333333334),
(0.333333333333334,0.195119632989719,0.195119632989719,0.333333333333334,
0.195119632989719,0.195119632989719,0.333333333333334),(1.,0.585358898969155,
0.585358898969155,1.,0.585358898969155,0.585358898969155,1.),(0.333333333333334,
0.195119632989719,0.195119632989719,0.333333333333334,0.195119632989719,
0.195119632989719,0.333333333333334),(0.333333333333334,0.195119632989719,
0.195119632989719,0.333333333333334,0.195119632989719,0.195119632989719,
0.333333333333334),(1.,0.585358898969155,0.585358898969155,1.,0.585358898969155,
0.585358898969155,1.)))
REPRESENTATION_ITEM('')
SURFACE()
);
#141=(
BOUNDED_SURFACE()
B_SPLINE_SURFACE(3,3,((#345,#346,#347,#348),(#349,#350,#351,#352),(#353,
#354,#355,#356),(#357,#358,#359,#360),(#361,#362,#363,#364),(#365,#366,
#367,#368),(#369,#370,#371,#372)),.UNSPECIFIED.,.T.,.F.,.F.)
B_SPLINE_SURFACE_WITH_KNOTS((1,3,3,3,1),(4,4),(-0.5,0.,0.5,1.,1.5),(0.,
1.),.UNSPECIFIED.)
GEOMETRIC_REPRESENTATION_ITEM()
RATIONAL_B_SPLINE_SURFACE(((1.,0.809449342797833,0.809449342797833,1.),
(0.333333333333334,0.269816447599278,0.269816447599278,0.333333333333334),
(0.333333333333334,0.269816447599278,0.269816447599278,0.333333333333334),
(1.,0.809449342797833,0.809449342797833,1.),(0.333333333333334,0.269816447599278,
0.269816447599278,0.333333333333334),(0.333333333333334,0.269816447599278,
0.269816447599278,0.333333333333334),(1.,0.809449342797833,0.809449342797833,
1.)))
REPRESENTATION_ITEM('')
SURFACE()
);
#142=FACE_BOUND('',#162,.T.);
#143=FACE_BOUND('',#163,.T.);
#144=FACE_BOUND('',#164,.T.);
#145=FACE_BOUND('',#165,.T.);
#146=FACE_BOUND('',#166,.T.);
#147=FACE_BOUND('',#167,.T.);
#148=FACE_BOUND('',#169,.T.);
#149=FACE_BOUND('',#170,.T.);
#150=FACE_BOUND('',#171,.T.);
#151=FACE_BOUND('',#172,.T.);
#152=FACE_BOUND('',#173,.T.);
#153=FACE_BOUND('',#174,.T.);
#154=FACE_BOUND('',#175,.T.);
#155=FACE_BOUND('',#176,.T.);
#156=FACE_BOUND('',#177,.T.);
#157=FACE_BOUND('',#178,.T.);
#158=FACE_BOUND('',#179,.T.);
#159=FACE_BOUND('',#180,.T.);
#160=FACE_BOUND('',#181,.T.);
#161=FACE_BOUND('',#43,.T.);
#162=EDGE_LOOP('',(#182));
#163=EDGE_LOOP('',(#183));
#164=EDGE_LOOP('',(#184));
#165=EDGE_LOOP('',(#185));
#166=EDGE_LOOP('',(#186));
#167=EDGE_LOOP('',(#187));
#168=EDGE_LOOP('',(#188));
#169=EDGE_LOOP('',(#189));
#170=EDGE_LOOP('',(#190));
#171=EDGE_LOOP('',(#191));
#172=EDGE_LOOP('',(#192));
#173=EDGE_LOOP('',(#193));
#174=EDGE_LOOP('',(#194));
#175=EDGE_LOOP('',(#195));
#176=EDGE_LOOP('',(#196));
#177=EDGE_LOOP('',(#197));
#178=EDGE_LOOP('',(#198));
#179=EDGE_LOOP('',(#199));
#180=EDGE_LOOP('',(#200));
#181=EDGE_LOOP('',(#201));
#182=ORIENTED_EDGE('',*,*,#213,.T.);
#183=ORIENTED_EDGE('',*,*,#214,.F.);
#184=ORIENTED_EDGE('',*,*,#214,.T.);
#185=ORIENTED_EDGE('',*,*,#213,.F.);
#186=ORIENTED_EDGE('',*,*,#215,.T.);
#187=ORIENTED_EDGE('',*,*,#216,.F.);
#188=ORIENTED_EDGE('',*,*,#217,.F.);
#189=ORIENTED_EDGE('',*,*,#215,.F.);
#190=ORIENTED_EDGE('',*,*,#217,.T.);
#191=ORIENTED_EDGE('',*,*,#218,.F.);
#192=ORIENTED_EDGE('',*,*,#216,.T.);
#193=ORIENTED_EDGE('',*,*,#219,.F.);
#194=ORIENTED_EDGE('',*,*,#218,.T.);
#195=ORIENTED_EDGE('',*,*,#220,.F.);
#196=ORIENTED_EDGE('',*,*,#219,.T.);
#197=ORIENTED_EDGE('',*,*,#221,.F.);
#198=ORIENTED_EDGE('',*,*,#220,.T.);
#199=ORIENTED_EDGE('',*,*,#222,.F.);
#200=ORIENTED_EDGE('',*,*,#221,.T.);
#201=ORIENTED_EDGE('',*,*,#222,.T.);
#202=VERTEX_POINT('',#293);
#203=VERTEX_POINT('',#295);
#204=VERTEX_POINT('',#374);
#205=VERTEX_POINT('',#376);
#206=VERTEX_POINT('',#379);
#207=VERTEX_POINT('',#383);
#208=VERTEX_POINT('',#386);
#209=VERTEX_POINT('',#389);
#210=VERTEX_POINT('',#392);
#211=VERTEX_POINT('',#395);
#212=VERTEX_POINT('',#481);
#213=EDGE_CURVE('',#202,#202,#223,.T.);
#214=EDGE_CURVE('',#203,#203,#224,.T.);
#215=EDGE_CURVE('',#204,#204,#225,.T.);
#216=EDGE_CURVE('',#205,#205,#226,.T.);
#217=EDGE_CURVE('',#206,#206,#227,.T.);
#218=EDGE_CURVE('',#207,#207,#228,.T.);
#219=EDGE_CURVE('',#208,#208,#229,.T.);
#220=EDGE_CURVE('',#209,#209,#230,.T.);
#221=EDGE_CURVE('',#210,#210,#231,.T.);
#222=EDGE_CURVE('',#211,#211,#232,.T.);
#223=CIRCLE('',#234,8.);
#224=CIRCLE('',#235,8.);
#225=CIRCLE('',#236,21.);
#226=CIRCLE('',#237,21.);
#227=CIRCLE('',#239,19.5);
#228=CIRCLE('',#242,20.9418604651163);
#229=CIRCLE('',#244,23.1511627906977);
#230=CIRCLE('',#246,23.5);
#231=CIRCLE('',#248,23.5);
#232=CIRCLE('',#250,12.0771858925694);
#233=AXIS2_PLACEMENT_3D('',#291,#252,#253);
#234=AXIS2_PLACEMENT_3D('',#292,#254,#255);
#235=AXIS2_PLACEMENT_3D('',#294,#256,#257);
#236=AXIS2_PLACEMENT_3D('',#373,#258,#259);
#237=AXIS2_PLACEMENT_3D('',#375,#260,#261);
#238=AXIS2_PLACEMENT_3D('',#377,#262,#263);
#239=AXIS2_PLACEMENT_3D('',#378,#264,#265);
#240=AXIS2_PLACEMENT_3D('',#380,#266,#267);
#241=AXIS2_PLACEMENT_3D('',#381,#268,#269);
#242=AXIS2_PLACEMENT_3D('',#382,#270,#271);
#243=AXIS2_PLACEMENT_3D('',#384,#272,#273);
#244=AXIS2_PLACEMENT_3D('',#385,#274,#275);
#245=AXIS2_PLACEMENT_3D('',#387,#276,#277);
#246=AXIS2_PLACEMENT_3D('',#388,#278,#279);
#247=AXIS2_PLACEMENT_3D('',#390,#280,#281);
#248=AXIS2_PLACEMENT_3D('',#391,#282,#283);
#249=AXIS2_PLACEMENT_3D('',#393,#284,#285);
#250=AXIS2_PLACEMENT_3D('',#394,#286,#287);
#251=AXIS2_PLACEMENT_3D('',#482,#289,#290);
#252=DIRECTION('',(0.,0.,1.));
#253=DIRECTION('',(1.,0.,0.));
#254=DIRECTION('',(0.0871557427476584,0.995993660792223,0.020012600226113));
#255=DIRECTION('',(0.996194698091746,-0.0871381542630043,-0.00175087564746124));
#256=DIRECTION('',(0.0871557427476584,0.,0.996194698091746));
#257=DIRECTION('',(0.996194698091746,0.,-0.0871557427476584));
#258=DIRECTION('',(-1.,0.,0.));
#259=DIRECTION('',(0.,0.,1.));
#260=DIRECTION('',(-1.,0.,0.));
#261=DIRECTION('',(0.,0.,1.));
#262=DIRECTION('',(-1.,0.,0.));
#263=DIRECTION('',(0.,0.,1.));
#264=DIRECTION('',(-1.,0.,0.));
#265=DIRECTION('',(0.,0.,1.));
#266=DIRECTION('',(-1.,0.,0.));
#267=DIRECTION('',(0.,0.,1.));
#268=DIRECTION('',(-1.,0.,0.));
#269=DIRECTION('',(0.,0.,1.));
#270=DIRECTION('',(-1.,0.,0.));
#271=DIRECTION('',(0.,0.,1.));
#272=DIRECTION('',(-1.,0.,0.));
#273=DIRECTION('',(0.,0.,1.));
#274=DIRECTION('',(-1.,0.,0.));
#275=DIRECTION('',(0.,0.,1.));
#276=DIRECTION('',(-1.,0.,0.));
#277=DIRECTION('',(0.,0.,1.));
#278=DIRECTION('',(-1.,0.,0.));
#279=DIRECTION('',(0.,0.,1.));
#280=DIRECTION('',(-1.,0.,0.));
#281=DIRECTION('',(0.,0.,1.));
#282=DIRECTION('',(-1.,0.,0.));
#283=DIRECTION('',(0.,0.,1.));
#284=DIRECTION('',(-1.,0.,0.));
#285=DIRECTION('',(0.,0.,1.));
#286=DIRECTION('',(-1.,0.,0.));
#287=DIRECTION('',(0.,0.,1.));
#288=DIRECTION('',(-1.,0.,0.));
#289=DIRECTION('',(-1.,0.,0.));
#290=DIRECTION('',(3.10797315238406E-18,0.,1.));
#291=CARTESIAN_POINT('',(0.,0.,0.));
#292=CARTESIAN_POINT('',(7.96955758473396,0.441239084927322,18.0000600081186));
#293=CARTESIAN_POINT('',(15.9391151694679,-0.255866149176713,17.9860530029389));
#294=CARTESIAN_POINT('',(7.96955758473396,-17.98756343,0.802754058018734));
#295=CARTESIAN_POINT('',(15.9391151694679,-17.98756343,0.105508116037467));
#296=CARTESIAN_POINT('',(15.939115169468,-17.98756343,0.105508116037467));
#297=CARTESIAN_POINT('',(15.9391151694679,-18.098809541575,-18.8602981503391));
#298=CARTESIAN_POINT('',(15.9391151694679,-0.582512252970242,-26.133090758979));
#299=CARTESIAN_POINT('',(15.939115169468,12.7723980546223,-12.6660735054358));
#300=CARTESIAN_POINT('',(15.9391151694679,26.1273083622148,0.800943748107323));
#301=CARTESIAN_POINT('',(15.9391151694679,18.7083475464701,18.2558342790019));
#302=CARTESIAN_POINT('',(15.939115169468,-0.25586614917671,17.9860530029389));
#303=CARTESIAN_POINT('',(15.9391151694679,-1.98756342999999,0.105508116037466));
#304=CARTESIAN_POINT('',(15.9391151694679,-2.09880954157504,-1.99014775765609));
#305=CARTESIAN_POINT('',(15.9391151694679,-0.200727718984836,-2.88537657367996));
#306=CARTESIAN_POINT('',(15.9391151694679,1.34561382747431,-1.46658234618212));
#307=CARTESIAN_POINT('',(15.9391151694679,2.89195537393346,-0.0477881186842798));
#308=CARTESIAN_POINT('',(15.9391151694679,2.16302636008086,1.92015795045754));
#309=CARTESIAN_POINT('',(15.9391151694679,0.0655585725480351,1.98928188660848));
#310=CARTESIAN_POINT('',(-1.51746831460062E-15,-1.98756342999999,1.5));
#311=CARTESIAN_POINT('',(-1.51746831460062E-15,-3.56914002931403,-0.595655873693553));
#312=CARTESIAN_POINT('',(-1.51746831460062E-15,-2.22689951598985,-2.85210185905089));
#313=CARTESIAN_POINT('',(-1.51746831460062E-15,0.369513857093719,-2.46249221271643));
#314=CARTESIAN_POINT('',(-1.51746831460062E-15,2.96592723017728,-2.07288256638197));
#315=CARTESIAN_POINT('',(-1.51746831460062E-15,3.58677436378049,0.478138193459223));
#316=CARTESIAN_POINT('',(-1.51746831460062E-15,1.4597690407561,2.01729589696786));
#317=CARTESIAN_POINT('',(-3.46944695195361E-15,-17.98756343,1.5));
#318=CARTESIAN_POINT('',(-3.46944695195362E-15,-19.569140029314,-17.4658062663766));
#319=CARTESIAN_POINT('',(-3.46944695195362E-15,-2.60868404997525,-26.0998160443499));
#320=CARTESIAN_POINT('',(-3.46944695195361E-15,11.7962980842417,-13.6619833719701));
#321=CARTESIAN_POINT('',(-3.46944695195362E-15,26.2012802184586,-1.22415069959037));
#322=CARTESIAN_POINT('',(-3.46944695195362E-15,20.1320955501697,16.8138145220036));
#323=CARTESIAN_POINT('',(-3.46944695195361E-15,1.13834431903136,18.0140670132983));
#324=CARTESIAN_POINT('',(-5.42142558930661E-15,-33.98756343,1.5));
#325=CARTESIAN_POINT('',(-5.4214255893066E-15,-35.569140029314,-34.3359566590596));
#326=CARTESIAN_POINT('',(-5.4214255893066E-15,-2.99046858396066,-49.3475302296489));
#327=CARTESIAN_POINT('',(-5.42142558930661E-15,23.2230823113897,-24.8614745312238));
#328=CARTESIAN_POINT('',(-5.4214255893066E-15,49.43663320674,-0.375418832798766));
#329=CARTESIAN_POINT('',(-5.4214255893066E-15,36.6774167365588,33.149490850548));
#330=CARTESIAN_POINT('',(-5.42142558930661E-15,0.816919597306616,34.0108381296288));
#331=CARTESIAN_POINT('',(15.9391151694679,-33.98756343,0.105508116037466));
#332=CARTESIAN_POINT('',(15.9391151694679,-34.098809541575,-35.7304485430221));
#333=CARTESIAN_POINT('',(15.9391151694679,-0.964296786955651,-49.3808049442779));
#334=CARTESIAN_POINT('',(15.9391151694679,24.1991822817703,-23.8655646646896));
#335=CARTESIAN_POINT('',(15.9391151694679,49.3626613504962,1.64967561489892));
#336=CARTESIAN_POINT('',(15.9391151694679,35.2536687328592,34.5915106075463));
#337=CARTESIAN_POINT('',(15.9391151694679,-0.577290870901453,33.9828241192694));
#338=CARTESIAN_POINT('',(15.939115169468,-17.98756343,0.105508116037467));
#339=CARTESIAN_POINT('',(15.9391151694679,-18.098809541575,-18.8602981503391));
#340=CARTESIAN_POINT('',(15.9391151694679,-0.582512252970242,-26.133090758979));
#341=CARTESIAN_POINT('',(15.939115169468,12.7723980546223,-12.6660735054358));
#342=CARTESIAN_POINT('',(15.9391151694679,26.1273083622148,0.800943748107323));
#343=CARTESIAN_POINT('',(15.9391151694679,18.7083475464701,18.2558342790019));
#344=CARTESIAN_POINT('',(15.939115169468,-0.25586614917671,17.9860530029389));
#345=CARTESIAN_POINT('',(15.939115169468,-0.255866149176713,17.9860530029389));
#346=CARTESIAN_POINT('',(15.9391151694679,-10.6247794619003,17.8385468257893));
#347=CARTESIAN_POINT('',(15.9391151694679,-17.9267382723735,10.4752921860783));
#348=CARTESIAN_POINT('',(15.939115169468,-17.98756343,0.105508116037466));
#349=CARTESIAN_POINT('',(15.9391151694679,0.0655585725480346,1.98928188660848));
#350=CARTESIAN_POINT('',(15.9391151694679,-1.0812573204911,2.02707623512649));
#351=CARTESIAN_POINT('',(15.9391151694679,-1.92673827237356,1.25133332326008));
#352=CARTESIAN_POINT('',(15.9391151694679,-1.98756342999999,0.105508116037466));
#353=CARTESIAN_POINT('',(-1.51746831460062E-15,1.4597690407561,2.01729589696786));
#354=CARTESIAN_POINT('',(-1.51746831460062E-15,0.296803142770882,2.85884899578973));
#355=CARTESIAN_POINT('',(-1.51746831460062E-15,-1.12281728661078,2.64582520722262));
#356=CARTESIAN_POINT('',(-1.51746831460062E-15,-1.98756342999999,1.5));
#357=CARTESIAN_POINT('',(-3.46944695195361E-15,1.13834431903136,18.0140670132983));
#358=CARTESIAN_POINT('',(-3.46944695195361E-15,-9.24671899863831,18.6703195864526));
#359=CARTESIAN_POINT('',(-3.46944695195361E-15,-17.1228172866108,11.8697840700409));
#360=CARTESIAN_POINT('',(-3.46944695195361E-15,-17.98756343,1.5));
#361=CARTESIAN_POINT('',(-5.42142558930661E-15,0.816919597306609,34.0108381296288));
#362=CARTESIAN_POINT('',(-5.42142558930661E-15,-18.7902411400475,34.4817901771154));
#363=CARTESIAN_POINT('',(-5.42142558930661E-15,-33.1228172866108,21.0937429328591));
#364=CARTESIAN_POINT('',(-5.42142558930661E-15,-33.98756343,1.5));
#365=CARTESIAN_POINT('',(15.9391151694679,-0.577290870901461,33.9828241192694));
#366=CARTESIAN_POINT('',(15.9391151694679,-20.1683016033095,33.6500174164522));
#367=CARTESIAN_POINT('',(15.9391151694679,-33.9267382723736,19.6992510488966));
#368=CARTESIAN_POINT('',(15.9391151694679,-33.98756343,0.105508116037466));
#369=CARTESIAN_POINT('',(15.939115169468,-0.255866149176713,17.9860530029389));
#370=CARTESIAN_POINT('',(15.9391151694679,-10.6247794619003,17.8385468257893));
#371=CARTESIAN_POINT('',(15.9391151694679,-17.9267382723735,10.4752921860783));
#372=CARTESIAN_POINT('',(15.939115169468,-17.98756343,0.105508116037466));
#373=CARTESIAN_POINT('',(48.5,0.,0.));
#374=CARTESIAN_POINT('',(48.5,0.,21.));
#375=CARTESIAN_POINT('',(42.,0.,0.));
#376=CARTESIAN_POINT('',(42.,0.,21.));
#377=CARTESIAN_POINT('',(0.,0.,0.));
#378=CARTESIAN_POINT('',(50.,0.,0.));
#379=CARTESIAN_POINT('',(50.,0.,19.5));
#380=CARTESIAN_POINT('',(50.,12.,0.));
#381=CARTESIAN_POINT('',(48.5,0.,0.));
#382=CARTESIAN_POINT('',(41.2397269284522,0.,0.));
#383=CARTESIAN_POINT('',(41.2397269284522,0.,20.9418604651163));
#384=CARTESIAN_POINT('',(42.,0.,0.));
#385=CARTESIAN_POINT('',(21.516770518497,0.,0.));
#386=CARTESIAN_POINT('',(21.516770518497,0.,23.1511627906977));
#387=CARTESIAN_POINT('',(35.461651584689,0.,0.));
#388=CARTESIAN_POINT('',(19.6819177466296,0.,0.));
#389=CARTESIAN_POINT('',(19.6819177466296,0.,23.5));
#390=CARTESIAN_POINT('',(19.6819177466296,0.,0.));
#391=CARTESIAN_POINT('',(11.7490358012178,0.,0.));
#392=CARTESIAN_POINT('',(11.7490358012178,0.,23.5));
#393=CARTESIAN_POINT('',(0.,0.,0.));
#394=CARTESIAN_POINT('',(6.50000000000702,0.,0.));
#395=CARTESIAN_POINT('',(6.50000000000702,0.,12.0771858925694));
#396=CARTESIAN_POINT('',(0.955342863053686,18.7303437811228,0.));
#397=CARTESIAN_POINT('',(0.955342863053686,17.8676832690983,0.));
#398=CARTESIAN_POINT('',(0.998630054316923,17.438852966119,0.));
#399=CARTESIAN_POINT('',(1.17196101078014,16.5952514357831,0.));
#400=CARTESIAN_POINT('',(1.29998765787626,16.1888104586269,0.));
#401=CARTESIAN_POINT('',(1.63751761500483,15.4061854894279,0.));
#402=CARTESIAN_POINT('',(1.85022431740164,15.0264749893602,0.));
#403=CARTESIAN_POINT('',(2.34258905492847,14.3298490941474,0.));
#404=CARTESIAN_POINT('',(2.62259821432084,14.0097803603353,0.));
#405=CARTESIAN_POINT('',(3.09399031936572,13.5725764388028,0.));
#406=CARTESIAN_POINT('',(3.26039719707188,13.4337175069142,0.));
#407=CARTESIAN_POINT('',(3.60256390868475,13.1770469385508,0.));
#408=CARTESIAN_POINT('',(3.77917242134816,13.0583440206914,0.));
#409=CARTESIAN_POINT('',(4.32503375387834,12.7301915136551,0.));
#410=CARTESIAN_POINT('',(4.71044090141419,12.5483576864026,0.));
#411=CARTESIAN_POINT('',(5.5233695275281,12.2603142396908,0.));
#412=CARTESIAN_POINT('',(5.93687811665011,12.1589626727968,0.));
#413=CARTESIAN_POINT('',(6.56684736676626,12.0657308850591,0.));
#414=CARTESIAN_POINT('',(6.77846787793244,12.0445318316554,0.));
#415=CARTESIAN_POINT('',(7.20497295199503,12.0219054652997,0.));
#416=CARTESIAN_POINT('',(7.42100778243103,12.0205541814665,0.));
#417=CARTESIAN_POINT('',(8.06419395695235,12.0464736261913,0.));
#418=CARTESIAN_POINT('',(8.48595404421929,12.1028461935884,0.));
#419=CARTESIAN_POINT('',(9.10845883786011,12.2437607911267,0.));
#420=CARTESIAN_POINT('',(9.31425824879884,12.3001970324319,0.));
#421=CARTESIAN_POINT('',(9.72236567259225,12.4324828152726,0.));
#422=CARTESIAN_POINT('',(9.92462558199113,12.5084546327328,0.));
#423=CARTESIAN_POINT('',(10.5140776805755,12.7612254795264,0.));
#424=CARTESIAN_POINT('',(10.8882437156388,12.9638572484638,0.));
#425=CARTESIAN_POINT('',(11.5982800592494,13.4386116133481,0.));
#426=CARTESIAN_POINT('',(11.9349119106078,13.7126762219504,0.));
#427=CARTESIAN_POINT('',(12.5409621471504,14.3116404811455,0.));
#428=CARTESIAN_POINT('',(12.814177586104,14.6385850370494,0.));
#429=CARTESIAN_POINT('',(13.297480210711,15.3506316011947,0.));
#430=CARTESIAN_POINT('',(13.5015944878035,15.7276524457068,0.));
#431=CARTESIAN_POINT('',(13.747957402139,16.3164929507406,0.));
#432=CARTESIAN_POINT('',(13.8203173757213,16.5170849471475,0.));
#433=CARTESIAN_POINT('',(13.9449549174925,16.927140151732,0.));
#434=CARTESIAN_POINT('',(13.997258765109,17.1373354951889,0.));
#435=CARTESIAN_POINT('',(14.1201300714542,17.7674299118541,0.));
#436=CARTESIAN_POINT('',(14.1585560343895,18.190983423454,0.));
#437=CARTESIAN_POINT('',(14.151173252982,18.8315326349594,0.));
#438=CARTESIAN_POINT('',(14.137639829926,19.0471021848588,0.));
#439=CARTESIAN_POINT('',(14.0885639156122,19.4740088121507,0.));
#440=CARTESIAN_POINT('',(14.0532539636665,19.6845858208147,0.));
#441=CARTESIAN_POINT('',(13.9160141508937,20.3079565582173,0.));
#442=CARTESIAN_POINT('',(13.7830871517915,20.7124735262449,0.));
#443=CARTESIAN_POINT('',(13.432033413621,21.4987576892704,0.));
#444=CARTESIAN_POINT('',(13.2183942111681,21.8696765422342,0.));
#445=CARTESIAN_POINT('',(12.8470496635255,22.3880021552361,0.));
#446=CARTESIAN_POINT('',(12.7145530598798,22.5547610323321,0.));
#447=CARTESIAN_POINT('',(12.4318652985701,22.8760636224115,0.));
#448=CARTESIAN_POINT('',(12.2808357631462,23.0312811610052,0.));
#449=CARTESIAN_POINT('',(11.8103005063031,23.4688161765089,0.));
#450=CARTESIAN_POINT('',(11.4717572435175,23.7259257783682,0.));
#451=CARTESIAN_POINT('',(10.7462636925105,24.1727918035539,0.));
#452=CARTESIAN_POINT('',(10.3554227901115,24.3632899884959,0.));
#453=CARTESIAN_POINT('',(9.55652781542225,24.6602133257973,0.));
#454=CARTESIAN_POINT('',(9.14568005811764,24.7691576093894,0.));
#455=CARTESIAN_POINT('',(8.5122309102285,24.8730306769664,0.));
#456=CARTESIAN_POINT('',(8.29717074585246,24.8976555044188,0.));
#457=CARTESIAN_POINT('',(7.86976702075799,24.9257165305963,0.));
#458=CARTESIAN_POINT('',(7.65668418970292,24.9293731063994,0.));
#459=CARTESIAN_POINT('',(7.01924632929225,24.9099996430652,0.));
#460=CARTESIAN_POINT('',(6.59668497448107,24.8569106045551,0.));
#461=CARTESIAN_POINT('',(5.75652031224772,24.6676439071269,0.));
#462=CARTESIAN_POINT('',(5.35057039285131,24.5338892430832,0.));
#463=CARTESIAN_POINT('',(4.76636612305948,24.2783865774067,0.));
#464=CARTESIAN_POINT('',(4.57552459992265,24.1839502586861,0.));
#465=CARTESIAN_POINT('',(4.20176411905148,23.9762160796145,0.));
#466=CARTESIAN_POINT('',(4.01793053731889,23.8622309219782,0.));
#467=CARTESIAN_POINT('',(3.48822429830047,23.497468693369,0.));
#468=CARTESIAN_POINT('',(3.16248616078982,23.2238482897103,0.));
#469=CARTESIAN_POINT('',(2.56486964016481,22.6167596612243,0.));
#470=CARTESIAN_POINT('',(2.29104730178359,22.2794917648674,0.));
#471=CARTESIAN_POINT('',(1.81950842489304,21.5683479121799,0.));
#472=CARTESIAN_POINT('',(1.61932047706368,21.1930860922248,0.));
#473=CARTESIAN_POINT('',(1.3734017813702,20.6001101330973,0.));
#474=CARTESIAN_POINT('',(1.30030769759105,20.3963634055104,0.));
#475=CARTESIAN_POINT('',(1.17559013053428,19.9864728023218,0.));
#476=CARTESIAN_POINT('',(1.12361015126367,19.7797433257691,0.));
#477=CARTESIAN_POINT('',(0.998322617361457,19.154285575088,0.));
#478=CARTESIAN_POINT('',(0.955342863053686,18.7303437811228,0.));
#479=CARTESIAN_POINT('',(0.955342863053686,17.8676832690983,0.));
#480=CARTESIAN_POINT('',(0.,0.,0.));
#481=CARTESIAN_POINT('',(7.55661685288165,0.,0.));
#482=CARTESIAN_POINT('',(6.50000000000702,0.,0.));
#483=(
GEOMETRIC_REPRESENTATION_CONTEXT(3)
GLOBAL_UNCERTAINTY_ASSIGNED_CONTEXT((#484))
GLOBAL_UNIT_ASSIGNED_CONTEXT((#490,#486,#485))
REPRESENTATION_CONTEXT('model1','TOP_LEVEL_ASSEMBLY_PART')
);
#484=UNCERTAINTY_MEASURE_WITH_UNIT(LENGTH_MEASURE(2.E-5),#490,
'DISTANCE_ACCURACY_VALUE','Maximum Tolerance applied to model');
#485=(
NAMED_UNIT(*)
SI_UNIT($,.STERADIAN.)
SOLID_ANGLE_UNIT()
);
#486=(
CONVERSION_BASED_UNIT('DEGREE',#488)
NAMED_UNIT(#487)
PLANE_ANGLE_UNIT()
);
#487=DIMENSIONAL_EXPONENTS(0.,0.,0.,0.,0.,0.,0.);
#488=PLANE_ANGLE_MEASURE_WITH_UNIT(PLANE_ANGLE_MEASURE(0.0174532925),#489);
#489=(
NAMED_UNIT(*)
PLANE_ANGLE_UNIT()
SI_UNIT($,.RADIAN.)
);
#490=(
LENGTH_UNIT()
NAMED_UNIT(*)
SI_UNIT(.MILLI.,.METRE.)
);
ENDSEC;
END-ISO-10303-21;
