ISO-10303-21;
HEADER;
/* Generated by software containing ST-Developer
 * from STEP Tools, Inc. (www.steptools.com) 
 */
/* OPTION: using custom schema-name function */

FILE_DESCRIPTION(
/* description */ (''),
/* implementation_level */ '2;1');

FILE_NAME(
/* name */ 'model1.stp',
/* time_stamp */ '2023-11-03T08:35:36+03:00',
/* author */ (''),
/* organization */ (''),
/* preprocessor_version */ 'ST-DEVELOPER v19.4',
/* originating_system */ 'SIEMENS PLM Software NX2306.3001',
/* authorisation */ '');

FILE_SCHEMA (('AUTOMOTIVE_DESIGN { 1 0 10303 214 3 1 1 1 }'));
ENDSEC;

DATA;
#10=PROPERTY_DEFINITION_REPRESENTATION(#14,#12);
#11=PROPERTY_DEFINITION_REPRESENTATION(#15,#13);
#12=REPRESENTATION('',(#16),#482);
#13=REPRESENTATION('',(#17),#482);
#14=PROPERTY_DEFINITION('pmi validation property','',#21);
#15=PROPERTY_DEFINITION('pmi validation property','',#21);
#16=VALUE_REPRESENTATION_ITEM('number of annotations',COUNT_MEASURE(0.));
#17=VALUE_REPRESENTATION_ITEM('number of views',COUNT_MEASURE(0.));
#18=SHAPE_REPRESENTATION_RELATIONSHIP('None',
'relationship between model1_objects-None and model1_objects-None',#30,
#19);
#19=ADVANCED_BREP_SHAPE_REPRESENTATION('model1_objects-None',(#125,#126),
#482);
#20=SHAPE_DEFINITION_REPRESENTATION(#21,#30);
#21=PRODUCT_DEFINITION_SHAPE('','',#22);
#22=PRODUCT_DEFINITION(' ','',#24,#23);
#23=PRODUCT_DEFINITION_CONTEXT('part definition',#29,'design');
#24=PRODUCT_DEFINITION_FORMATION_WITH_SPECIFIED_SOURCE(' ',' ',#26,
 .NOT_KNOWN.);
#25=PRODUCT_RELATED_PRODUCT_CATEGORY('part','',(#26));
#26=PRODUCT('model1_objects','model1_objects',' ',(#27));
#27=PRODUCT_CONTEXT(' ',#29,'mechanical');
#28=APPLICATION_PROTOCOL_DEFINITION('international standard',
'automotive_design',2010,#29);
#29=APPLICATION_CONTEXT(
'core data for automotive mechanical design processes');
#30=SHAPE_REPRESENTATION('model1_objects-None',(#233),#482);
#31=OVER_RIDING_STYLED_ITEM('',(#60),#131,#57);
#32=OVER_RIDING_STYLED_ITEM('',(#61),#132,#57);
#33=OVER_RIDING_STYLED_ITEM('',(#62),#133,#57);
#34=OVER_RIDING_STYLED_ITEM('',(#63),#134,#57);
#35=OVER_RIDING_STYLED_ITEM('',(#64),#135,#57);
#36=OVER_RIDING_STYLED_ITEM('',(#65),#136,#57);
#37=OVER_RIDING_STYLED_ITEM('',(#66),#137,#57);
#38=OVER_RIDING_STYLED_ITEM('',(#67),#138,#57);
#39=OVER_RIDING_STYLED_ITEM('',(#68),#139,#57);
#40=COLOUR_RGB('Medium Steel',0.611764705882353,0.658823529411765,0.670588235294118);
#41=COLOUR_RGB('silver gray',0.6,0.6,0.6);
#42=CONICAL_SURFACE('',#251,18.8475487203532,85.0000000000002);
#43=VERTEX_LOOP('',#212);
#44=SURFACE_OF_REVOLUTION('',#46,#45);
#45=AXIS1_PLACEMENT('',#479,#288);
#46=B_SPLINE_CURVE_WITH_KNOTS('',3,(#396,#397,#398,#399,#400,#401,#402,
#403,#404,#405,#406,#407,#408,#409,#410,#411,#412,#413,#414,#415,#416,#417,
#418,#419,#420,#421,#422,#423,#424,#425,#426,#427,#428,#429,#430,#431,#432,
#433,#434,#435,#436,#437,#438,#439,#440,#441,#442,#443,#444,#445,#446,#447,
#448,#449,#450,#451,#452,#453,#454,#455,#456,#457,#458,#459,#460,#461,#462,
#463,#464,#465,#466,#467,#468,#469,#470,#471,#472,#473,#474,#475,#476,#477,
#478),.UNSPECIFIED.,.T.,.F.,(2,2,2,2,2,2,2,2,2,2,2,2,2,2,2,2,2,2,2,2,2,
2,2,2,2,1,2,2,2,2,2,2,2,2,2,2,2,2,2,2,2,2,2,2),(-0.03125,0.,0.03125,0.0625,
0.078125,0.09375,0.125,0.140625,0.15625,0.1875,0.21875,0.234375,0.25,0.28125,
0.3125,0.34375,0.375,0.40625,0.4375,0.453125,0.46875,0.5,0.53125,0.5625,
0.578125,0.59375,0.609375,0.625,0.65625,0.6875,0.71875,0.734375,0.75,0.78125,
0.8125,0.828125,0.84375,0.875,0.90625,0.9375,0.953125,0.96875,1.,1.03125),
 .UNSPECIFIED.);
#47=CYLINDRICAL_SURFACE('',#241,29.);
#48=CYLINDRICAL_SURFACE('',#249,30.4999999999985);
#49=TOROIDAL_SURFACE('',#239,27.,2.);
#50=TOROIDAL_SURFACE('',#243,24.,5.);
#51=TOROIDAL_SURFACE('',#245,53.,25.);
#52=TOROIDAL_SURFACE('',#247,25.5,5.);
#53=PLANE('',#237);
#54=FACE_OUTER_BOUND('',#166,.T.);
#55=PRESENTATION_LAYER_ASSIGNMENT('1','Layer 1',(#125,#126));
#56=STYLED_ITEM('',(#58),#125);
#57=STYLED_ITEM('',(#59),#126);
#58=PRESENTATION_STYLE_ASSIGNMENT((#69));
#59=PRESENTATION_STYLE_ASSIGNMENT((#70));
#60=PRESENTATION_STYLE_ASSIGNMENT((#71));
#61=PRESENTATION_STYLE_ASSIGNMENT((#72));
#62=PRESENTATION_STYLE_ASSIGNMENT((#73));
#63=PRESENTATION_STYLE_ASSIGNMENT((#74));
#64=PRESENTATION_STYLE_ASSIGNMENT((#75));
#65=PRESENTATION_STYLE_ASSIGNMENT((#76));
#66=PRESENTATION_STYLE_ASSIGNMENT((#77));
#67=PRESENTATION_STYLE_ASSIGNMENT((#78));
#68=PRESENTATION_STYLE_ASSIGNMENT((#79));
#69=SURFACE_STYLE_USAGE(.BOTH.,#80);
#70=SURFACE_STYLE_USAGE(.BOTH.,#81);
#71=SURFACE_STYLE_USAGE(.BOTH.,#82);
#72=SURFACE_STYLE_USAGE(.BOTH.,#83);
#73=SURFACE_STYLE_USAGE(.BOTH.,#84);
#74=SURFACE_STYLE_USAGE(.BOTH.,#85);
#75=SURFACE_STYLE_USAGE(.BOTH.,#86);
#76=SURFACE_STYLE_USAGE(.BOTH.,#87);
#77=SURFACE_STYLE_USAGE(.BOTH.,#88);
#78=SURFACE_STYLE_USAGE(.BOTH.,#89);
#79=SURFACE_STYLE_USAGE(.BOTH.,#90);
#80=SURFACE_SIDE_STYLE('',(#91));
#81=SURFACE_SIDE_STYLE('',(#92));
#82=SURFACE_SIDE_STYLE('',(#93));
#83=SURFACE_SIDE_STYLE('',(#94));
#84=SURFACE_SIDE_STYLE('',(#95));
#85=SURFACE_SIDE_STYLE('',(#96));
#86=SURFACE_SIDE_STYLE('',(#97));
#87=SURFACE_SIDE_STYLE('',(#98));
#88=SURFACE_SIDE_STYLE('',(#99));
#89=SURFACE_SIDE_STYLE('',(#100));
#90=SURFACE_SIDE_STYLE('',(#101));
#91=SURFACE_STYLE_FILL_AREA(#102);
#92=SURFACE_STYLE_FILL_AREA(#103);
#93=SURFACE_STYLE_FILL_AREA(#104);
#94=SURFACE_STYLE_FILL_AREA(#105);
#95=SURFACE_STYLE_FILL_AREA(#106);
#96=SURFACE_STYLE_FILL_AREA(#107);
#97=SURFACE_STYLE_FILL_AREA(#108);
#98=SURFACE_STYLE_FILL_AREA(#109);
#99=SURFACE_STYLE_FILL_AREA(#110);
#100=SURFACE_STYLE_FILL_AREA(#111);
#101=SURFACE_STYLE_FILL_AREA(#112);
#102=FILL_AREA_STYLE('',(#113));
#103=FILL_AREA_STYLE('',(#114));
#104=FILL_AREA_STYLE('',(#115));
#105=FILL_AREA_STYLE('',(#116));
#106=FILL_AREA_STYLE('',(#117));
#107=FILL_AREA_STYLE('',(#118));
#108=FILL_AREA_STYLE('',(#119));
#109=FILL_AREA_STYLE('',(#120));
#110=FILL_AREA_STYLE('',(#121));
#111=FILL_AREA_STYLE('',(#122));
#112=FILL_AREA_STYLE('',(#123));
#113=FILL_AREA_STYLE_COLOUR('',#124);
#114=FILL_AREA_STYLE_COLOUR('',#40);
#115=FILL_AREA_STYLE_COLOUR('',#41);
#116=FILL_AREA_STYLE_COLOUR('',#41);
#117=FILL_AREA_STYLE_COLOUR('',#41);
#118=FILL_AREA_STYLE_COLOUR('',#41);
#119=FILL_AREA_STYLE_COLOUR('',#41);
#120=FILL_AREA_STYLE_COLOUR('',#41);
#121=FILL_AREA_STYLE_COLOUR('',#41);
#122=FILL_AREA_STYLE_COLOUR('',#41);
#123=FILL_AREA_STYLE_COLOUR('',#41);
#124=DRAUGHTING_PRE_DEFINED_COLOUR('yellow');
#125=MANIFOLD_SOLID_BREP('',#127);
#126=MANIFOLD_SOLID_BREP('',#128);
#127=CLOSED_SHELL('',(#129,#130));
#128=CLOSED_SHELL('',(#131,#132,#133,#134,#135,#136,#137,#138,#139));
#129=ADVANCED_FACE('',(#142,#143),#140,.F.);
#130=ADVANCED_FACE('',(#144,#145),#141,.F.);
#131=ADVANCED_FACE('',(#54),#53,.F.);
#132=ADVANCED_FACE('',(#146,#147),#49,.T.);
#133=ADVANCED_FACE('',(#148,#149),#47,.T.);
#134=ADVANCED_FACE('',(#150,#151),#50,.T.);
#135=ADVANCED_FACE('',(#152,#153),#51,.F.);
#136=ADVANCED_FACE('',(#154,#155),#52,.T.);
#137=ADVANCED_FACE('',(#156,#157),#48,.T.);
#138=ADVANCED_FACE('',(#158,#159),#44,.T.);
#139=ADVANCED_FACE('',(#160,#161),#42,.F.);
#140=(
BOUNDED_SURFACE()
B_SPLINE_SURFACE(3,3,((#296,#297,#298,#299,#300,#301,#302),(#303,#304,#305,
#306,#307,#308,#309),(#310,#311,#312,#313,#314,#315,#316),(#317,#318,#319,
#320,#321,#322,#323),(#324,#325,#326,#327,#328,#329,#330),(#331,#332,#333,
#334,#335,#336,#337),(#338,#339,#340,#341,#342,#343,#344)),
 .UNSPECIFIED.,.T.,.F.,.F.)
B_SPLINE_SURFACE_WITH_KNOTS((1,3,3,3,1),(4,3,4),(-0.5,0.,0.5,1.,1.5),(0.,
0.5,1.),.UNSPECIFIED.)
GEOMETRIC_REPRESENTATION_ITEM()
RATIONAL_B_SPLINE_SURFACE(((1.,0.586020350638552,0.586020350638552,1.,0.586020350638552,
0.586020350638552,1.),(0.333333333333334,0.195340116879517,0.195340116879517,
0.333333333333334,0.195340116879517,0.195340116879517,0.333333333333334),
(0.333333333333334,0.195340116879517,0.195340116879517,0.333333333333334,
0.195340116879517,0.195340116879517,0.333333333333334),(1.,0.586020350638552,
0.586020350638552,1.,0.586020350638552,0.586020350638552,1.),(0.333333333333334,
0.195340116879517,0.195340116879517,0.333333333333334,0.195340116879517,
0.195340116879517,0.333333333333334),(0.333333333333334,0.195340116879517,
0.195340116879517,0.333333333333334,0.195340116879517,0.195340116879517,
0.333333333333334),(1.,0.586020350638552,0.586020350638552,1.,0.586020350638552,
0.586020350638552,1.)))
REPRESENTATION_ITEM('')
SURFACE()
);
#141=(
BOUNDED_SURFACE()
B_SPLINE_SURFACE(3,3,((#345,#346,#347,#348),(#349,#350,#351,#352),(#353,
#354,#355,#356),(#357,#358,#359,#360),(#361,#362,#363,#364),(#365,#366,
#367,#368),(#369,#370,#371,#372)),.UNSPECIFIED.,.T.,.F.,.F.)
B_SPLINE_SURFACE_WITH_KNOTS((1,3,3,3,1),(4,4),(-0.5,0.,0.5,1.,1.5),(0.,
1.),.UNSPECIFIED.)
GEOMETRIC_REPRESENTATION_ITEM()
RATIONAL_B_SPLINE_SURFACE(((1.,0.808447813856176,0.808447813856176,1.),
(0.333333333333334,0.269482604618726,0.269482604618726,0.333333333333334),
(0.333333333333334,0.269482604618726,0.269482604618726,0.333333333333334),
(1.,0.808447813856176,0.808447813856176,1.),(0.333333333333334,0.269482604618726,
0.269482604618726,0.333333333333334),(0.333333333333334,0.269482604618726,
0.269482604618726,0.333333333333334),(1.,0.808447813856176,0.808447813856176,
1.)))
REPRESENTATION_ITEM('')
SURFACE()
);
#142=FACE_BOUND('',#162,.T.);
#143=FACE_BOUND('',#163,.T.);
#144=FACE_BOUND('',#164,.T.);
#145=FACE_BOUND('',#165,.T.);
#146=FACE_BOUND('',#167,.T.);
#147=FACE_BOUND('',#168,.T.);
#148=FACE_BOUND('',#169,.T.);
#149=FACE_BOUND('',#170,.T.);
#150=FACE_BOUND('',#171,.T.);
#151=FACE_BOUND('',#172,.T.);
#152=FACE_BOUND('',#173,.T.);
#153=FACE_BOUND('',#174,.T.);
#154=FACE_BOUND('',#175,.T.);
#155=FACE_BOUND('',#176,.T.);
#156=FACE_BOUND('',#177,.T.);
#157=FACE_BOUND('',#178,.T.);
#158=FACE_BOUND('',#179,.T.);
#159=FACE_BOUND('',#180,.T.);
#160=FACE_BOUND('',#181,.T.);
#161=FACE_BOUND('',#43,.T.);
#162=EDGE_LOOP('',(#182));
#163=EDGE_LOOP('',(#183));
#164=EDGE_LOOP('',(#184));
#165=EDGE_LOOP('',(#185));
#166=EDGE_LOOP('',(#186));
#167=EDGE_LOOP('',(#187));
#168=EDGE_LOOP('',(#188));
#169=EDGE_LOOP('',(#189));
#170=EDGE_LOOP('',(#190));
#171=EDGE_LOOP('',(#191));
#172=EDGE_LOOP('',(#192));
#173=EDGE_LOOP('',(#193));
#174=EDGE_LOOP('',(#194));
#175=EDGE_LOOP('',(#195));
#176=EDGE_LOOP('',(#196));
#177=EDGE_LOOP('',(#197));
#178=EDGE_LOOP('',(#198));
#179=EDGE_LOOP('',(#199));
#180=EDGE_LOOP('',(#200));
#181=EDGE_LOOP('',(#201));
#182=ORIENTED_EDGE('',*,*,#213,.T.);
#183=ORIENTED_EDGE('',*,*,#214,.F.);
#184=ORIENTED_EDGE('',*,*,#214,.T.);
#185=ORIENTED_EDGE('',*,*,#213,.F.);
#186=ORIENTED_EDGE('',*,*,#215,.F.);
#187=ORIENTED_EDGE('',*,*,#215,.T.);
#188=ORIENTED_EDGE('',*,*,#216,.F.);
#189=ORIENTED_EDGE('',*,*,#216,.T.);
#190=ORIENTED_EDGE('',*,*,#217,.F.);
#191=ORIENTED_EDGE('',*,*,#218,.F.);
#192=ORIENTED_EDGE('',*,*,#217,.T.);
#193=ORIENTED_EDGE('',*,*,#219,.F.);
#194=ORIENTED_EDGE('',*,*,#218,.T.);
#195=ORIENTED_EDGE('',*,*,#220,.F.);
#196=ORIENTED_EDGE('',*,*,#219,.T.);
#197=ORIENTED_EDGE('',*,*,#221,.F.);
#198=ORIENTED_EDGE('',*,*,#220,.T.);
#199=ORIENTED_EDGE('',*,*,#222,.F.);
#200=ORIENTED_EDGE('',*,*,#221,.T.);
#201=ORIENTED_EDGE('',*,*,#222,.T.);
#202=VERTEX_POINT('',#293);
#203=VERTEX_POINT('',#295);
#204=VERTEX_POINT('',#374);
#205=VERTEX_POINT('',#377);
#206=VERTEX_POINT('',#380);
#207=VERTEX_POINT('',#383);
#208=VERTEX_POINT('',#386);
#209=VERTEX_POINT('',#389);
#210=VERTEX_POINT('',#392);
#211=VERTEX_POINT('',#395);
#212=VERTEX_POINT('',#480);
#213=EDGE_CURVE('',#202,#202,#223,.T.);
#214=EDGE_CURVE('',#203,#203,#224,.T.);
#215=EDGE_CURVE('',#204,#204,#225,.T.);
#216=EDGE_CURVE('',#205,#205,#226,.T.);
#217=EDGE_CURVE('',#206,#206,#227,.T.);
#218=EDGE_CURVE('',#207,#207,#228,.T.);
#219=EDGE_CURVE('',#208,#208,#229,.T.);
#220=EDGE_CURVE('',#209,#209,#230,.T.);
#221=EDGE_CURVE('',#210,#210,#231,.T.);
#222=EDGE_CURVE('',#211,#211,#232,.T.);
#223=CIRCLE('',#234,8.);
#224=CIRCLE('',#235,8.);
#225=CIRCLE('',#236,27.);
#226=CIRCLE('',#238,29.);
#227=CIRCLE('',#240,29.);
#228=CIRCLE('',#242,28.8333333333333);
#229=CIRCLE('',#244,30.0833333333333);
#230=CIRCLE('',#246,30.5);
#231=CIRCLE('',#248,30.499999999997);
#232=CIRCLE('',#250,18.8475487203532);
#233=AXIS2_PLACEMENT_3D('',#291,#252,#253);
#234=AXIS2_PLACEMENT_3D('',#292,#254,#255);
#235=AXIS2_PLACEMENT_3D('',#294,#256,#257);
#236=AXIS2_PLACEMENT_3D('',#373,#258,#259);
#237=AXIS2_PLACEMENT_3D('',#375,#260,#261);
#238=AXIS2_PLACEMENT_3D('',#376,#262,#263);
#239=AXIS2_PLACEMENT_3D('',#378,#264,#265);
#240=AXIS2_PLACEMENT_3D('',#379,#266,#267);
#241=AXIS2_PLACEMENT_3D('',#381,#268,#269);
#242=AXIS2_PLACEMENT_3D('',#382,#270,#271);
#243=AXIS2_PLACEMENT_3D('',#384,#272,#273);
#244=AXIS2_PLACEMENT_3D('',#385,#274,#275);
#245=AXIS2_PLACEMENT_3D('',#387,#276,#277);
#246=AXIS2_PLACEMENT_3D('',#388,#278,#279);
#247=AXIS2_PLACEMENT_3D('',#390,#280,#281);
#248=AXIS2_PLACEMENT_3D('',#391,#282,#283);
#249=AXIS2_PLACEMENT_3D('',#393,#284,#285);
#250=AXIS2_PLACEMENT_3D('',#394,#286,#287);
#251=AXIS2_PLACEMENT_3D('',#481,#289,#290);
#252=DIRECTION('',(0.,0.,1.));
#253=DIRECTION('',(1.,0.,0.));
#254=DIRECTION('',(0.0871557427476584,0.996070314401709,0.0157418319704447));
#255=DIRECTION('',(0.996194698091746,-0.0871448605848526,-0.00137723184054405));
#256=DIRECTION('',(0.0871557427476584,0.,0.996194698091746));
#257=DIRECTION('',(0.996194698091746,0.,-0.0871557427476584));
#258=DIRECTION('',(-1.,0.,0.));
#259=DIRECTION('',(0.,0.,1.));
#260=DIRECTION('',(-1.,0.,0.));
#261=DIRECTION('',(0.,0.,1.));
#262=DIRECTION('',(-1.,0.,0.));
#263=DIRECTION('',(0.,0.,1.));
#264=DIRECTION('',(-1.,0.,0.));
#265=DIRECTION('',(0.,0.,1.));
#266=DIRECTION('',(-1.,0.,0.));
#267=DIRECTION('',(0.,0.,1.));
#268=DIRECTION('',(-1.,0.,0.));
#269=DIRECTION('',(0.,0.,1.));
#270=DIRECTION('',(-1.,0.,0.));
#271=DIRECTION('',(0.,0.,1.));
#272=DIRECTION('',(-1.,0.,0.));
#273=DIRECTION('',(0.,0.,1.));
#274=DIRECTION('',(-1.,0.,0.));
#275=DIRECTION('',(0.,0.,1.));
#276=DIRECTION('',(-1.,0.,0.));
#277=DIRECTION('',(0.,0.,1.));
#278=DIRECTION('',(-1.,0.,0.));
#279=DIRECTION('',(0.,0.,1.));
#280=DIRECTION('',(-1.,0.,0.));
#281=DIRECTION('',(0.,0.,1.));
#282=DIRECTION('',(-1.,0.,0.));
#283=DIRECTION('',(0.,0.,1.));
#284=DIRECTION('',(-1.,0.,0.));
#285=DIRECTION('',(0.,0.,1.));
#286=DIRECTION('',(-1.,0.,0.));
#287=DIRECTION('',(0.,0.,1.));
#288=DIRECTION('',(-1.,0.,0.));
#289=DIRECTION('',(-1.,0.,0.));
#290=DIRECTION('',(-4.31828557387012E-18,0.,1.));
#291=CARTESIAN_POINT('',(0.,0.,0.));
#292=CARTESIAN_POINT('',(7.96955758473396,0.407759459889039,24.9997740921658));
#293=CARTESIAN_POINT('',(15.9391151694679,-0.289399424789781,24.9887562374414));
#294=CARTESIAN_POINT('',(7.96955758473396,-24.99020925,0.802754058018734));
#295=CARTESIAN_POINT('',(15.9391151694679,-24.99020925,0.105508116037467));
#296=CARTESIAN_POINT('',(15.939115169468,-24.99020925,0.105508116037467));
#297=CARTESIAN_POINT('',(15.9391151694679,-25.101281092681,-26.2025020601272));
#298=CARTESIAN_POINT('',(15.9391151694679,-0.798364574495882,-36.2768251189509));
#299=CARTESIAN_POINT('',(15.939115169468,17.7358017285789,-17.6057668780963));
#300=CARTESIAN_POINT('',(15.9391151694679,36.2699680316538,1.06529136275844));
#301=CARTESIAN_POINT('',(15.9391151694679,26.0170811175573,25.2934164720229));
#302=CARTESIAN_POINT('',(15.939115169468,-0.289399424789783,24.9887562374414));
#303=CARTESIAN_POINT('',(15.9391151694679,-8.99020924999999,0.105508116037466));
#304=CARTESIAN_POINT('',(15.9391151694679,-9.101281092681,-9.35877904013551));
#305=CARTESIAN_POINT('',(15.9391151694679,-0.385279205639673,-13.0488169036037));
#306=CARTESIAN_POINT('',(15.9391151694679,6.33305419603075,-6.38180373182007));
#307=CARTESIAN_POINT('',(15.9391151694679,13.0513875977012,0.285209439963587));
#308=CARTESIAN_POINT('',(15.9391151694679,9.42829259625023,9.02925032156967));
#309=CARTESIAN_POINT('',(15.9391151694679,-0.03656801341048,8.99075397848981));
#310=CARTESIAN_POINT('',(-1.51746831460062E-15,-8.99020924999999,1.5));
#311=CARTESIAN_POINT('',(-1.51746831460062E-15,-10.5693082831242,-7.96428715617298));
#312=CARTESIAN_POINT('',(-1.51746831460062E-15,-2.40973351419697,-13.0128141414629));
#313=CARTESIAN_POINT('',(-1.51746831460062E-15,5.35482135144471,-7.37561866238334));
#314=CARTESIAN_POINT('',(-1.51746831460062E-15,13.1193762170864,-1.7384231833038));
#315=CARTESIAN_POINT('',(-1.51746831460062E-15,10.8458080772643,7.5834421367113));
#316=CARTESIAN_POINT('',(-1.51746831460062E-15,1.35774975594716,9.01278968793851));
#317=CARTESIAN_POINT('',(-3.46944695195361E-15,-24.99020925,1.5));
#318=CARTESIAN_POINT('',(-3.46944695195362E-15,-26.5693082831242,-24.8080101761647));
#319=CARTESIAN_POINT('',(-3.46944695195362E-15,-2.82281888305318,-36.2408223568101));
#320=CARTESIAN_POINT('',(-3.46944695195361E-15,16.7575688839929,-18.5995818086595));
#321=CARTESIAN_POINT('',(-3.46944695195362E-15,36.337956651039,-0.95834126050895));
#322=CARTESIAN_POINT('',(-3.46944695195362E-15,27.4345965985714,23.8476082871646));
#323=CARTESIAN_POINT('',(-3.46944695195361E-15,1.10491834456786,25.0107919468901));
#324=CARTESIAN_POINT('',(-5.42142558930661E-15,-40.99020925,1.5));
#325=CARTESIAN_POINT('',(-5.42142558930661E-15,-42.5693082831242,-41.6517331961564));
#326=CARTESIAN_POINT('',(-5.42142558930661E-15,-3.23590425190938,-59.4688305721572));
#327=CARTESIAN_POINT('',(-5.42142558930661E-15,28.1603164165411,-29.8235449549357));
#328=CARTESIAN_POINT('',(-5.42142558930661E-15,59.5565370849917,-0.178259337714089));
#329=CARTESIAN_POINT('',(-5.42142558930661E-15,44.0233851198785,40.1117744376178));
#330=CARTESIAN_POINT('',(-5.42142558930661E-15,0.852086933188552,41.0087942058417));
#331=CARTESIAN_POINT('',(15.9391151694679,-40.99020925,0.105508116037466));
#332=CARTESIAN_POINT('',(15.9391151694679,-41.101281092681,-43.046225080119));
#333=CARTESIAN_POINT('',(15.9391151694679,-1.21144994335208,-59.5048333342981));
#334=CARTESIAN_POINT('',(15.9391151694679,29.1385492611272,-28.8297300243724));
#335=CARTESIAN_POINT('',(15.9391151694679,59.4885484656064,1.84537328555329));
#336=CARTESIAN_POINT('',(15.9391151694679,42.6058696388645,41.5575826224762));
#337=CARTESIAN_POINT('',(15.9391151694679,-0.542230836169086,40.986758496393));
#338=CARTESIAN_POINT('',(15.939115169468,-24.99020925,0.105508116037467));
#339=CARTESIAN_POINT('',(15.9391151694679,-25.101281092681,-26.2025020601272));
#340=CARTESIAN_POINT('',(15.9391151694679,-0.798364574495882,-36.2768251189509));
#341=CARTESIAN_POINT('',(15.939115169468,17.7358017285789,-17.6057668780963));
#342=CARTESIAN_POINT('',(15.9391151694679,36.2699680316538,1.06529136275844));
#343=CARTESIAN_POINT('',(15.9391151694679,26.0170811175573,25.2934164720229));
#344=CARTESIAN_POINT('',(15.939115169468,-0.289399424789783,24.9887562374414));
#345=CARTESIAN_POINT('',(15.939115169468,-0.289399424789781,24.9887562374414));
#346=CARTESIAN_POINT('',(15.9391151694679,-14.7447170858492,24.8213465201864));
#347=CARTESIAN_POINT('',(15.9391151694679,-24.9291756667896,14.5616663054489));
#348=CARTESIAN_POINT('',(15.939115169468,-24.99020925,0.105508116037466));
#349=CARTESIAN_POINT('',(15.9391151694679,-0.0365680134104781,8.99075397848981));
#350=CARTESIAN_POINT('',(15.9391151694679,-5.23747531494213,8.96960037464257));
#351=CARTESIAN_POINT('',(15.9391151694679,-8.92917566678961,5.30610030691358));
#352=CARTESIAN_POINT('',(15.9391151694679,-8.99020924999999,0.105508116037466));
#353=CARTESIAN_POINT('',(-1.51746831460062E-15,1.35774975594716,9.01278968793851));
#354=CARTESIAN_POINT('',(-1.51746831460062E-15,-3.85590460577993,9.79821109266753));
#355=CARTESIAN_POINT('',(-1.51746831460062E-15,-8.1224999376373,6.7005921908761));
#356=CARTESIAN_POINT('',(-1.51746831460062E-15,-8.99020924999999,1.5));
#357=CARTESIAN_POINT('',(-3.46944695195361E-15,1.10491834456786,25.0107919468901));
#358=CARTESIAN_POINT('',(-3.46944695195361E-15,-13.363146376687,25.6499572382113));
#359=CARTESIAN_POINT('',(-3.46944695195361E-15,-24.1224999376373,15.9561581894114));
#360=CARTESIAN_POINT('',(-3.46944695195361E-15,-24.99020925,1.5));
#361=CARTESIAN_POINT('',(-5.42142558930661E-15,0.852086933188558,41.0087942058417));
#362=CARTESIAN_POINT('',(-5.4214255893066E-15,-22.870388147594,41.5017033837552));
#363=CARTESIAN_POINT('',(-5.4214255893066E-15,-40.1224999376373,25.2117241879468));
#364=CARTESIAN_POINT('',(-5.42142558930661E-15,-40.99020925,1.5));
#365=CARTESIAN_POINT('',(15.9391151694679,-0.542230836169084,40.986758496393));
#366=CARTESIAN_POINT('',(15.9391151694679,-24.2519588567562,40.6730926657302));
#367=CARTESIAN_POINT('',(15.9391151694679,-40.9291756667896,23.8172323039842));
#368=CARTESIAN_POINT('',(15.9391151694679,-40.99020925,0.105508116037465));
#369=CARTESIAN_POINT('',(15.939115169468,-0.289399424789781,24.9887562374414));
#370=CARTESIAN_POINT('',(15.9391151694679,-14.7447170858492,24.8213465201864));
#371=CARTESIAN_POINT('',(15.9391151694679,-24.9291756667896,14.5616663054489));
#372=CARTESIAN_POINT('',(15.939115169468,-24.99020925,0.105508116037466));
#373=CARTESIAN_POINT('',(50.,0.,0.));
#374=CARTESIAN_POINT('',(50.,0.,27.));
#375=CARTESIAN_POINT('',(50.,14.5,0.));
#376=CARTESIAN_POINT('',(48.,0.,0.));
#377=CARTESIAN_POINT('',(48.,0.,29.));
#378=CARTESIAN_POINT('',(48.,0.,0.));
#379=CARTESIAN_POINT('',(40.,0.,0.));
#380=CARTESIAN_POINT('',(40.,0.,29.));
#381=CARTESIAN_POINT('',(0.,0.,0.));
#382=CARTESIAN_POINT('',(38.7198090420219,0.,0.));
#383=CARTESIAN_POINT('',(38.7198090420219,0.,28.8333333333333));
#384=CARTESIAN_POINT('',(40.,0.,0.));
#385=CARTESIAN_POINT('',(22.3275385785632,0.,0.));
#386=CARTESIAN_POINT('',(22.3275385785632,0.,30.0833333333333));
#387=CARTESIAN_POINT('',(32.3188542521313,0.,0.));
#388=CARTESIAN_POINT('',(20.3292754438495,0.,0.));
#389=CARTESIAN_POINT('',(20.3292754438495,0.,30.5));
#390=CARTESIAN_POINT('',(20.3292754438495,0.,0.));
#391=CARTESIAN_POINT('',(11.6362518414353,0.,0.));
#392=CARTESIAN_POINT('',(11.6362518414353,0.,30.499999999997));
#393=CARTESIAN_POINT('',(0.,0.,0.));
#394=CARTESIAN_POINT('',(6.5,0.,0.));
#395=CARTESIAN_POINT('',(6.5,0.,18.8475487203532));
#396=CARTESIAN_POINT('',(0.955342863053684,25.6493594495795,0.));
#397=CARTESIAN_POINT('',(0.955342863053684,24.7812668087842,0.));
#398=CARTESIAN_POINT('',(0.998200778323583,24.3513259114862,0.));
#399=CARTESIAN_POINT('',(1.17043115424418,23.5004422196291,0.));
#400=CARTESIAN_POINT('',(1.29751072155804,23.0907054467238,0.));
#401=CARTESIAN_POINT('',(1.54770055481572,22.4989386359285,0.));
#402=CARTESIAN_POINT('',(1.64109959492445,22.3055178000159,0.));
#403=CARTESIAN_POINT('',(1.84849182539115,21.9265715885544,0.));
#404=CARTESIAN_POINT('',(1.96260111084607,21.7411815450724,0.));
#405=CARTESIAN_POINT('',(2.32817165293519,21.2095885758863,0.));
#406=CARTESIAN_POINT('',(2.60492665940335,20.8832603317347,0.));
#407=CARTESIAN_POINT('',(3.06961708603906,20.435865127601,0.));
#408=CARTESIAN_POINT('',(3.23386159150558,20.2930388257127,0.));
#409=CARTESIAN_POINT('',(3.57387248348655,20.0265581565652,0.));
#410=CARTESIAN_POINT('',(3.749388108426,19.9028898407553,0.));
#411=CARTESIAN_POINT('',(4.29194310216646,19.5596934302373,0.));
#412=CARTESIAN_POINT('',(4.67484110633359,19.3677141967728,0.));
#413=CARTESIAN_POINT('',(5.48396220383543,19.0590179981461,0.));
#414=CARTESIAN_POINT('',(5.90022262058443,18.9465189283824,0.));
#415=CARTESIAN_POINT('',(6.53256196062966,18.8395486735273,0.));
#416=CARTESIAN_POINT('',(6.74515058471924,18.8140846053927,0.));
#417=CARTESIAN_POINT('',(7.17397470269431,18.7837062722051,0.));
#418=CARTESIAN_POINT('',(7.39141498007425,18.7788542801408,0.));
#419=CARTESIAN_POINT('',(8.03911274022963,18.7958197136147,0.));
#420=CARTESIAN_POINT('',(8.46400604050536,18.8482431386137,0.));
#421=CARTESIAN_POINT('',(9.3004806195952,19.0323488709407,0.));
#422=CARTESIAN_POINT('',(9.71619683919525,19.1661890823698,0.));
#423=CARTESIAN_POINT('',(10.5057746765829,19.506264936149,0.));
#424=CARTESIAN_POINT('',(10.8811101470733,19.7118206160037,0.));
#425=CARTESIAN_POINT('',(11.5926921597222,20.1942998322301,0.));
#426=CARTESIAN_POINT('',(11.9291279284,20.4728186460426,0.));
#427=CARTESIAN_POINT('',(12.5337997264727,21.0800636290326,0.));
#428=CARTESIAN_POINT('',(12.8060612729563,21.4110946833387,0.));
#429=CARTESIAN_POINT('',(13.2877767716722,22.1303971228614,0.));
#430=CARTESIAN_POINT('',(13.491531193854,22.5109321900361,0.));
#431=CARTESIAN_POINT('',(13.738068854754,23.1038741243358,0.));
#432=CARTESIAN_POINT('',(13.8106281951062,23.3056776914648,0.));
#433=CARTESIAN_POINT('',(13.9360395160894,23.7177993629658,0.));
#434=CARTESIAN_POINT('',(13.9890267950772,23.9291771453369,0.));
#435=CARTESIAN_POINT('',(14.1146755597483,24.5636494313106,0.));
#436=CARTESIAN_POINT('',(14.1556043534757,24.989786756599,0.));
#437=CARTESIAN_POINT('',(14.152405528178,25.8483275049179,0.));
#438=CARTESIAN_POINT('',(14.1068270475318,26.2835837202745,0.));
#439=CARTESIAN_POINT('',(13.932388018369,27.1229519447921,0.));
#440=CARTESIAN_POINT('',(13.8040813611719,27.5315283399948,0.));
#441=CARTESIAN_POINT('',(13.5484973993322,28.1273276607766,0.));
#442=CARTESIAN_POINT('',(13.4527403106621,28.3225963016233,0.));
#443=CARTESIAN_POINT('',(13.2443809100014,28.6986054742545,0.));
#444=CARTESIAN_POINT('',(13.0182586553432,29.0623599567812,0.));
#445=CARTESIAN_POINT('',(12.757185917752,29.402001910014,0.));
#446=CARTESIAN_POINT('',(12.4784069447729,29.7294282346306,0.));
#447=CARTESIAN_POINT('',(12.3292398831731,29.8878744890988,0.));
#448=CARTESIAN_POINT('',(11.861980181815,30.336741513566,0.));
#449=CARTESIAN_POINT('',(11.5251836418645,30.6010012413266,0.));
#450=CARTESIAN_POINT('',(10.8025098245021,31.0616249875575,0.));
#451=CARTESIAN_POINT('',(10.4121782952609,31.2591595769503,0.));
#452=CARTESIAN_POINT('',(9.61165871600788,31.5694546226926,0.));
#453=CARTESIAN_POINT('',(9.199628288313,31.6844222878401,0.));
#454=CARTESIAN_POINT('',(8.56390032183996,31.7965139906366,0.));
#455=CARTESIAN_POINT('',(8.34783460806977,31.8237838899319,0.));
#456=CARTESIAN_POINT('',(7.91762863688296,31.8567399011713,0.));
#457=CARTESIAN_POINT('',(7.70311002849431,31.8626247599933,0.));
#458=CARTESIAN_POINT('',(7.0612608851323,31.8493419030024,0.));
#459=CARTESIAN_POINT('',(6.63562083153031,31.7995304228878,0.));
#460=CARTESIAN_POINT('',(5.78900648432881,31.6153301036747,0.));
#461=CARTESIAN_POINT('',(5.37920740338203,31.483091731072,0.));
#462=CARTESIAN_POINT('',(4.78999079503462,31.2288573228127,0.));
#463=CARTESIAN_POINT('',(4.59751311911152,31.1346558330336,0.));
#464=CARTESIAN_POINT('',(4.22054778978896,30.927016134593,0.));
#465=CARTESIAN_POINT('',(4.03512897440468,30.8128795437889,0.));
#466=CARTESIAN_POINT('',(3.50106468721531,30.4472545147146,0.));
#467=CARTESIAN_POINT('',(3.1728125964816,30.1724631484921,0.));
#468=CARTESIAN_POINT('',(2.57084653943037,29.5619631764445,0.));
#469=CARTESIAN_POINT('',(2.29522701493751,29.2224344513892,0.));
#470=CARTESIAN_POINT('',(1.82124475706844,28.5066175662074,0.));
#471=CARTESIAN_POINT('',(1.6202525710994,28.1287698969675,0.));
#472=CARTESIAN_POINT('',(1.37359253468861,27.5316299249034,0.));
#473=CARTESIAN_POINT('',(1.30033776351555,27.3264574027027,0.));
#474=CARTESIAN_POINT('',(1.1754486869993,26.9138008532153,0.));
#475=CARTESIAN_POINT('',(1.1234423376009,26.7056848282964,0.));
#476=CARTESIAN_POINT('',(0.998171857221921,26.0760704417072,0.));
#477=CARTESIAN_POINT('',(0.955342863053684,25.6493594495795,0.));
#478=CARTESIAN_POINT('',(0.955342863053684,24.7812668087842,0.));
#479=CARTESIAN_POINT('',(0.,0.,0.));
#480=CARTESIAN_POINT('',(8.14894684828338,0.,0.));
#481=CARTESIAN_POINT('',(6.5,0.,0.));
#482=(
GEOMETRIC_REPRESENTATION_CONTEXT(3)
GLOBAL_UNCERTAINTY_ASSIGNED_CONTEXT((#483))
GLOBAL_UNIT_ASSIGNED_CONTEXT((#489,#485,#484))
REPRESENTATION_CONTEXT('model1','TOP_LEVEL_ASSEMBLY_PART')
);
#483=UNCERTAINTY_MEASURE_WITH_UNIT(LENGTH_MEASURE(2.E-5),#489,
'DISTANCE_ACCURACY_VALUE','Maximum Tolerance applied to model');
#484=(
NAMED_UNIT(*)
SI_UNIT($,.STERADIAN.)
SOLID_ANGLE_UNIT()
);
#485=(
CONVERSION_BASED_UNIT('DEGREE',#487)
NAMED_UNIT(#486)
PLANE_ANGLE_UNIT()
);
#486=DIMENSIONAL_EXPONENTS(0.,0.,0.,0.,0.,0.,0.);
#487=PLANE_ANGLE_MEASURE_WITH_UNIT(PLANE_ANGLE_MEASURE(0.0174532925),#488);
#488=(
NAMED_UNIT(*)
PLANE_ANGLE_UNIT()
SI_UNIT($,.RADIAN.)
);
#489=(
LENGTH_UNIT()
NAMED_UNIT(*)
SI_UNIT(.MILLI.,.METRE.)
);
ENDSEC;
END-ISO-10303-21;
