ISO-10303-21;
HEADER;
/* Generated by software containing ST-Developer
 * from STEP Tools, Inc. (www.steptools.com) 
 */
/* OPTION: using custom schema-name function */

FILE_DESCRIPTION(
/* description */ (''),
/* implementation_level */ '2;1');

FILE_NAME(
/* name */ 'APMR-BNM20-D20-M10-L30.stp',
/* time_stamp */ '2023-09-29T19:35:59+03:00',
/* author */ (''),
/* organization */ (''),
/* preprocessor_version */ 'ST-DEVELOPER v19.4',
/* originating_system */ 'SIEMENS PLM Software NX2306.5001',
/* authorisation */ '');

FILE_SCHEMA (('AUTOMOTIVE_DESIGN { 1 0 10303 214 3 1 1 1 }'));
ENDSEC;

DATA;
#10=PROPERTY_DEFINITION_REPRESENTATION(#14,#12);
#11=PROPERTY_DEFINITION_REPRESENTATION(#15,#13);
#12=REPRESENTATION('',(#16),#546);
#13=REPRESENTATION('',(#17),#546);
#14=PROPERTY_DEFINITION('pmi validation property','',#21);
#15=PROPERTY_DEFINITION('pmi validation property','',#21);
#16=VALUE_REPRESENTATION_ITEM('number of annotations',COUNT_MEASURE(0.));
#17=VALUE_REPRESENTATION_ITEM('number of views',COUNT_MEASURE(0.));
#18=SHAPE_REPRESENTATION_RELATIONSHIP('None',
'relationship between APMR-BNM20-D20-M10-L30_objects-None and APMR-BNM
20-D20-M10-L30_objects-None',#30,#19);
#19=ADVANCED_BREP_SHAPE_REPRESENTATION(
'APMR-BNM20-D20-M10-L30_objects-None',(#195,#196),#546);
#20=SHAPE_DEFINITION_REPRESENTATION(#21,#30);
#21=PRODUCT_DEFINITION_SHAPE('','',#22);
#22=PRODUCT_DEFINITION(' ','',#24,#23);
#23=PRODUCT_DEFINITION_CONTEXT('part definition',#29,'design');
#24=PRODUCT_DEFINITION_FORMATION_WITH_SPECIFIED_SOURCE(' ',' ',#26,
 .NOT_KNOWN.);
#25=PRODUCT_RELATED_PRODUCT_CATEGORY('part','',(#26));
#26=PRODUCT('APMR-BNM20-D20-M10-L30_objects',
'APMR-BNM20-D20-M10-L30_objects',' ',(#27));
#27=PRODUCT_CONTEXT(' ',#29,'mechanical');
#28=APPLICATION_PROTOCOL_DEFINITION('international standard',
'automotive_design',2010,#29);
#29=APPLICATION_CONTEXT(
'core data for automotive mechanical design processes');
#30=SHAPE_REPRESENTATION('APMR-BNM20-D20-M10-L30_objects-None',(#370),#546);
#31=OVER_RIDING_STYLED_ITEM('',(#88),#212,#85);
#32=OVER_RIDING_STYLED_ITEM('',(#89),#213,#85);
#33=OVER_RIDING_STYLED_ITEM('',(#90),#214,#85);
#34=OVER_RIDING_STYLED_ITEM('',(#91),#215,#85);
#35=OVER_RIDING_STYLED_ITEM('',(#92),#216,#85);
#36=OVER_RIDING_STYLED_ITEM('',(#93),#217,#85);
#37=OVER_RIDING_STYLED_ITEM('',(#94),#218,#85);
#38=OVER_RIDING_STYLED_ITEM('',(#95),#219,#85);
#39=OVER_RIDING_STYLED_ITEM('',(#96),#220,#85);
#40=OVER_RIDING_STYLED_ITEM('',(#97),#221,#85);
#41=OVER_RIDING_STYLED_ITEM('',(#98),#222,#85);
#42=OVER_RIDING_STYLED_ITEM('',(#99),#223,#85);
#43=OVER_RIDING_STYLED_ITEM('',(#100),#224,#85);
#44=OVER_RIDING_STYLED_ITEM('',(#101),#225,#85);
#45=OVER_RIDING_STYLED_ITEM('',(#102),#226,#85);
#46=OVER_RIDING_STYLED_ITEM('',(#103),#227,#85);
#47=COLOUR_RGB('Medium Steel',0.611764705882353,0.658823529411765,0.670588235294118);
#48=COLOUR_RGB('silver gray',0.6,0.6,0.6);
#49=TOROIDAL_SURFACE('',#392,5.62999999999986,0.6);
#50=CYLINDRICAL_SURFACE('',#384,4.875);
#51=CYLINDRICAL_SURFACE('',#388,5.24999999999988);
#52=CYLINDRICAL_SURFACE('',#400,8.99999999999982);
#53=CYLINDRICAL_SURFACE('',#404,8.7999999999998);
#54=CYLINDRICAL_SURFACE('',#407,8.99999999999974);
#55=FACE_BOUND('',#241,.T.);
#56=FACE_BOUND('',#242,.T.);
#57=FACE_BOUND('',#243,.T.);
#58=FACE_BOUND('',#244,.T.);
#59=FACE_BOUND('',#245,.T.);
#60=FACE_BOUND('',#246,.T.);
#61=FACE_BOUND('',#247,.T.);
#62=FACE_BOUND('',#248,.T.);
#63=FACE_BOUND('',#249,.T.);
#64=FACE_BOUND('',#250,.T.);
#65=FACE_BOUND('',#251,.T.);
#66=FACE_BOUND('',#252,.T.);
#67=FACE_BOUND('',#253,.T.);
#68=FACE_BOUND('',#254,.T.);
#69=FACE_BOUND('',#255,.T.);
#70=FACE_BOUND('',#256,.T.);
#71=FACE_BOUND('',#257,.T.);
#72=FACE_BOUND('',#258,.T.);
#73=FACE_BOUND('',#259,.T.);
#74=FACE_BOUND('',#260,.T.);
#75=FACE_BOUND('',#261,.T.);
#76=FACE_BOUND('',#262,.T.);
#77=FACE_BOUND('',#263,.T.);
#78=FACE_BOUND('',#264,.T.);
#79=FACE_BOUND('',#265,.T.);
#80=FACE_BOUND('',#266,.T.);
#81=FACE_BOUND('',#267,.T.);
#82=FACE_BOUND('',#268,.T.);
#83=PRESENTATION_LAYER_ASSIGNMENT('1','Layer 1',(#195,#196));
#84=STYLED_ITEM('',(#86),#195);
#85=STYLED_ITEM('',(#87),#196);
#86=PRESENTATION_STYLE_ASSIGNMENT((#104));
#87=PRESENTATION_STYLE_ASSIGNMENT((#105));
#88=PRESENTATION_STYLE_ASSIGNMENT((#106));
#89=PRESENTATION_STYLE_ASSIGNMENT((#107));
#90=PRESENTATION_STYLE_ASSIGNMENT((#108));
#91=PRESENTATION_STYLE_ASSIGNMENT((#109));
#92=PRESENTATION_STYLE_ASSIGNMENT((#110));
#93=PRESENTATION_STYLE_ASSIGNMENT((#111));
#94=PRESENTATION_STYLE_ASSIGNMENT((#112));
#95=PRESENTATION_STYLE_ASSIGNMENT((#113));
#96=PRESENTATION_STYLE_ASSIGNMENT((#114));
#97=PRESENTATION_STYLE_ASSIGNMENT((#115));
#98=PRESENTATION_STYLE_ASSIGNMENT((#116));
#99=PRESENTATION_STYLE_ASSIGNMENT((#117));
#100=PRESENTATION_STYLE_ASSIGNMENT((#118));
#101=PRESENTATION_STYLE_ASSIGNMENT((#119));
#102=PRESENTATION_STYLE_ASSIGNMENT((#120));
#103=PRESENTATION_STYLE_ASSIGNMENT((#121));
#104=SURFACE_STYLE_USAGE(.BOTH.,#122);
#105=SURFACE_STYLE_USAGE(.BOTH.,#123);
#106=SURFACE_STYLE_USAGE(.BOTH.,#124);
#107=SURFACE_STYLE_USAGE(.BOTH.,#125);
#108=SURFACE_STYLE_USAGE(.BOTH.,#126);
#109=SURFACE_STYLE_USAGE(.BOTH.,#127);
#110=SURFACE_STYLE_USAGE(.BOTH.,#128);
#111=SURFACE_STYLE_USAGE(.BOTH.,#129);
#112=SURFACE_STYLE_USAGE(.BOTH.,#130);
#113=SURFACE_STYLE_USAGE(.BOTH.,#131);
#114=SURFACE_STYLE_USAGE(.BOTH.,#132);
#115=SURFACE_STYLE_USAGE(.BOTH.,#133);
#116=SURFACE_STYLE_USAGE(.BOTH.,#134);
#117=SURFACE_STYLE_USAGE(.BOTH.,#135);
#118=SURFACE_STYLE_USAGE(.BOTH.,#136);
#119=SURFACE_STYLE_USAGE(.BOTH.,#137);
#120=SURFACE_STYLE_USAGE(.BOTH.,#138);
#121=SURFACE_STYLE_USAGE(.BOTH.,#139);
#122=SURFACE_SIDE_STYLE('',(#140));
#123=SURFACE_SIDE_STYLE('',(#141));
#124=SURFACE_SIDE_STYLE('',(#142));
#125=SURFACE_SIDE_STYLE('',(#143));
#126=SURFACE_SIDE_STYLE('',(#144));
#127=SURFACE_SIDE_STYLE('',(#145));
#128=SURFACE_SIDE_STYLE('',(#146));
#129=SURFACE_SIDE_STYLE('',(#147));
#130=SURFACE_SIDE_STYLE('',(#148));
#131=SURFACE_SIDE_STYLE('',(#149));
#132=SURFACE_SIDE_STYLE('',(#150));
#133=SURFACE_SIDE_STYLE('',(#151));
#134=SURFACE_SIDE_STYLE('',(#152));
#135=SURFACE_SIDE_STYLE('',(#153));
#136=SURFACE_SIDE_STYLE('',(#154));
#137=SURFACE_SIDE_STYLE('',(#155));
#138=SURFACE_SIDE_STYLE('',(#156));
#139=SURFACE_SIDE_STYLE('',(#157));
#140=SURFACE_STYLE_FILL_AREA(#158);
#141=SURFACE_STYLE_FILL_AREA(#159);
#142=SURFACE_STYLE_FILL_AREA(#160);
#143=SURFACE_STYLE_FILL_AREA(#161);
#144=SURFACE_STYLE_FILL_AREA(#162);
#145=SURFACE_STYLE_FILL_AREA(#163);
#146=SURFACE_STYLE_FILL_AREA(#164);
#147=SURFACE_STYLE_FILL_AREA(#165);
#148=SURFACE_STYLE_FILL_AREA(#166);
#149=SURFACE_STYLE_FILL_AREA(#167);
#150=SURFACE_STYLE_FILL_AREA(#168);
#151=SURFACE_STYLE_FILL_AREA(#169);
#152=SURFACE_STYLE_FILL_AREA(#170);
#153=SURFACE_STYLE_FILL_AREA(#171);
#154=SURFACE_STYLE_FILL_AREA(#172);
#155=SURFACE_STYLE_FILL_AREA(#173);
#156=SURFACE_STYLE_FILL_AREA(#174);
#157=SURFACE_STYLE_FILL_AREA(#175);
#158=FILL_AREA_STYLE('',(#176));
#159=FILL_AREA_STYLE('',(#177));
#160=FILL_AREA_STYLE('',(#178));
#161=FILL_AREA_STYLE('',(#179));
#162=FILL_AREA_STYLE('',(#180));
#163=FILL_AREA_STYLE('',(#181));
#164=FILL_AREA_STYLE('',(#182));
#165=FILL_AREA_STYLE('',(#183));
#166=FILL_AREA_STYLE('',(#184));
#167=FILL_AREA_STYLE('',(#185));
#168=FILL_AREA_STYLE('',(#186));
#169=FILL_AREA_STYLE('',(#187));
#170=FILL_AREA_STYLE('',(#188));
#171=FILL_AREA_STYLE('',(#189));
#172=FILL_AREA_STYLE('',(#190));
#173=FILL_AREA_STYLE('',(#191));
#174=FILL_AREA_STYLE('',(#192));
#175=FILL_AREA_STYLE('',(#193));
#176=FILL_AREA_STYLE_COLOUR('',#194);
#177=FILL_AREA_STYLE_COLOUR('',#47);
#178=FILL_AREA_STYLE_COLOUR('',#48);
#179=FILL_AREA_STYLE_COLOUR('',#48);
#180=FILL_AREA_STYLE_COLOUR('',#48);
#181=FILL_AREA_STYLE_COLOUR('',#48);
#182=FILL_AREA_STYLE_COLOUR('',#48);
#183=FILL_AREA_STYLE_COLOUR('',#48);
#184=FILL_AREA_STYLE_COLOUR('',#48);
#185=FILL_AREA_STYLE_COLOUR('',#48);
#186=FILL_AREA_STYLE_COLOUR('',#48);
#187=FILL_AREA_STYLE_COLOUR('',#48);
#188=FILL_AREA_STYLE_COLOUR('',#48);
#189=FILL_AREA_STYLE_COLOUR('',#48);
#190=FILL_AREA_STYLE_COLOUR('',#48);
#191=FILL_AREA_STYLE_COLOUR('',#48);
#192=FILL_AREA_STYLE_COLOUR('',#48);
#193=FILL_AREA_STYLE_COLOUR('',#48);
#194=DRAUGHTING_PRE_DEFINED_COLOUR('yellow');
#195=MANIFOLD_SOLID_BREP('',#197);
#196=MANIFOLD_SOLID_BREP('',#198);
#197=CLOSED_SHELL('',(#209,#210,#211));
#198=CLOSED_SHELL('',(#212,#213,#214,#215,#216,#217,#218,#219,#220,#221,
#222,#223,#224,#225,#226,#227));
#199=SPHERICAL_SURFACE('',#376,10.);
#200=SPHERICAL_SURFACE('',#378,9.);
#201=CONICAL_SURFACE('',#374,9.84807753012235,10.0000000000007);
#202=CONICAL_SURFACE('',#382,3.625,45.0000000000001);
#203=CONICAL_SURFACE('',#386,4.87499999999991,30.);
#204=CONICAL_SURFACE('',#390,5.24999999999987,15.0000000000004);
#205=CONICAL_SURFACE('',#394,5.78529142706137,75.0000000000003);
#206=CONICAL_SURFACE('',#398,8.49999999999984,44.9999999999996);
#207=CONICAL_SURFACE('',#402,8.99999999999981,45.000000000001);
#208=CONICAL_SURFACE('',#406,8.79999999999979,44.9999999999995);
#209=ADVANCED_FACE('',(#231),#228,.T.);
#210=ADVANCED_FACE('',(#232),#201,.T.);
#211=ADVANCED_FACE('',(#233),#199,.T.);
#212=ADVANCED_FACE('',(#234),#200,.T.);
#213=ADVANCED_FACE('',(#235),#229,.F.);
#214=ADVANCED_FACE('',(#55,#56),#202,.T.);
#215=ADVANCED_FACE('',(#57,#58),#50,.T.);
#216=ADVANCED_FACE('',(#59,#60),#203,.T.);
#217=ADVANCED_FACE('',(#61,#62),#51,.T.);
#218=ADVANCED_FACE('',(#63,#64),#204,.T.);
#219=ADVANCED_FACE('',(#65,#66),#49,.F.);
#220=ADVANCED_FACE('',(#67,#68),#205,.F.);
#221=ADVANCED_FACE('',(#69,#70),#230,.F.);
#222=ADVANCED_FACE('',(#71,#72),#206,.T.);
#223=ADVANCED_FACE('',(#73,#74),#52,.T.);
#224=ADVANCED_FACE('',(#75,#76),#207,.T.);
#225=ADVANCED_FACE('',(#77,#78),#53,.T.);
#226=ADVANCED_FACE('',(#79,#80),#208,.T.);
#227=ADVANCED_FACE('',(#81,#82),#54,.T.);
#228=PLANE('',#372);
#229=PLANE('',#380);
#230=PLANE('',#396);
#231=FACE_OUTER_BOUND('',#236,.T.);
#232=FACE_OUTER_BOUND('',#237,.T.);
#233=FACE_OUTER_BOUND('',#238,.T.);
#234=FACE_OUTER_BOUND('',#239,.T.);
#235=FACE_OUTER_BOUND('',#240,.T.);
#236=EDGE_LOOP('',(#287,#288,#289));
#237=EDGE_LOOP('',(#290,#291,#292,#293));
#238=EDGE_LOOP('',(#294,#295,#296));
#239=EDGE_LOOP('',(#297));
#240=EDGE_LOOP('',(#298));
#241=EDGE_LOOP('',(#299));
#242=EDGE_LOOP('',(#300));
#243=EDGE_LOOP('',(#301));
#244=EDGE_LOOP('',(#302));
#245=EDGE_LOOP('',(#303));
#246=EDGE_LOOP('',(#304));
#247=EDGE_LOOP('',(#305));
#248=EDGE_LOOP('',(#306));
#249=EDGE_LOOP('',(#307));
#250=EDGE_LOOP('',(#308));
#251=EDGE_LOOP('',(#309));
#252=EDGE_LOOP('',(#310));
#253=EDGE_LOOP('',(#311));
#254=EDGE_LOOP('',(#312));
#255=EDGE_LOOP('',(#313));
#256=EDGE_LOOP('',(#314));
#257=EDGE_LOOP('',(#315));
#258=EDGE_LOOP('',(#316));
#259=EDGE_LOOP('',(#317));
#260=EDGE_LOOP('',(#318));
#261=EDGE_LOOP('',(#319));
#262=EDGE_LOOP('',(#320));
#263=EDGE_LOOP('',(#321));
#264=EDGE_LOOP('',(#322));
#265=EDGE_LOOP('',(#323));
#266=EDGE_LOOP('',(#324));
#267=EDGE_LOOP('',(#325));
#268=EDGE_LOOP('',(#326));
#269=CIRCLE('',#371,9.27263121531536);
#270=CIRCLE('',#373,9.84807753012235);
#271=CIRCLE('',#375,10.);
#272=CIRCLE('',#377,8.9999999999997);
#273=CIRCLE('',#379,3.625);
#274=CIRCLE('',#381,4.875);
#275=CIRCLE('',#383,4.8749999999999);
#276=CIRCLE('',#385,5.2499999999999);
#277=CIRCLE('',#387,5.24999999999987);
#278=CIRCLE('',#389,5.05044450422642);
#279=CIRCLE('',#391,5.78529142706137);
#280=CIRCLE('',#393,6.53004267621746);
#281=CIRCLE('',#395,8.49999999999984);
#282=CIRCLE('',#397,8.99999999999984);
#283=CIRCLE('',#399,8.99999999999981);
#284=CIRCLE('',#401,8.7999999999998);
#285=CIRCLE('',#403,8.79999999999979);
#286=CIRCLE('',#405,8.99999999999979);
#287=ORIENTED_EDGE('',*,*,#346,.F.);
#288=ORIENTED_EDGE('',*,*,#347,.F.);
#289=ORIENTED_EDGE('',*,*,#346,.T.);
#290=ORIENTED_EDGE('',*,*,#348,.F.);
#291=ORIENTED_EDGE('',*,*,#349,.F.);
#292=ORIENTED_EDGE('',*,*,#348,.T.);
#293=ORIENTED_EDGE('',*,*,#347,.T.);
#294=ORIENTED_EDGE('',*,*,#350,.F.);
#295=ORIENTED_EDGE('',*,*,#350,.T.);
#296=ORIENTED_EDGE('',*,*,#349,.T.);
#297=ORIENTED_EDGE('',*,*,#351,.T.);
#298=ORIENTED_EDGE('',*,*,#352,.F.);
#299=ORIENTED_EDGE('',*,*,#353,.F.);
#300=ORIENTED_EDGE('',*,*,#352,.T.);
#301=ORIENTED_EDGE('',*,*,#354,.F.);
#302=ORIENTED_EDGE('',*,*,#353,.T.);
#303=ORIENTED_EDGE('',*,*,#355,.F.);
#304=ORIENTED_EDGE('',*,*,#354,.T.);
#305=ORIENTED_EDGE('',*,*,#356,.F.);
#306=ORIENTED_EDGE('',*,*,#355,.T.);
#307=ORIENTED_EDGE('',*,*,#357,.F.);
#308=ORIENTED_EDGE('',*,*,#356,.T.);
#309=ORIENTED_EDGE('',*,*,#358,.F.);
#310=ORIENTED_EDGE('',*,*,#357,.T.);
#311=ORIENTED_EDGE('',*,*,#359,.F.);
#312=ORIENTED_EDGE('',*,*,#358,.T.);
#313=ORIENTED_EDGE('',*,*,#360,.F.);
#314=ORIENTED_EDGE('',*,*,#359,.T.);
#315=ORIENTED_EDGE('',*,*,#361,.F.);
#316=ORIENTED_EDGE('',*,*,#360,.T.);
#317=ORIENTED_EDGE('',*,*,#362,.F.);
#318=ORIENTED_EDGE('',*,*,#361,.T.);
#319=ORIENTED_EDGE('',*,*,#363,.F.);
#320=ORIENTED_EDGE('',*,*,#362,.T.);
#321=ORIENTED_EDGE('',*,*,#364,.F.);
#322=ORIENTED_EDGE('',*,*,#363,.T.);
#323=ORIENTED_EDGE('',*,*,#365,.F.);
#324=ORIENTED_EDGE('',*,*,#364,.T.);
#325=ORIENTED_EDGE('',*,*,#351,.F.);
#326=ORIENTED_EDGE('',*,*,#365,.T.);
#327=VERTEX_POINT('',#488);
#328=VERTEX_POINT('',#489);
#329=VERTEX_POINT('',#493);
#330=VERTEX_POINT('',#497);
#331=VERTEX_POINT('',#500);
#332=VERTEX_POINT('',#503);
#333=VERTEX_POINT('',#506);
#334=VERTEX_POINT('',#509);
#335=VERTEX_POINT('',#512);
#336=VERTEX_POINT('',#515);
#337=VERTEX_POINT('',#518);
#338=VERTEX_POINT('',#521);
#339=VERTEX_POINT('',#524);
#340=VERTEX_POINT('',#527);
#341=VERTEX_POINT('',#530);
#342=VERTEX_POINT('',#533);
#343=VERTEX_POINT('',#536);
#344=VERTEX_POINT('',#539);
#345=VERTEX_POINT('',#542);
#346=EDGE_CURVE('',#327,#328,#366,.T.);
#347=EDGE_CURVE('',#327,#327,#269,.T.);
#348=EDGE_CURVE('',#329,#327,#367,.T.);
#349=EDGE_CURVE('',#329,#329,#270,.T.);
#350=EDGE_CURVE('',#330,#329,#271,.T.);
#351=EDGE_CURVE('',#331,#331,#272,.T.);
#352=EDGE_CURVE('',#332,#332,#273,.T.);
#353=EDGE_CURVE('',#333,#333,#274,.T.);
#354=EDGE_CURVE('',#334,#334,#275,.T.);
#355=EDGE_CURVE('',#335,#335,#276,.T.);
#356=EDGE_CURVE('',#336,#336,#277,.T.);
#357=EDGE_CURVE('',#337,#337,#278,.T.);
#358=EDGE_CURVE('',#338,#338,#279,.T.);
#359=EDGE_CURVE('',#339,#339,#280,.T.);
#360=EDGE_CURVE('',#340,#340,#281,.T.);
#361=EDGE_CURVE('',#341,#341,#282,.T.);
#362=EDGE_CURVE('',#342,#342,#283,.T.);
#363=EDGE_CURVE('',#343,#343,#284,.T.);
#364=EDGE_CURVE('',#344,#344,#285,.T.);
#365=EDGE_CURVE('',#345,#345,#286,.T.);
#366=LINE('',#487,#368);
#367=LINE('',#492,#369);
#368=VECTOR('',#410,1.);
#369=VECTOR('',#415,1.);
#370=AXIS2_PLACEMENT_3D('',#486,#408,#409);
#371=AXIS2_PLACEMENT_3D('',#490,#411,#412);
#372=AXIS2_PLACEMENT_3D('',#491,#413,#414);
#373=AXIS2_PLACEMENT_3D('',#494,#416,#417);
#374=AXIS2_PLACEMENT_3D('',#495,#418,#419);
#375=AXIS2_PLACEMENT_3D('',#496,#420,#421);
#376=AXIS2_PLACEMENT_3D('',#498,#422,#423);
#377=AXIS2_PLACEMENT_3D('',#499,#424,#425);
#378=AXIS2_PLACEMENT_3D('',#501,#426,#427);
#379=AXIS2_PLACEMENT_3D('',#502,#428,#429);
#380=AXIS2_PLACEMENT_3D('',#504,#430,#431);
#381=AXIS2_PLACEMENT_3D('',#505,#432,#433);
#382=AXIS2_PLACEMENT_3D('',#507,#434,#435);
#383=AXIS2_PLACEMENT_3D('',#508,#436,#437);
#384=AXIS2_PLACEMENT_3D('',#510,#438,#439);
#385=AXIS2_PLACEMENT_3D('',#511,#440,#441);
#386=AXIS2_PLACEMENT_3D('',#513,#442,#443);
#387=AXIS2_PLACEMENT_3D('',#514,#444,#445);
#388=AXIS2_PLACEMENT_3D('',#516,#446,#447);
#389=AXIS2_PLACEMENT_3D('',#517,#448,#449);
#390=AXIS2_PLACEMENT_3D('',#519,#450,#451);
#391=AXIS2_PLACEMENT_3D('',#520,#452,#453);
#392=AXIS2_PLACEMENT_3D('',#522,#454,#455);
#393=AXIS2_PLACEMENT_3D('',#523,#456,#457);
#394=AXIS2_PLACEMENT_3D('',#525,#458,#459);
#395=AXIS2_PLACEMENT_3D('',#526,#460,#461);
#396=AXIS2_PLACEMENT_3D('',#528,#462,#463);
#397=AXIS2_PLACEMENT_3D('',#529,#464,#465);
#398=AXIS2_PLACEMENT_3D('',#531,#466,#467);
#399=AXIS2_PLACEMENT_3D('',#532,#468,#469);
#400=AXIS2_PLACEMENT_3D('',#534,#470,#471);
#401=AXIS2_PLACEMENT_3D('',#535,#472,#473);
#402=AXIS2_PLACEMENT_3D('',#537,#474,#475);
#403=AXIS2_PLACEMENT_3D('',#538,#476,#477);
#404=AXIS2_PLACEMENT_3D('',#540,#478,#479);
#405=AXIS2_PLACEMENT_3D('',#541,#480,#481);
#406=AXIS2_PLACEMENT_3D('',#543,#482,#483);
#407=AXIS2_PLACEMENT_3D('',#544,#484,#485);
#408=DIRECTION('',(0.,0.,1.));
#409=DIRECTION('',(1.,0.,0.));
#410=DIRECTION('',(-1.87079959905194E-16,1.,0.));
#411=DIRECTION('',(-1.,7.15880540098864E-15,0.));
#412=DIRECTION('',(-7.10903847639721E-15,-1.,0.));
#413=DIRECTION('',(1.,-7.15880540098864E-15,0.));
#414=DIRECTION('',(7.15920378535628E-15,1.,0.));
#415=DIRECTION('',(0.984807753012207,0.173648177666936,0.));
#416=DIRECTION('',(-1.,7.15880540098864E-15,0.));
#417=DIRECTION('',(-7.22208596525595E-15,-1.,0.));
#418=DIRECTION('',(-1.,7.15880540098864E-15,0.));
#419=DIRECTION('',(-7.06281715301105E-15,-1.,0.));
#420=DIRECTION('',(0.,0.,1.));
#421=DIRECTION('',(1.,0.,0.));
#422=DIRECTION('',(-1.,7.09757306103127E-15,0.));
#423=DIRECTION('',(-7.11236625150491E-15,-1.,0.));
#424=DIRECTION('',(-1.,7.15880540098864E-15,0.));
#425=DIRECTION('',(-7.13164095679378E-15,-1.,0.));
#426=DIRECTION('',(-1.,7.22003774094601E-15,0.));
#427=DIRECTION('',(7.13164095679354E-15,1.,0.));
#428=DIRECTION('',(-1.,7.15880540098864E-15,0.));
#429=DIRECTION('',(-7.65671051465625E-15,-1.,0.));
#430=DIRECTION('',(-1.,7.15880540098864E-15,0.));
#431=DIRECTION('',(-7.16093850883226E-15,-1.,0.));
#432=DIRECTION('',(-1.,7.15880540098864E-15,0.));
#433=DIRECTION('',(-7.11681426041767E-15,-1.,0.));
#434=DIRECTION('',(-1.,7.15880540098864E-15,0.));
#435=DIRECTION('',(-7.14890152859887E-15,-1.,0.));
#436=DIRECTION('',(-1.,7.15880540098864E-15,0.));
#437=DIRECTION('',(-7.11681426041782E-15,-1.,0.));
#438=DIRECTION('',(-1.,7.15880540098864E-15,0.));
#439=DIRECTION('',(-7.15880540098864E-15,-1.,0.));
#440=DIRECTION('',(-1.,7.15880540098864E-15,0.));
#441=DIRECTION('',(-6.60847038467368E-15,-1.,0.));
#442=DIRECTION('',(-1.,7.15880540098864E-15,0.));
#443=DIRECTION('',(-7.23415630093498E-15,-1.,0.));
#444=DIRECTION('',(-1.,7.15880540098864E-15,0.));
#445=DIRECTION('',(-6.60847038467371E-15,-1.,0.));
#446=DIRECTION('',(-1.,7.15880540098864E-15,0.));
#447=DIRECTION('',(-7.15880540098864E-15,-1.,0.));
#448=DIRECTION('',(-1.,7.15880540098864E-15,0.));
#449=DIRECTION('',(-6.86958731860183E-15,-1.,0.));
#450=DIRECTION('',(1.,-7.15880540098864E-15,0.));
#451=DIRECTION('',(7.64499721426736E-15,1.,0.));
#452=DIRECTION('',(-1.,7.15880540098864E-15,0.));
#453=DIRECTION('',(-7.19641593657642E-15,-1.,0.));
#454=DIRECTION('',(-1.,7.15880540098864E-15,0.));
#455=DIRECTION('',(-7.23961643264815E-15,-1.,0.));
#456=DIRECTION('',(-1.,7.15880540098864E-15,0.));
#457=DIRECTION('',(-6.90697023155182E-15,-1.,0.));
#458=DIRECTION('',(1.,-7.15880540098864E-15,0.));
#459=DIRECTION('',(7.21115978760212E-15,1.,0.));
#460=DIRECTION('',(-1.,7.15880540098864E-15,0.));
#461=DIRECTION('',(-7.34706413354897E-15,-1.,0.));
#462=DIRECTION('',(-1.,7.15880540098864E-15,0.));
#463=DIRECTION('',(-7.15746906188031E-15,-1.,0.));
#464=DIRECTION('',(-1.,7.15880540098864E-15,0.));
#465=DIRECTION('',(-7.32438800967998E-15,-1.,0.));
#466=DIRECTION('',(-1.,7.15880540098864E-15,0.));
#467=DIRECTION('',(-7.12810519033017E-15,-1.,0.));
#468=DIRECTION('',(-1.,7.15880540098864E-15,0.));
#469=DIRECTION('',(-7.32438800968001E-15,-1.,0.));
#470=DIRECTION('',(-1.,7.15880540098864E-15,0.));
#471=DIRECTION('',(-7.15880540098864E-15,-1.,0.));
#472=DIRECTION('',(-1.,7.15880540098864E-15,0.));
#473=DIRECTION('',(-7.0965960380871E-15,-1.,0.));
#474=DIRECTION('',(1.,-7.15880540098864E-15,0.));
#475=DIRECTION('',(7.15208093167816E-15,1.,0.));
#476=DIRECTION('',(-1.,7.15880540098864E-15,0.));
#477=DIRECTION('',(-7.09659603808711E-15,-1.,0.));
#478=DIRECTION('',(-1.,7.15880540098864E-15,0.));
#479=DIRECTION('',(-7.15880540098864E-15,-1.,0.));
#480=DIRECTION('',(-1.,7.15880540098864E-15,0.));
#481=DIRECTION('',(-7.32438800968002E-15,-1.,0.));
#482=DIRECTION('',(-1.,7.15880540098864E-15,0.));
#483=DIRECTION('',(-7.13286377711333E-15,-1.,0.));
#484=DIRECTION('',(-1.,7.15880540098864E-15,0.));
#485=DIRECTION('',(-7.15880540098864E-15,-1.,0.));
#486=CARTESIAN_POINT('',(0.,0.,0.));
#487=CARTESIAN_POINT('',(15.,0.,0.));
#488=CARTESIAN_POINT('',(15.,-9.27263121531511,0.));
#489=CARTESIAN_POINT('',(15.,0.,0.));
#490=CARTESIAN_POINT('',(15.,2.50558189034602E-13,0.));
#491=CARTESIAN_POINT('',(15.,-2.37604196167511E-28,0.));
#492=CARTESIAN_POINT('',(11.7364817766693,-9.84807753012208,0.));
#493=CARTESIAN_POINT('',(11.7364817766693,-9.84807753012208,0.));
#494=CARTESIAN_POINT('',(11.7364817766694,2.73921080918007E-13,0.));
#495=CARTESIAN_POINT('',(11.7364817766694,2.73921080918007E-13,0.));
#496=CARTESIAN_POINT('',(10.,0.,0.));
#497=CARTESIAN_POINT('',(-1.7347234759768E-15,1.22464679914735E-15,0.));
#498=CARTESIAN_POINT('',(10.,0.,0.));
#499=CARTESIAN_POINT('',(10.,2.86352216039546E-13,0.));
#500=CARTESIAN_POINT('',(9.99999999999994,-8.99999999999942,0.));
#501=CARTESIAN_POINT('',(10.,-1.74574066942156E-14,0.));
#502=CARTESIAN_POINT('',(50.,1.97215226305253E-28,0.));
#503=CARTESIAN_POINT('',(50.,-3.625,0.));
#504=CARTESIAN_POINT('',(50.,3.625,0.));
#505=CARTESIAN_POINT('',(48.75,8.94850675123591E-15,0.));
#506=CARTESIAN_POINT('',(48.75,-4.87499999999999,0.));
#507=CARTESIAN_POINT('',(50.,1.97215226305253E-28,0.));
#508=CARTESIAN_POINT('',(36.6495190528383,9.55734951103372E-14,0.));
#509=CARTESIAN_POINT('',(36.6495190528383,-4.8749999999998,0.));
#510=CARTESIAN_POINT('',(-2.27682456221956E-14,3.57940270049432E-13,0.));
#511=CARTESIAN_POINT('',(36.,1.00223275613841E-13,0.));
#512=CARTESIAN_POINT('',(36.,-5.2499999999998,0.));
#513=CARTESIAN_POINT('',(36.6495190528383,9.55734951103372E-14,0.));
#514=CARTESIAN_POINT('',(31.2800426762176,1.34012531595771E-13,0.));
#515=CARTESIAN_POINT('',(31.2800426762175,-5.24999999999974,0.));
#516=CARTESIAN_POINT('',(-2.27682456221956E-14,3.57940270049432E-13,0.));
#517=CARTESIAN_POINT('',(30.5352914270615,1.39344060860622E-13,0.));
#518=CARTESIAN_POINT('',(30.5352914270614,-5.05044450422628,0.));
#519=CARTESIAN_POINT('',(31.2800426762176,1.34012531595771E-13,0.));
#520=CARTESIAN_POINT('',(29.8004445042265,1.44604686980713E-13,0.));
#521=CARTESIAN_POINT('',(29.8004445042265,-5.78529142706122,0.));
#522=CARTESIAN_POINT('',(30.38,1.40512601554121E-13,0.));
#523=CARTESIAN_POINT('',(30.,1.43176108019773E-13,0.));
#524=CARTESIAN_POINT('',(30.,-6.53004267621732,0.));
#525=CARTESIAN_POINT('',(29.8004445042265,1.44604686980713E-13,0.));
#526=CARTESIAN_POINT('',(30.,1.43176108019773E-13,0.));
#527=CARTESIAN_POINT('',(29.9999999999999,-8.49999999999969,0.));
#528=CARTESIAN_POINT('',(30.,8.5,0.));
#529=CARTESIAN_POINT('',(29.5,1.46755510720268E-13,0.));
#530=CARTESIAN_POINT('',(29.4999999999999,-8.99999999999969,0.));
#531=CARTESIAN_POINT('',(30.,1.43176108019773E-13,0.));
#532=CARTESIAN_POINT('',(25.2,1.77538373944519E-13,0.));
#533=CARTESIAN_POINT('',(25.1999999999999,-8.99999999999963,0.));
#534=CARTESIAN_POINT('',(-2.27682456221956E-14,3.57940270049432E-13,0.));
#535=CARTESIAN_POINT('',(25.,1.78970135024716E-13,0.));
#536=CARTESIAN_POINT('',(24.9999999999999,-8.79999999999962,0.));
#537=CARTESIAN_POINT('',(25.2,1.77538373944519E-13,0.));
#538=CARTESIAN_POINT('',(23.,1.93287745826693E-13,0.));
#539=CARTESIAN_POINT('',(22.9999999999999,-8.7999999999996,0.));
#540=CARTESIAN_POINT('',(-2.27682456221956E-14,3.57940270049432E-13,0.));
#541=CARTESIAN_POINT('',(22.8,1.94719506906891E-13,0.));
#542=CARTESIAN_POINT('',(22.7999999999999,-8.99999999999959,0.));
#543=CARTESIAN_POINT('',(23.,1.93287745826693E-13,0.));
#544=CARTESIAN_POINT('',(-2.27682456221956E-14,3.57940270049432E-13,0.));
#545=MECHANICAL_DESIGN_GEOMETRIC_PRESENTATION_REPRESENTATION('',(#84,#85,
#31,#32,#33,#34,#35,#36,#37,#38,#39,#40,#41,#42,#43,#44,#45,#46),#546);
#546=(
GEOMETRIC_REPRESENTATION_CONTEXT(3)
GLOBAL_UNCERTAINTY_ASSIGNED_CONTEXT((#547))
GLOBAL_UNIT_ASSIGNED_CONTEXT((#553,#549,#548))
REPRESENTATION_CONTEXT('APMR-BNM20-D20-M10-L30',
'TOP_LEVEL_ASSEMBLY_PART')
);
#547=UNCERTAINTY_MEASURE_WITH_UNIT(LENGTH_MEASURE(2.E-5),#553,
'DISTANCE_ACCURACY_VALUE','Maximum Tolerance applied to model');
#548=(
NAMED_UNIT(*)
SI_UNIT($,.STERADIAN.)
SOLID_ANGLE_UNIT()
);
#549=(
CONVERSION_BASED_UNIT('DEGREE',#551)
NAMED_UNIT(#550)
PLANE_ANGLE_UNIT()
);
#550=DIMENSIONAL_EXPONENTS(0.,0.,0.,0.,0.,0.,0.);
#551=PLANE_ANGLE_MEASURE_WITH_UNIT(PLANE_ANGLE_MEASURE(0.0174532925),#552);
#552=(
NAMED_UNIT(*)
PLANE_ANGLE_UNIT()
SI_UNIT($,.RADIAN.)
);
#553=(
LENGTH_UNIT()
NAMED_UNIT(*)
SI_UNIT(.MILLI.,.METRE.)
);
ENDSEC;
END-ISO-10303-21;
