ISO-10303-21;
HEADER;
/* Generated by software containing ST-Developer
 * from STEP Tools, Inc. (www.steptools.com) 
 */
/* OPTION: using custom schema-name function */

FILE_DESCRIPTION(
/* description */ (''),
/* implementation_level */ '2;1');

FILE_NAME(
/* name */ 'APMR-P3208-D08-C10-L110.stp',
/* time_stamp */ '2023-10-02T12:22:34+03:00',
/* author */ (''),
/* organization */ (''),
/* preprocessor_version */ 'ST-DEVELOPER v19.4',
/* originating_system */ 'SIEMENS PLM Software NX2306.5001',
/* authorisation */ '');

FILE_SCHEMA (('AUTOMOTIVE_DESIGN { 1 0 10303 214 3 1 1 1 }'));
ENDSEC;

DATA;
#10=PROPERTY_DEFINITION_REPRESENTATION(#14,#12);
#11=PROPERTY_DEFINITION_REPRESENTATION(#15,#13);
#12=REPRESENTATION('',(#16),#249);
#13=REPRESENTATION('',(#17),#249);
#14=PROPERTY_DEFINITION('pmi validation property','',#21);
#15=PROPERTY_DEFINITION('pmi validation property','',#21);
#16=VALUE_REPRESENTATION_ITEM('number of annotations',COUNT_MEASURE(0.));
#17=VALUE_REPRESENTATION_ITEM('number of views',COUNT_MEASURE(0.));
#18=SHAPE_REPRESENTATION_RELATIONSHIP('None',
'relationship between APMR-P3208-D08-C10-L110-LIGHT_x_t_objects-None a
nd APMR-P3208-D08-C10-L110-LIGHT_x_t_objects-None',#30,#19);
#19=ADVANCED_BREP_SHAPE_REPRESENTATION(
'APMR-P3208-D08-C10-L110-LIGHT_x_t_objects-None',(#53,#54),#249);
#20=SHAPE_DEFINITION_REPRESENTATION(#21,#30);
#21=PRODUCT_DEFINITION_SHAPE('','',#22);
#22=PRODUCT_DEFINITION(' ','',#24,#23);
#23=PRODUCT_DEFINITION_CONTEXT('part definition',#29,'design');
#24=PRODUCT_DEFINITION_FORMATION_WITH_SPECIFIED_SOURCE(' ',' ',#26,
 .NOT_KNOWN.);
#25=PRODUCT_RELATED_PRODUCT_CATEGORY('part','',(#26));
#26=PRODUCT('APMR-P3208-D08-C10-L110-LIGHT_x_t_objects',
'APMR-P3208-D08-C10-L110-LIGHT_x_t_objects',' ',(#27));
#27=PRODUCT_CONTEXT(' ',#29,'mechanical');
#28=APPLICATION_PROTOCOL_DEFINITION('international standard',
'automotive_design',2010,#29);
#29=APPLICATION_CONTEXT(
'core data for automotive mechanical design processes');
#30=SHAPE_REPRESENTATION(
'APMR-P3208-D08-C10-L110-LIGHT_x_t_objects-None',(#155),#249);
#31=COLOUR_RGB('silver gray',0.6,0.6,0.6);
#32=CYLINDRICAL_SURFACE('',#168,4.75);
#33=CYLINDRICAL_SURFACE('',#172,5.);
#34=CYLINDRICAL_SURFACE('',#175,3.7);
#35=TOROIDAL_SURFACE('',#166,3.24999999999995,1.5);
#36=TOROIDAL_SURFACE('',#174,8.7,5.);
#37=PRESENTATION_LAYER_ASSIGNMENT('1','Layer 1',(#53,#54));
#38=STYLED_ITEM('',(#40),#53);
#39=STYLED_ITEM('',(#41),#54);
#40=PRESENTATION_STYLE_ASSIGNMENT((#42));
#41=PRESENTATION_STYLE_ASSIGNMENT((#43));
#42=SURFACE_STYLE_USAGE(.BOTH.,#44);
#43=SURFACE_STYLE_USAGE(.BOTH.,#45);
#44=SURFACE_SIDE_STYLE('',(#46));
#45=SURFACE_SIDE_STYLE('',(#47));
#46=SURFACE_STYLE_FILL_AREA(#48);
#47=SURFACE_STYLE_FILL_AREA(#49);
#48=FILL_AREA_STYLE('',(#50));
#49=FILL_AREA_STYLE('',(#51));
#50=FILL_AREA_STYLE_COLOUR('',#52);
#51=FILL_AREA_STYLE_COLOUR('',#31);
#52=DRAUGHTING_PRE_DEFINED_COLOUR('yellow');
#53=MANIFOLD_SOLID_BREP('',#55);
#54=MANIFOLD_SOLID_BREP('',#56);
#55=CLOSED_SHELL('',(#75,#76,#77));
#56=CLOSED_SHELL('',(#78,#79,#80,#81,#82,#83,#84,#85));
#57=SPHERICAL_SURFACE('',#160,4.);
#58=SPHERICAL_SURFACE('',#162,3.7);
#59=CONICAL_SURFACE('',#159,3.72772815379155,3.00000000000146);
#60=CONICAL_SURFACE('',#170,4.75,10.);
#61=FACE_BOUND('',#93,.T.);
#62=FACE_BOUND('',#94,.T.);
#63=FACE_BOUND('',#98,.T.);
#64=FACE_BOUND('',#99,.T.);
#65=FACE_BOUND('',#100,.T.);
#66=FACE_BOUND('',#101,.T.);
#67=FACE_BOUND('',#102,.T.);
#68=FACE_BOUND('',#103,.T.);
#69=FACE_BOUND('',#104,.T.);
#70=FACE_BOUND('',#105,.T.);
#71=FACE_BOUND('',#106,.T.);
#72=FACE_BOUND('',#107,.T.);
#73=FACE_BOUND('',#108,.T.);
#74=FACE_BOUND('',#109,.T.);
#75=ADVANCED_FACE('',(#88),#86,.T.);
#76=ADVANCED_FACE('',(#61,#62),#59,.T.);
#77=ADVANCED_FACE('',(#89),#57,.T.);
#78=ADVANCED_FACE('',(#90),#58,.T.);
#79=ADVANCED_FACE('',(#91),#87,.F.);
#80=ADVANCED_FACE('',(#63,#64),#35,.T.);
#81=ADVANCED_FACE('',(#65,#66),#32,.T.);
#82=ADVANCED_FACE('',(#67,#68),#60,.T.);
#83=ADVANCED_FACE('',(#69,#70),#33,.T.);
#84=ADVANCED_FACE('',(#71,#72),#36,.F.);
#85=ADVANCED_FACE('',(#73,#74),#34,.T.);
#86=PLANE('',#157);
#87=PLANE('',#164);
#88=FACE_OUTER_BOUND('',#92,.T.);
#89=FACE_OUTER_BOUND('',#95,.T.);
#90=FACE_OUTER_BOUND('',#96,.T.);
#91=FACE_OUTER_BOUND('',#97,.T.);
#92=EDGE_LOOP('',(#110));
#93=EDGE_LOOP('',(#111));
#94=EDGE_LOOP('',(#112));
#95=EDGE_LOOP('',(#113));
#96=EDGE_LOOP('',(#114));
#97=EDGE_LOOP('',(#115));
#98=EDGE_LOOP('',(#116));
#99=EDGE_LOOP('',(#117));
#100=EDGE_LOOP('',(#118));
#101=EDGE_LOOP('',(#119));
#102=EDGE_LOOP('',(#120));
#103=EDGE_LOOP('',(#121));
#104=EDGE_LOOP('',(#122));
#105=EDGE_LOOP('',(#123));
#106=EDGE_LOOP('',(#124));
#107=EDGE_LOOP('',(#125));
#108=EDGE_LOOP('',(#126));
#109=EDGE_LOOP('',(#127));
#110=ORIENTED_EDGE('',*,*,#137,.F.);
#111=ORIENTED_EDGE('',*,*,#137,.T.);
#112=ORIENTED_EDGE('',*,*,#138,.F.);
#113=ORIENTED_EDGE('',*,*,#138,.T.);
#114=ORIENTED_EDGE('',*,*,#139,.T.);
#115=ORIENTED_EDGE('',*,*,#140,.F.);
#116=ORIENTED_EDGE('',*,*,#141,.F.);
#117=ORIENTED_EDGE('',*,*,#140,.T.);
#118=ORIENTED_EDGE('',*,*,#142,.F.);
#119=ORIENTED_EDGE('',*,*,#141,.T.);
#120=ORIENTED_EDGE('',*,*,#143,.F.);
#121=ORIENTED_EDGE('',*,*,#142,.T.);
#122=ORIENTED_EDGE('',*,*,#144,.F.);
#123=ORIENTED_EDGE('',*,*,#143,.T.);
#124=ORIENTED_EDGE('',*,*,#145,.F.);
#125=ORIENTED_EDGE('',*,*,#144,.T.);
#126=ORIENTED_EDGE('',*,*,#139,.F.);
#127=ORIENTED_EDGE('',*,*,#145,.T.);
#128=VERTEX_POINT('',#220);
#129=VERTEX_POINT('',#223);
#130=VERTEX_POINT('',#227);
#131=VERTEX_POINT('',#230);
#132=VERTEX_POINT('',#233);
#133=VERTEX_POINT('',#236);
#134=VERTEX_POINT('',#239);
#135=VERTEX_POINT('',#242);
#136=VERTEX_POINT('',#245);
#137=EDGE_CURVE('',#128,#128,#146,.T.);
#138=EDGE_CURVE('',#129,#129,#147,.T.);
#139=EDGE_CURVE('',#130,#130,#148,.T.);
#140=EDGE_CURVE('',#131,#131,#149,.T.);
#141=EDGE_CURVE('',#132,#132,#150,.T.);
#142=EDGE_CURVE('',#133,#133,#151,.T.);
#143=EDGE_CURVE('',#134,#134,#152,.T.);
#144=EDGE_CURVE('',#135,#135,#153,.T.);
#145=EDGE_CURVE('',#136,#136,#154,.T.);
#146=CIRCLE('',#156,3.71724659793493);
#147=CIRCLE('',#158,3.9945181390183);
#148=CIRCLE('',#161,3.7);
#149=CIRCLE('',#163,3.24999999999995);
#150=CIRCLE('',#165,4.75);
#151=CIRCLE('',#167,4.75);
#152=CIRCLE('',#169,5.);
#153=CIRCLE('',#171,5.);
#154=CIRCLE('',#173,3.7);
#155=AXIS2_PLACEMENT_3D('',#218,#176,#177);
#156=AXIS2_PLACEMENT_3D('',#219,#178,#179);
#157=AXIS2_PLACEMENT_3D('',#221,#180,#181);
#158=AXIS2_PLACEMENT_3D('',#222,#182,#183);
#159=AXIS2_PLACEMENT_3D('',#224,#184,#185);
#160=AXIS2_PLACEMENT_3D('',#225,#186,#187);
#161=AXIS2_PLACEMENT_3D('',#226,#188,#189);
#162=AXIS2_PLACEMENT_3D('',#228,#190,#191);
#163=AXIS2_PLACEMENT_3D('',#229,#192,#193);
#164=AXIS2_PLACEMENT_3D('',#231,#194,#195);
#165=AXIS2_PLACEMENT_3D('',#232,#196,#197);
#166=AXIS2_PLACEMENT_3D('',#234,#198,#199);
#167=AXIS2_PLACEMENT_3D('',#235,#200,#201);
#168=AXIS2_PLACEMENT_3D('',#237,#202,#203);
#169=AXIS2_PLACEMENT_3D('',#238,#204,#205);
#170=AXIS2_PLACEMENT_3D('',#240,#206,#207);
#171=AXIS2_PLACEMENT_3D('',#241,#208,#209);
#172=AXIS2_PLACEMENT_3D('',#243,#210,#211);
#173=AXIS2_PLACEMENT_3D('',#244,#212,#213);
#174=AXIS2_PLACEMENT_3D('',#246,#214,#215);
#175=AXIS2_PLACEMENT_3D('',#247,#216,#217);
#176=DIRECTION('',(0.,0.,1.));
#177=DIRECTION('',(1.,0.,0.));
#178=DIRECTION('',(-1.,0.,0.));
#179=DIRECTION('',(0.,0.,1.));
#180=DIRECTION('',(1.,0.,0.));
#181=DIRECTION('',(0.,0.,-1.));
#182=DIRECTION('',(-1.,0.,0.));
#183=DIRECTION('',(0.,0.,1.));
#184=DIRECTION('',(-1.,0.,0.));
#185=DIRECTION('',(-4.32633991791961E-16,0.,1.));
#186=DIRECTION('',(-1.,-6.12323399573677E-17,0.));
#187=DIRECTION('',(0.,-1.,0.));
#188=DIRECTION('',(-1.,-4.70737419258973E-16,0.));
#189=DIRECTION('',(4.68844182696434E-16,-1.,0.));
#190=DIRECTION('',(-1.,-4.09505079301605E-16,0.));
#191=DIRECTION('',(-4.68844182696434E-16,1.,0.));
#192=DIRECTION('',(-1.,-4.70737419258973E-16,0.));
#193=DIRECTION('',(0.,-1.,0.));
#194=DIRECTION('',(-1.,-4.70737419258973E-16,0.));
#195=DIRECTION('',(4.71844785465692E-16,-1.,0.));
#196=DIRECTION('',(-1.,-4.70737419258973E-16,0.));
#197=DIRECTION('',(0.,-1.,0.));
#198=DIRECTION('',(-1.,-4.70737419258973E-16,0.));
#199=DIRECTION('',(0.,-1.,0.));
#200=DIRECTION('',(-1.,-4.70737419258973E-16,0.));
#201=DIRECTION('',(0.,-1.,0.));
#202=DIRECTION('',(-1.,-4.70737419258973E-16,0.));
#203=DIRECTION('',(4.70737419258973E-16,-1.,0.));
#204=DIRECTION('',(-1.,-4.70737419258973E-16,0.));
#205=DIRECTION('',(0.,-1.,0.));
#206=DIRECTION('',(-1.,-4.70737419258973E-16,0.));
#207=DIRECTION('',(5.36481855808632E-16,-1.,0.));
#208=DIRECTION('',(-1.,-4.70737419258973E-16,0.));
#209=DIRECTION('',(6.93889390390723E-16,-1.,0.));
#210=DIRECTION('',(-1.,-4.70737419258973E-16,0.));
#211=DIRECTION('',(4.70737419258973E-16,-1.,0.));
#212=DIRECTION('',(-1.,-4.70737419258973E-16,0.));
#213=DIRECTION('',(9.37688365392869E-16,-1.,0.));
#214=DIRECTION('',(-1.,-4.70737419258973E-16,0.));
#215=DIRECTION('',(5.06488606124615E-16,-1.,0.));
#216=DIRECTION('',(-1.,-4.70737419258973E-16,0.));
#217=DIRECTION('',(4.70737419258973E-16,-1.,0.));
#218=CARTESIAN_POINT('',(0.,0.,0.));
#219=CARTESIAN_POINT('',(9.5,1.44926880804169E-15,0.));
#220=CARTESIAN_POINT('',(9.5,1.44926880804169E-15,3.71724659793493));
#221=CARTESIAN_POINT('',(9.5,-1.,0.));
#222=CARTESIAN_POINT('',(4.20934382497179,1.44926880804169E-15,0.));
#223=CARTESIAN_POINT('',(4.20934382497179,1.44926880804169E-15,3.9945181390183));
#224=CARTESIAN_POINT('',(9.3,1.44926880804169E-15,0.));
#225=CARTESIAN_POINT('',(4.,0.,0.));
#226=CARTESIAN_POINT('',(4.,1.44926880804169E-15,0.));
#227=CARTESIAN_POINT('',(4.,-3.7,0.));
#228=CARTESIAN_POINT('',(4.,0.,0.));
#229=CARTESIAN_POINT('',(110.,5.13474352494928E-14,0.));
#230=CARTESIAN_POINT('',(110.,-3.2499999999999,0.));
#231=CARTESIAN_POINT('',(110.,3.25,0.));
#232=CARTESIAN_POINT('',(108.5,5.06413291206044E-14,0.));
#233=CARTESIAN_POINT('',(108.5,-4.74999999999995,0.));
#234=CARTESIAN_POINT('',(108.5,5.07406616723216E-14,0.));
#235=CARTESIAN_POINT('',(106.,4.94644855724569E-14,0.));
#236=CARTESIAN_POINT('',(106.,-4.74999999999995,0.));
#237=CARTESIAN_POINT('',(0.,-4.33680868994202E-16,0.));
#238=CARTESIAN_POINT('',(104.582179545096,4.87970644305426E-14,0.));
#239=CARTESIAN_POINT('',(104.582179545096,-4.99999999999995,0.));
#240=CARTESIAN_POINT('',(106.,4.94644855724569E-14,0.));
#241=CARTESIAN_POINT('',(25.,1.13347546124801E-14,0.));
#242=CARTESIAN_POINT('',(25.,-4.99999999999999,0.));
#243=CARTESIAN_POINT('',(0.,-4.33680868994202E-16,0.));
#244=CARTESIAN_POINT('',(21.6369656558399,9.75164850443093E-15,0.));
#245=CARTESIAN_POINT('',(21.63696565584,-3.69999999999999,0.));
#246=CARTESIAN_POINT('',(21.6369656558399,1.04083408558608E-14,0.));
#247=CARTESIAN_POINT('',(0.,-4.33680868994202E-16,0.));
#248=MECHANICAL_DESIGN_GEOMETRIC_PRESENTATION_REPRESENTATION('',(#38,#39),
#249);
#249=(
GEOMETRIC_REPRESENTATION_CONTEXT(3)
GLOBAL_UNCERTAINTY_ASSIGNED_CONTEXT((#250))
GLOBAL_UNIT_ASSIGNED_CONTEXT((#256,#252,#251))
REPRESENTATION_CONTEXT('APMR-P3208-D08-C10-L110',
'TOP_LEVEL_ASSEMBLY_PART')
);
#250=UNCERTAINTY_MEASURE_WITH_UNIT(LENGTH_MEASURE(2.E-5),#256,
'DISTANCE_ACCURACY_VALUE','Maximum Tolerance applied to model');
#251=(
NAMED_UNIT(*)
SI_UNIT($,.STERADIAN.)
SOLID_ANGLE_UNIT()
);
#252=(
CONVERSION_BASED_UNIT('DEGREE',#254)
NAMED_UNIT(#253)
PLANE_ANGLE_UNIT()
);
#253=DIMENSIONAL_EXPONENTS(0.,0.,0.,0.,0.,0.,0.);
#254=PLANE_ANGLE_MEASURE_WITH_UNIT(PLANE_ANGLE_MEASURE(0.0174532925),#255);
#255=(
NAMED_UNIT(*)
PLANE_ANGLE_UNIT()
SI_UNIT($,.RADIAN.)
);
#256=(
LENGTH_UNIT()
NAMED_UNIT(*)
SI_UNIT(.MILLI.,.METRE.)
);
ENDSEC;
END-ISO-10303-21;
