ISO-10303-21;
HEADER;
/* Generated by software containing ST-Developer
 * from STEP Tools, Inc. (www.steptools.com) 
 */
/* OPTION: using custom schema-name function */

FILE_DESCRIPTION(
/* description */ (''),
/* implementation_level */ '2;1');

FILE_NAME(
/* name */ 'APMR-P3216-D16-M08-L25.stp',
/* time_stamp */ '2023-09-29T20:01:14+03:00',
/* author */ (''),
/* organization */ (''),
/* preprocessor_version */ 'ST-DEVELOPER v19.4',
/* originating_system */ 'SIEMENS PLM Software NX2306.5001',
/* authorisation */ '');

FILE_SCHEMA (('AUTOMOTIVE_DESIGN { 1 0 10303 214 3 1 1 1 }'));
ENDSEC;

DATA;
#10=PROPERTY_DEFINITION_REPRESENTATION(#14,#12);
#11=PROPERTY_DEFINITION_REPRESENTATION(#15,#13);
#12=REPRESENTATION('',(#16),#499);
#13=REPRESENTATION('',(#17),#499);
#14=PROPERTY_DEFINITION('pmi validation property','',#21);
#15=PROPERTY_DEFINITION('pmi validation property','',#21);
#16=VALUE_REPRESENTATION_ITEM('number of annotations',COUNT_MEASURE(0.));
#17=VALUE_REPRESENTATION_ITEM('number of views',COUNT_MEASURE(0.));
#18=SHAPE_REPRESENTATION_RELATIONSHIP('None',
'relationship between APMR-P3216-D16-M08-L25-LIGHT_x_t_objects-None an
d APMR-P3216-D16-M08-L25-LIGHT_x_t_objects-None',#30,#19);
#19=ADVANCED_BREP_SHAPE_REPRESENTATION(
'APMR-P3216-D16-M08-L25-LIGHT_x_t_objects-None',(#52,#53),#499);
#20=SHAPE_DEFINITION_REPRESENTATION(#21,#30);
#21=PRODUCT_DEFINITION_SHAPE('','',#22);
#22=PRODUCT_DEFINITION(' ','',#24,#23);
#23=PRODUCT_DEFINITION_CONTEXT('part definition',#29,'design');
#24=PRODUCT_DEFINITION_FORMATION_WITH_SPECIFIED_SOURCE(' ',' ',#26,
 .NOT_KNOWN.);
#25=PRODUCT_RELATED_PRODUCT_CATEGORY('part','',(#26));
#26=PRODUCT('APMR-P3216-D16-M08-L25-LIGHT_x_t_objects',
'APMR-P3216-D16-M08-L25-LIGHT_x_t_objects',' ',(#27));
#27=PRODUCT_CONTEXT(' ',#29,'mechanical');
#28=APPLICATION_PROTOCOL_DEFINITION('international standard',
'automotive_design',2010,#29);
#29=APPLICATION_CONTEXT(
'core data for automotive mechanical design processes');
#30=SHAPE_REPRESENTATION(
'APMR-P3216-D16-M08-L25-LIGHT_x_t_objects-None',(#292),#499);
#31=DRAUGHTING_PRE_DEFINED_COLOUR('yellow');
#32=LINE('',#482,#34);
#33=LINE('',#491,#35);
#34=VECTOR('',#409,1.);
#35=VECTOR('',#420,1.);
#36=PRESENTATION_LAYER_ASSIGNMENT('1','Layer 1',(#52,#53));
#37=STYLED_ITEM('',(#39),#52);
#38=STYLED_ITEM('',(#40),#53);
#39=PRESENTATION_STYLE_ASSIGNMENT((#41));
#40=PRESENTATION_STYLE_ASSIGNMENT((#42));
#41=SURFACE_STYLE_USAGE(.BOTH.,#43);
#42=SURFACE_STYLE_USAGE(.BOTH.,#44);
#43=SURFACE_SIDE_STYLE('',(#45));
#44=SURFACE_SIDE_STYLE('',(#46));
#45=SURFACE_STYLE_FILL_AREA(#47);
#46=SURFACE_STYLE_FILL_AREA(#48);
#47=FILL_AREA_STYLE('',(#49));
#48=FILL_AREA_STYLE('',(#50));
#49=FILL_AREA_STYLE_COLOUR('',#51);
#50=FILL_AREA_STYLE_COLOUR('',#31);
#51=COLOUR_RGB('silver gray',0.6,0.6,0.6);
#52=MANIFOLD_SOLID_BREP('',#54);
#53=MANIFOLD_SOLID_BREP('',#55);
#54=CLOSED_SHELL('',(#107,#108,#109,#110,#111,#112,#113,#114,#115,#116,
#117,#118,#119,#120,#121,#122,#123,#124));
#55=CLOSED_SHELL('',(#125,#126,#127,#128));
#56=TOROIDAL_SURFACE('',#308,4.62999999999731,0.6);
#57=TOROIDAL_SURFACE('',#322,8.79999999999867,2.);
#58=TOROIDAL_SURFACE('',#326,4.99999999999866,2.);
#59=CYLINDRICAL_SURFACE('',#300,3.87499999999877);
#60=CYLINDRICAL_SURFACE('',#304,4.24999999999732);
#61=CYLINDRICAL_SURFACE('',#316,6.99999999999871);
#62=CYLINDRICAL_SURFACE('',#320,6.79999999999868);
#63=CYLINDRICAL_SURFACE('',#327,6.99999999999865);
#64=CONICAL_SURFACE('',#298,2.8749999999988,44.9999999999996);
#65=CONICAL_SURFACE('',#302,3.87499999999875,30.);
#66=CONICAL_SURFACE('',#306,4.24999999999731,15.0000000000004);
#67=CONICAL_SURFACE('',#310,4.78529142705882,75.0000000000002);
#68=CONICAL_SURFACE('',#314,6.69999999999872,44.9999999999997);
#69=CONICAL_SURFACE('',#318,6.9999999999987,30.);
#70=CONICAL_SURFACE('',#324,6.86814834742053,14.9999999999996);
#71=CONICAL_SURFACE('',#330,7.99894326942057,10.0000000000005);
#72=FACE_BOUND('',#140,.T.);
#73=FACE_BOUND('',#141,.T.);
#74=FACE_BOUND('',#142,.T.);
#75=FACE_BOUND('',#143,.T.);
#76=FACE_BOUND('',#144,.T.);
#77=FACE_BOUND('',#145,.T.);
#78=FACE_BOUND('',#146,.T.);
#79=FACE_BOUND('',#147,.T.);
#80=FACE_BOUND('',#148,.T.);
#81=FACE_BOUND('',#149,.T.);
#82=FACE_BOUND('',#150,.T.);
#83=FACE_BOUND('',#151,.T.);
#84=FACE_BOUND('',#152,.T.);
#85=FACE_BOUND('',#153,.T.);
#86=FACE_BOUND('',#154,.T.);
#87=FACE_BOUND('',#155,.T.);
#88=FACE_BOUND('',#156,.T.);
#89=FACE_BOUND('',#157,.T.);
#90=FACE_BOUND('',#158,.T.);
#91=FACE_BOUND('',#159,.T.);
#92=FACE_BOUND('',#160,.T.);
#93=FACE_BOUND('',#161,.T.);
#94=FACE_BOUND('',#162,.T.);
#95=FACE_BOUND('',#163,.T.);
#96=FACE_BOUND('',#164,.T.);
#97=FACE_BOUND('',#165,.T.);
#98=FACE_BOUND('',#166,.T.);
#99=FACE_BOUND('',#167,.T.);
#100=FACE_BOUND('',#168,.T.);
#101=FACE_BOUND('',#169,.T.);
#102=FACE_BOUND('',#170,.T.);
#103=FACE_BOUND('',#171,.T.);
#104=PLANE('',#296);
#105=PLANE('',#312);
#106=PLANE('',#334);
#107=ADVANCED_FACE('',(#132),#129,.T.);
#108=ADVANCED_FACE('',(#133),#104,.F.);
#109=ADVANCED_FACE('',(#72,#73),#64,.T.);
#110=ADVANCED_FACE('',(#74,#75),#59,.T.);
#111=ADVANCED_FACE('',(#76,#77),#65,.T.);
#112=ADVANCED_FACE('',(#78,#79),#60,.T.);
#113=ADVANCED_FACE('',(#80,#81),#66,.T.);
#114=ADVANCED_FACE('',(#82,#83),#56,.F.);
#115=ADVANCED_FACE('',(#84,#85),#67,.F.);
#116=ADVANCED_FACE('',(#86,#87),#105,.F.);
#117=ADVANCED_FACE('',(#88,#89),#68,.T.);
#118=ADVANCED_FACE('',(#90,#91),#61,.T.);
#119=ADVANCED_FACE('',(#92,#93),#69,.T.);
#120=ADVANCED_FACE('',(#94,#95),#62,.T.);
#121=ADVANCED_FACE('',(#96,#97),#57,.F.);
#122=ADVANCED_FACE('',(#98,#99),#70,.T.);
#123=ADVANCED_FACE('',(#100,#101),#58,.T.);
#124=ADVANCED_FACE('',(#102,#103),#63,.T.);
#125=ADVANCED_FACE('',(#134),#71,.T.);
#126=ADVANCED_FACE('',(#135),#130,.T.);
#127=ADVANCED_FACE('',(#136),#106,.T.);
#128=ADVANCED_FACE('',(#137),#131,.T.);
#129=SPHERICAL_SURFACE('',#294,7.);
#130=SPHERICAL_SURFACE('',#332,8.);
#131=SPHERICAL_SURFACE('',#336,8.);
#132=FACE_OUTER_BOUND('',#138,.T.);
#133=FACE_OUTER_BOUND('',#139,.T.);
#134=FACE_OUTER_BOUND('',#172,.T.);
#135=FACE_OUTER_BOUND('',#173,.T.);
#136=FACE_OUTER_BOUND('',#174,.T.);
#137=FACE_OUTER_BOUND('',#175,.T.);
#138=EDGE_LOOP('',(#176));
#139=EDGE_LOOP('',(#177));
#140=EDGE_LOOP('',(#178));
#141=EDGE_LOOP('',(#179));
#142=EDGE_LOOP('',(#180));
#143=EDGE_LOOP('',(#181));
#144=EDGE_LOOP('',(#182));
#145=EDGE_LOOP('',(#183));
#146=EDGE_LOOP('',(#184));
#147=EDGE_LOOP('',(#185));
#148=EDGE_LOOP('',(#186));
#149=EDGE_LOOP('',(#187));
#150=EDGE_LOOP('',(#188));
#151=EDGE_LOOP('',(#189));
#152=EDGE_LOOP('',(#190));
#153=EDGE_LOOP('',(#191));
#154=EDGE_LOOP('',(#192));
#155=EDGE_LOOP('',(#193));
#156=EDGE_LOOP('',(#194));
#157=EDGE_LOOP('',(#195));
#158=EDGE_LOOP('',(#196));
#159=EDGE_LOOP('',(#197));
#160=EDGE_LOOP('',(#198));
#161=EDGE_LOOP('',(#199));
#162=EDGE_LOOP('',(#200));
#163=EDGE_LOOP('',(#201));
#164=EDGE_LOOP('',(#202));
#165=EDGE_LOOP('',(#203));
#166=EDGE_LOOP('',(#204));
#167=EDGE_LOOP('',(#205));
#168=EDGE_LOOP('',(#206));
#169=EDGE_LOOP('',(#207));
#170=EDGE_LOOP('',(#208));
#171=EDGE_LOOP('',(#209));
#172=EDGE_LOOP('',(#210,#211,#212,#213));
#173=EDGE_LOOP('',(#214,#215,#216));
#174=EDGE_LOOP('',(#217,#218,#219));
#175=EDGE_LOOP('',(#220,#221,#222,#223));
#176=ORIENTED_EDGE('',*,*,#246,.T.);
#177=ORIENTED_EDGE('',*,*,#247,.F.);
#178=ORIENTED_EDGE('',*,*,#248,.F.);
#179=ORIENTED_EDGE('',*,*,#247,.T.);
#180=ORIENTED_EDGE('',*,*,#249,.F.);
#181=ORIENTED_EDGE('',*,*,#248,.T.);
#182=ORIENTED_EDGE('',*,*,#250,.F.);
#183=ORIENTED_EDGE('',*,*,#249,.T.);
#184=ORIENTED_EDGE('',*,*,#251,.F.);
#185=ORIENTED_EDGE('',*,*,#250,.T.);
#186=ORIENTED_EDGE('',*,*,#252,.F.);
#187=ORIENTED_EDGE('',*,*,#251,.T.);
#188=ORIENTED_EDGE('',*,*,#253,.F.);
#189=ORIENTED_EDGE('',*,*,#252,.T.);
#190=ORIENTED_EDGE('',*,*,#254,.F.);
#191=ORIENTED_EDGE('',*,*,#253,.T.);
#192=ORIENTED_EDGE('',*,*,#255,.F.);
#193=ORIENTED_EDGE('',*,*,#254,.T.);
#194=ORIENTED_EDGE('',*,*,#256,.F.);
#195=ORIENTED_EDGE('',*,*,#255,.T.);
#196=ORIENTED_EDGE('',*,*,#257,.F.);
#197=ORIENTED_EDGE('',*,*,#256,.T.);
#198=ORIENTED_EDGE('',*,*,#258,.F.);
#199=ORIENTED_EDGE('',*,*,#257,.T.);
#200=ORIENTED_EDGE('',*,*,#259,.F.);
#201=ORIENTED_EDGE('',*,*,#258,.T.);
#202=ORIENTED_EDGE('',*,*,#260,.F.);
#203=ORIENTED_EDGE('',*,*,#259,.T.);
#204=ORIENTED_EDGE('',*,*,#261,.F.);
#205=ORIENTED_EDGE('',*,*,#260,.T.);
#206=ORIENTED_EDGE('',*,*,#262,.F.);
#207=ORIENTED_EDGE('',*,*,#261,.T.);
#208=ORIENTED_EDGE('',*,*,#246,.F.);
#209=ORIENTED_EDGE('',*,*,#262,.T.);
#210=ORIENTED_EDGE('',*,*,#263,.F.);
#211=ORIENTED_EDGE('',*,*,#264,.F.);
#212=ORIENTED_EDGE('',*,*,#263,.T.);
#213=ORIENTED_EDGE('',*,*,#265,.T.);
#214=ORIENTED_EDGE('',*,*,#266,.F.);
#215=ORIENTED_EDGE('',*,*,#266,.T.);
#216=ORIENTED_EDGE('',*,*,#264,.T.);
#217=ORIENTED_EDGE('',*,*,#267,.F.);
#218=ORIENTED_EDGE('',*,*,#268,.F.);
#219=ORIENTED_EDGE('',*,*,#267,.T.);
#220=ORIENTED_EDGE('',*,*,#269,.F.);
#221=ORIENTED_EDGE('',*,*,#265,.F.);
#222=ORIENTED_EDGE('',*,*,#269,.T.);
#223=ORIENTED_EDGE('',*,*,#268,.T.);
#224=VERTEX_POINT('',#431);
#225=VERTEX_POINT('',#434);
#226=VERTEX_POINT('',#437);
#227=VERTEX_POINT('',#440);
#228=VERTEX_POINT('',#443);
#229=VERTEX_POINT('',#446);
#230=VERTEX_POINT('',#449);
#231=VERTEX_POINT('',#452);
#232=VERTEX_POINT('',#455);
#233=VERTEX_POINT('',#458);
#234=VERTEX_POINT('',#461);
#235=VERTEX_POINT('',#464);
#236=VERTEX_POINT('',#467);
#237=VERTEX_POINT('',#470);
#238=VERTEX_POINT('',#473);
#239=VERTEX_POINT('',#476);
#240=VERTEX_POINT('',#479);
#241=VERTEX_POINT('',#483);
#242=VERTEX_POINT('',#484);
#243=VERTEX_POINT('',#489);
#244=VERTEX_POINT('',#492);
#245=VERTEX_POINT('',#493);
#246=EDGE_CURVE('',#224,#224,#270,.T.);
#247=EDGE_CURVE('',#225,#225,#271,.T.);
#248=EDGE_CURVE('',#226,#226,#272,.T.);
#249=EDGE_CURVE('',#227,#227,#273,.T.);
#250=EDGE_CURVE('',#228,#228,#274,.T.);
#251=EDGE_CURVE('',#229,#229,#275,.T.);
#252=EDGE_CURVE('',#230,#230,#276,.T.);
#253=EDGE_CURVE('',#231,#231,#277,.T.);
#254=EDGE_CURVE('',#232,#232,#278,.T.);
#255=EDGE_CURVE('',#233,#233,#279,.T.);
#256=EDGE_CURVE('',#234,#234,#280,.T.);
#257=EDGE_CURVE('',#235,#235,#281,.T.);
#258=EDGE_CURVE('',#236,#236,#282,.T.);
#259=EDGE_CURVE('',#237,#237,#283,.T.);
#260=EDGE_CURVE('',#238,#238,#284,.T.);
#261=EDGE_CURVE('',#239,#239,#285,.T.);
#262=EDGE_CURVE('',#240,#240,#286,.T.);
#263=EDGE_CURVE('',#241,#242,#32,.T.);
#264=EDGE_CURVE('',#241,#241,#287,.T.);
#265=EDGE_CURVE('',#242,#242,#288,.T.);
#266=EDGE_CURVE('',#243,#241,#289,.T.);
#267=EDGE_CURVE('',#244,#245,#33,.T.);
#268=EDGE_CURVE('',#244,#244,#290,.T.);
#269=EDGE_CURVE('',#242,#244,#291,.T.);
#270=CIRCLE('',#293,6.99999999999864);
#271=CIRCLE('',#295,2.8749999999988);
#272=CIRCLE('',#297,3.87499999999879);
#273=CIRCLE('',#299,3.87499999999875);
#274=CIRCLE('',#301,4.24999999999734);
#275=CIRCLE('',#303,4.24999999999731);
#276=CIRCLE('',#305,4.05044450422387);
#277=CIRCLE('',#307,4.78529142705882);
#278=CIRCLE('',#309,5.5300426762149);
#279=CIRCLE('',#311,6.69999999999872);
#280=CIRCLE('',#313,6.99999999999872);
#281=CIRCLE('',#315,6.9999999999987);
#282=CIRCLE('',#317,6.7999999999987);
#283=CIRCLE('',#319,6.79999999999866);
#284=CIRCLE('',#321,6.86814834742053);
#285=CIRCLE('',#323,6.9318516525768);
#286=CIRCLE('',#325,6.99999999999866);
#287=CIRCLE('',#328,7.99894326942057);
#288=CIRCLE('',#329,7.56101922817502);
#289=CIRCLE('',#331,8.);
#290=CIRCLE('',#333,5.29150262213052);
#291=CIRCLE('',#335,8.);
#292=AXIS2_PLACEMENT_3D('',#429,#337,#338);
#293=AXIS2_PLACEMENT_3D('',#430,#339,#340);
#294=AXIS2_PLACEMENT_3D('',#432,#341,#342);
#295=AXIS2_PLACEMENT_3D('',#433,#343,#344);
#296=AXIS2_PLACEMENT_3D('',#435,#345,#346);
#297=AXIS2_PLACEMENT_3D('',#436,#347,#348);
#298=AXIS2_PLACEMENT_3D('',#438,#349,#350);
#299=AXIS2_PLACEMENT_3D('',#439,#351,#352);
#300=AXIS2_PLACEMENT_3D('',#441,#353,#354);
#301=AXIS2_PLACEMENT_3D('',#442,#355,#356);
#302=AXIS2_PLACEMENT_3D('',#444,#357,#358);
#303=AXIS2_PLACEMENT_3D('',#445,#359,#360);
#304=AXIS2_PLACEMENT_3D('',#447,#361,#362);
#305=AXIS2_PLACEMENT_3D('',#448,#363,#364);
#306=AXIS2_PLACEMENT_3D('',#450,#365,#366);
#307=AXIS2_PLACEMENT_3D('',#451,#367,#368);
#308=AXIS2_PLACEMENT_3D('',#453,#369,#370);
#309=AXIS2_PLACEMENT_3D('',#454,#371,#372);
#310=AXIS2_PLACEMENT_3D('',#456,#373,#374);
#311=AXIS2_PLACEMENT_3D('',#457,#375,#376);
#312=AXIS2_PLACEMENT_3D('',#459,#377,#378);
#313=AXIS2_PLACEMENT_3D('',#460,#379,#380);
#314=AXIS2_PLACEMENT_3D('',#462,#381,#382);
#315=AXIS2_PLACEMENT_3D('',#463,#383,#384);
#316=AXIS2_PLACEMENT_3D('',#465,#385,#386);
#317=AXIS2_PLACEMENT_3D('',#466,#387,#388);
#318=AXIS2_PLACEMENT_3D('',#468,#389,#390);
#319=AXIS2_PLACEMENT_3D('',#469,#391,#392);
#320=AXIS2_PLACEMENT_3D('',#471,#393,#394);
#321=AXIS2_PLACEMENT_3D('',#472,#395,#396);
#322=AXIS2_PLACEMENT_3D('',#474,#397,#398);
#323=AXIS2_PLACEMENT_3D('',#475,#399,#400);
#324=AXIS2_PLACEMENT_3D('',#477,#401,#402);
#325=AXIS2_PLACEMENT_3D('',#478,#403,#404);
#326=AXIS2_PLACEMENT_3D('',#480,#405,#406);
#327=AXIS2_PLACEMENT_3D('',#481,#407,#408);
#328=AXIS2_PLACEMENT_3D('',#485,#410,#411);
#329=AXIS2_PLACEMENT_3D('',#486,#412,#413);
#330=AXIS2_PLACEMENT_3D('',#487,#414,#415);
#331=AXIS2_PLACEMENT_3D('',#488,#416,#417);
#332=AXIS2_PLACEMENT_3D('',#490,#418,#419);
#333=AXIS2_PLACEMENT_3D('',#494,#421,#422);
#334=AXIS2_PLACEMENT_3D('',#495,#423,#424);
#335=AXIS2_PLACEMENT_3D('',#496,#425,#426);
#336=AXIS2_PLACEMENT_3D('',#497,#427,#428);
#337=DIRECTION('',(0.,0.,1.));
#338=DIRECTION('',(1.,0.,0.));
#339=DIRECTION('',(-1.,4.68374225353004E-15,0.));
#340=DIRECTION('',(-4.70853514908082E-15,-1.,0.));
#341=DIRECTION('',(-1.,4.74497459348741E-15,0.));
#342=DIRECTION('',(4.7085351490799E-15,1.,0.));
#343=DIRECTION('',(-1.,4.68374225353004E-15,0.));
#344=DIRECTION('',(-4.82705662880704E-15,-1.,0.));
#345=DIRECTION('',(-1.,4.68374225353004E-15,0.));
#346=DIRECTION('',(-4.68375338513738E-15,-1.,0.));
#347=DIRECTION('',(-1.,4.68374225353004E-15,0.));
#348=DIRECTION('',(-5.37204689334921E-15,-1.,0.));
#349=DIRECTION('',(-1.,4.68374225353004E-15,0.));
#350=DIRECTION('',(-4.6149741831297E-15,-1.,0.));
#351=DIRECTION('',(-1.,4.68374225353004E-15,0.));
#352=DIRECTION('',(-5.37204689334926E-15,-1.,0.));
#353=DIRECTION('',(-1.,4.68374225353004E-15,0.));
#354=DIRECTION('',(-4.68374225354547E-15,-1.,0.));
#355=DIRECTION('',(-1.,4.68374225353004E-15,0.));
#356=DIRECTION('',(-4.89804275570229E-15,-1.,0.));
#357=DIRECTION('',(-1.,4.68374225353004E-15,0.));
#358=DIRECTION('',(-4.75147919429854E-15,-1.,0.));
#359=DIRECTION('',(-1.,4.68374225353004E-15,0.));
#360=DIRECTION('',(-4.89804275570232E-15,-1.,0.));
#361=DIRECTION('',(-1.,4.68374225353004E-15,0.));
#362=DIRECTION('',(-4.68374225354541E-15,-1.,0.));
#363=DIRECTION('',(-1.,4.68374225353004E-15,0.));
#364=DIRECTION('',(-4.28279778717573E-15,-1.,0.));
#365=DIRECTION('',(1.,-4.68374225353004E-15,0.));
#366=DIRECTION('',(4.81798250804986E-15,1.,0.));
#367=DIRECTION('',(-1.,4.68374225353004E-15,0.));
#368=DIRECTION('',(-4.35013875936836E-15,-1.,0.));
#369=DIRECTION('',(-1.,4.68374225353004E-15,0.));
#370=DIRECTION('',(-4.64361924735904E-15,-1.,0.));
#371=DIRECTION('',(-1.,4.68374225353004E-15,0.));
#372=DIRECTION('',(-4.39167111099009E-15,-1.,0.));
#373=DIRECTION('',(1.,-4.68374225353004E-15,0.));
#374=DIRECTION('',(4.67286390052648E-15,1.,0.));
#375=DIRECTION('',(-1.,4.68374225353004E-15,0.));
#376=DIRECTION('',(-4.66045112949082E-15,-1.,0.));
#377=DIRECTION('',(-1.,4.68374225353004E-15,0.));
#378=DIRECTION('',(-4.68375338513738E-15,-1.,0.));
#379=DIRECTION('',(-1.,4.68374225353004E-15,0.));
#380=DIRECTION('',(-4.46071750965546E-15,-1.,0.));
#381=DIRECTION('',(-1.,4.68374225353004E-15,0.));
#382=DIRECTION('',(-4.61122481545048E-15,-1.,0.));
#383=DIRECTION('',(-1.,4.68374225353004E-15,0.));
#384=DIRECTION('',(-4.46071750965548E-15,-1.,0.));
#385=DIRECTION('',(-1.,4.68374225353004E-15,0.));
#386=DIRECTION('',(-4.68374225351786E-15,-1.,0.));
#387=DIRECTION('',(-1.,4.68374225353004E-15,0.));
#388=DIRECTION('',(-4.5919150834689E-15,-1.,0.));
#389=DIRECTION('',(1.,-4.68374225353004E-15,0.));
#390=DIRECTION('',(4.72013186650569E-15,1.,0.));
#391=DIRECTION('',(-1.,4.68374225353004E-15,0.));
#392=DIRECTION('',(-4.59191508346892E-15,-1.,0.));
#393=DIRECTION('',(-1.,4.68374225353004E-15,0.));
#394=DIRECTION('',(-4.68374225353148E-15,-1.,0.));
#395=DIRECTION('',(-1.,4.68374225353004E-15,0.));
#396=DIRECTION('',(-4.7989275094703E-15,-1.,0.));
#397=DIRECTION('',(-1.,4.68374225353004E-15,0.));
#398=DIRECTION('',(-4.65805377808644E-15,-1.,0.));
#399=DIRECTION('',(-1.,4.68374225353004E-15,0.));
#400=DIRECTION('',(-4.75482565056151E-15,-1.,0.));
#401=DIRECTION('',(-1.,4.68374225353004E-15,0.));
#402=DIRECTION('',(-4.92988917984503E-15,-1.,0.));
#403=DIRECTION('',(-1.,4.68374225353004E-15,0.));
#404=DIRECTION('',(-4.70853514908081E-15,-1.,0.));
#405=DIRECTION('',(-1.,4.68374225353004E-15,0.));
#406=DIRECTION('',(-4.70853514908081E-15,-1.,0.));
#407=DIRECTION('',(-1.,4.68374225353004E-15,0.));
#408=DIRECTION('',(-4.6837422535179E-15,-1.,0.));
#409=DIRECTION('',(0.984807753012207,0.173648177666935,0.));
#410=DIRECTION('',(-1.,4.68374225353004E-15,0.));
#411=DIRECTION('',(-4.77111978245775E-15,-1.,0.));
#412=DIRECTION('',(-1.,4.68374225353004E-15,0.));
#413=DIRECTION('',(-4.58859691696753E-15,-1.,0.));
#414=DIRECTION('',(-1.,4.68374225353004E-15,0.));
#415=DIRECTION('',(-4.98792260158677E-15,-1.,0.));
#416=DIRECTION('',(0.,0.,1.));
#417=DIRECTION('',(1.,0.,0.));
#418=DIRECTION('',(-1.,4.62250991357267E-15,0.));
#419=DIRECTION('',(-4.77048955893622E-15,-1.,0.));
#420=DIRECTION('',(0.,1.,0.));
#421=DIRECTION('',(-1.,4.68374225353004E-15,0.));
#422=DIRECTION('',(-4.589646910899E-15,-1.,0.));
#423=DIRECTION('',(1.,-4.68374225353004E-15,0.));
#424=DIRECTION('',(4.68375338513738E-15,1.,0.));
#425=DIRECTION('',(0.,0.,1.));
#426=DIRECTION('',(1.,0.,0.));
#427=DIRECTION('',(-1.,4.62250991357267E-15,0.));
#428=DIRECTION('',(-4.77048955893622E-15,-1.,0.));
#429=CARTESIAN_POINT('',(0.,0.,0.));
#430=CARTESIAN_POINT('',(8.,1.36296817079811E-12,0.));
#431=CARTESIAN_POINT('',(7.99999999999997,-6.99999999999728,0.));
#432=CARTESIAN_POINT('',(8.,0.,0.));
#433=CARTESIAN_POINT('',(42.,1.20372093417809E-12,0.));
#434=CARTESIAN_POINT('',(42.,-2.8749999999976,0.));
#435=CARTESIAN_POINT('',(42.,2.875,0.));
#436=CARTESIAN_POINT('',(41.,1.20840467643162E-12,0.));
#437=CARTESIAN_POINT('',(41.,-3.87499999999758,0.));
#438=CARTESIAN_POINT('',(42.,1.20372093417809E-12,0.));
#439=CARTESIAN_POINT('',(31.6495190528358,1.25219991913468E-12,0.));
#440=CARTESIAN_POINT('',(31.6495190528358,-3.8749999999975,0.));
#441=CARTESIAN_POINT('',(-1.51118741983325E-9,1.40043810883343E-12,0.));
#442=CARTESIAN_POINT('',(31.,1.25524209896692E-12,0.));
#443=CARTESIAN_POINT('',(31.,-4.24999999999608,0.));
#444=CARTESIAN_POINT('',(31.6495190528358,1.25219991913468E-12,0.));
#445=CARTESIAN_POINT('',(26.2800426762176,1.27734916251918E-12,0.));
#446=CARTESIAN_POINT('',(26.2800426762175,-4.24999999999603,0.));
#447=CARTESIAN_POINT('',(-1.51118741983325E-9,1.40043810883343E-12,0.));
#448=CARTESIAN_POINT('',(25.5352914270615,1.28083738541322E-12,0.));
#449=CARTESIAN_POINT('',(25.5352914270615,-4.05044450422258,0.));
#450=CARTESIAN_POINT('',(26.2800426762176,1.27734916251918E-12,0.));
#451=CARTESIAN_POINT('',(24.8004445042266,1.28427921899558E-12,0.));
#452=CARTESIAN_POINT('',(24.8004445042265,-4.78529142705754,0.));
#453=CARTESIAN_POINT('',(25.38,1.28196064874686E-12,0.));
#454=CARTESIAN_POINT('',(25.,1.2833445524881E-12,0.));
#455=CARTESIAN_POINT('',(25.,-5.53004267621362,0.));
#456=CARTESIAN_POINT('',(24.8004445042266,1.28427921899558E-12,0.));
#457=CARTESIAN_POINT('',(25.,1.2833445524881E-12,0.));
#458=CARTESIAN_POINT('',(25.,-6.69999999999744,0.));
#459=CARTESIAN_POINT('',(25.,5.53004267621619,0.));
#460=CARTESIAN_POINT('',(24.7,1.28474967516416E-12,0.));
#461=CARTESIAN_POINT('',(24.7,-6.99999999999743,0.));
#462=CARTESIAN_POINT('',(25.,1.2833445524881E-12,0.));
#463=CARTESIAN_POINT('',(22.3464101615137,1.29577328333816E-12,0.));
#464=CARTESIAN_POINT('',(22.3464101615137,-6.9999999999974,0.));
#465=CARTESIAN_POINT('',(-1.51118741983325E-9,1.40043810883343E-12,0.));
#466=CARTESIAN_POINT('',(22.,1.29739577924869E-12,0.));
#467=CARTESIAN_POINT('',(22.,-6.7999999999974,0.));
#468=CARTESIAN_POINT('',(22.3464101615137,1.29577328333816E-12,0.));
#469=CARTESIAN_POINT('',(14.0097151566885,1.33482021398705E-12,0.));
#470=CARTESIAN_POINT('',(14.0097151566885,-6.79999999999732,0.));
#471=CARTESIAN_POINT('',(-1.51118741983325E-9,1.40043810883343E-12,0.));
#472=CARTESIAN_POINT('',(13.4920770664835,1.33724469738218E-12,0.));
#473=CARTESIAN_POINT('',(13.4920770664835,-6.86814834741919,0.));
#474=CARTESIAN_POINT('',(14.0097151566885,1.33400235302616E-12,0.));
#475=CARTESIAN_POINT('',(13.2543330950302,1.3383582288668E-12,0.));
#476=CARTESIAN_POINT('',(13.2543330950302,-6.93185165257546,0.));
#477=CARTESIAN_POINT('',(13.4920770664835,1.33724469738218E-12,0.));
#478=CARTESIAN_POINT('',(12.7366950048252,1.34078271226193E-12,0.));
#479=CARTESIAN_POINT('',(12.7366950048251,-6.99999999999732,0.));
#480=CARTESIAN_POINT('',(12.7366950048252,1.34094124693007E-12,0.));
#481=CARTESIAN_POINT('',(-1.51118741983325E-9,1.40043810883343E-12,0.));
#482=CARTESIAN_POINT('',(8.13002527682415,-7.99894326941921,0.));
#483=CARTESIAN_POINT('',(8.13002527682415,-7.99894326941921,0.));
#484=CARTESIAN_POINT('',(10.6136159303134,-7.56101922817367,0.));
#485=CARTESIAN_POINT('',(8.13002527682419,1.36235916591502E-12,0.));
#486=CARTESIAN_POINT('',(10.6136159303135,1.3507266674308E-12,0.));
#487=CARTESIAN_POINT('',(8.13002527682419,1.36235916591502E-12,0.));
#488=CARTESIAN_POINT('',(8.,0.,0.));
#489=CARTESIAN_POINT('',(0.,0.,0.));
#490=CARTESIAN_POINT('',(8.,0.,0.));
#491=CARTESIAN_POINT('',(14.,0.,0.));
#492=CARTESIAN_POINT('',(14.,-5.29150262212918,0.));
#493=CARTESIAN_POINT('',(14.,0.,0.));
#494=CARTESIAN_POINT('',(14.,1.33486571727693E-12,0.));
#495=CARTESIAN_POINT('',(14.,-5.80410146034204E-29,0.));
#496=CARTESIAN_POINT('',(8.,0.,0.));
#497=CARTESIAN_POINT('',(8.,0.,0.));
#498=MECHANICAL_DESIGN_GEOMETRIC_PRESENTATION_REPRESENTATION('',(#37,#38),
#499);
#499=(
GEOMETRIC_REPRESENTATION_CONTEXT(3)
GLOBAL_UNCERTAINTY_ASSIGNED_CONTEXT((#500))
GLOBAL_UNIT_ASSIGNED_CONTEXT((#506,#502,#501))
REPRESENTATION_CONTEXT('APMR-P3216-D16-M08-L25',
'TOP_LEVEL_ASSEMBLY_PART')
);
#500=UNCERTAINTY_MEASURE_WITH_UNIT(LENGTH_MEASURE(2.E-5),#506,
'DISTANCE_ACCURACY_VALUE','Maximum Tolerance applied to model');
#501=(
NAMED_UNIT(*)
SI_UNIT($,.STERADIAN.)
SOLID_ANGLE_UNIT()
);
#502=(
CONVERSION_BASED_UNIT('DEGREE',#504)
NAMED_UNIT(#503)
PLANE_ANGLE_UNIT()
);
#503=DIMENSIONAL_EXPONENTS(0.,0.,0.,0.,0.,0.,0.);
#504=PLANE_ANGLE_MEASURE_WITH_UNIT(PLANE_ANGLE_MEASURE(0.0174532925),#505);
#505=(
NAMED_UNIT(*)
PLANE_ANGLE_UNIT()
SI_UNIT($,.RADIAN.)
);
#506=(
LENGTH_UNIT()
NAMED_UNIT(*)
SI_UNIT(.MILLI.,.METRE.)
);
ENDSEC;
END-ISO-10303-21;
