ISO-10303-21;
HEADER;
/* Generated by software containing ST-Developer
 * from STEP Tools, Inc. (www.steptools.com) 
 */
/* OPTION: using custom schema-name function */

FILE_DESCRIPTION(
/* description */ (''),
/* implementation_level */ '2;1');

FILE_NAME(
/* name */ 'APMR-P3232-D32-C32-L200.stp',
/* time_stamp */ '2023-10-02T12:14:36+03:00',
/* author */ (''),
/* organization */ (''),
/* preprocessor_version */ 'ST-DEVELOPER v19.4',
/* originating_system */ 'SIEMENS PLM Software NX2306.5001',
/* authorisation */ '');

FILE_SCHEMA (('AUTOMOTIVE_DESIGN { 1 0 10303 214 3 1 1 1 }'));
ENDSEC;

DATA;
#10=PROPERTY_DEFINITION_REPRESENTATION(#14,#12);
#11=PROPERTY_DEFINITION_REPRESENTATION(#15,#13);
#12=REPRESENTATION('',(#16),#341);
#13=REPRESENTATION('',(#17),#341);
#14=PROPERTY_DEFINITION('pmi validation property','',#21);
#15=PROPERTY_DEFINITION('pmi validation property','',#21);
#16=VALUE_REPRESENTATION_ITEM('number of annotations',COUNT_MEASURE(0.));
#17=VALUE_REPRESENTATION_ITEM('number of views',COUNT_MEASURE(0.));
#18=SHAPE_REPRESENTATION_RELATIONSHIP('None',
'relationship between APMR-P3232-D32-C32-L200-LIGHT_x_t_objects-None a
nd APMR-P3232-D32-C32-L200-LIGHT_x_t_objects-None',#30,#19);
#19=ADVANCED_BREP_SHAPE_REPRESENTATION(
'APMR-P3232-D32-C32-L200-LIGHT_x_t_objects-None',(#56,#57),#341);
#20=SHAPE_DEFINITION_REPRESENTATION(#21,#30);
#21=PRODUCT_DEFINITION_SHAPE('','',#22);
#22=PRODUCT_DEFINITION(' ','',#24,#23);
#23=PRODUCT_DEFINITION_CONTEXT('part definition',#29,'design');
#24=PRODUCT_DEFINITION_FORMATION_WITH_SPECIFIED_SOURCE(' ',' ',#26,
 .NOT_KNOWN.);
#25=PRODUCT_RELATED_PRODUCT_CATEGORY('part','',(#26));
#26=PRODUCT('APMR-P3232-D32-C32-L200-LIGHT_x_t_objects',
'APMR-P3232-D32-C32-L200-LIGHT_x_t_objects',' ',(#27));
#27=PRODUCT_CONTEXT(' ',#29,'mechanical');
#28=APPLICATION_PROTOCOL_DEFINITION('international standard',
'automotive_design',2010,#29);
#29=APPLICATION_CONTEXT(
'core data for automotive mechanical design processes');
#30=SHAPE_REPRESENTATION(
'APMR-P3232-D32-C32-L200-LIGHT_x_t_objects-None',(#201),#341);
#31=COLOUR_RGB('silver gray',0.6,0.6,0.6);
#32=CONICAL_SURFACE('',#216,15.75,9.99999999999998);
#33=CONICAL_SURFACE('',#220,16.,44.9999999999984);
#34=CONICAL_SURFACE('',#222,15.75,1.19348942398204);
#35=CYLINDRICAL_SURFACE('',#214,15.75);
#36=CYLINDRICAL_SURFACE('',#218,16.);
#37=CYLINDRICAL_SURFACE('',#223,14.4999999999999);
#38=TOROIDAL_SURFACE('',#212,14.2499999999999,1.5);
#39=SPHERICAL_SURFACE('',#208,14.5);
#40=PRESENTATION_LAYER_ASSIGNMENT('1','Layer 1',(#56,#57));
#41=STYLED_ITEM('',(#43),#56);
#42=STYLED_ITEM('',(#44),#57);
#43=PRESENTATION_STYLE_ASSIGNMENT((#45));
#44=PRESENTATION_STYLE_ASSIGNMENT((#46));
#45=SURFACE_STYLE_USAGE(.BOTH.,#47);
#46=SURFACE_STYLE_USAGE(.BOTH.,#48);
#47=SURFACE_SIDE_STYLE('',(#49));
#48=SURFACE_SIDE_STYLE('',(#50));
#49=SURFACE_STYLE_FILL_AREA(#51);
#50=SURFACE_STYLE_FILL_AREA(#52);
#51=FILL_AREA_STYLE('',(#53));
#52=FILL_AREA_STYLE('',(#54));
#53=FILL_AREA_STYLE_COLOUR('',#55);
#54=FILL_AREA_STYLE_COLOUR('',#31);
#55=DRAUGHTING_PRE_DEFINED_COLOUR('yellow');
#56=MANIFOLD_SOLID_BREP('',#58);
#57=MANIFOLD_SOLID_BREP('',#59);
#58=CLOSED_SHELL('',(#97,#98,#99,#100,#101));
#59=CLOSED_SHELL('',(#102,#103,#104,#105,#106,#107,#108,#109,#110));
#60=(
BOUNDED_CURVE()
B_SPLINE_CURVE(3,(#308,#309,#310,#311),.UNSPECIFIED.,.F.,.F.)
B_SPLINE_CURVE_WITH_KNOTS((4,4),(0.,1.),.UNSPECIFIED.)
CURVE()
GEOMETRIC_REPRESENTATION_ITEM()
RATIONAL_B_SPLINE_CURVE((1.,0.990400285390107,0.990400285390107,1.))
REPRESENTATION_ITEM('')
);
#61=LINE('',#304,#63);
#62=LINE('',#313,#64);
#63=VECTOR('',#235,5.67463929142798);
#64=VECTOR('',#240,12.1451702447774);
#65=SURFACE_OF_REVOLUTION('',#73,#69);
#66=SURFACE_OF_REVOLUTION('',#61,#70);
#67=SURFACE_OF_REVOLUTION('',#60,#71);
#68=SURFACE_OF_REVOLUTION('',#62,#72);
#69=AXIS1_PLACEMENT('',#301,#232);
#70=AXIS1_PLACEMENT('',#305,#236);
#71=AXIS1_PLACEMENT('',#312,#239);
#72=AXIS1_PLACEMENT('',#314,#241);
#73=B_SPLINE_CURVE_WITH_KNOTS('',3,(#283,#284,#285,#286,#287,#288,#289,
#290,#291,#292,#293,#294,#295,#296,#297,#298,#299,#300),.UNSPECIFIED.,.F.,
 .F.,(4,2,2,2,2,2,2,2,4),(0.,0.125000000000002,0.249999999999996,0.374999999999999,
0.5,0.625000000000001,0.750000000000004,0.874999999999998,1.),
 .UNSPECIFIED.);
#74=FACE_BOUND('',#96,.T.);
#75=FACE_BOUND('',#117,.T.);
#76=FACE_BOUND('',#118,.T.);
#77=FACE_BOUND('',#119,.T.);
#78=FACE_BOUND('',#120,.T.);
#79=FACE_BOUND('',#121,.T.);
#80=FACE_BOUND('',#122,.T.);
#81=FACE_BOUND('',#123,.T.);
#82=FACE_BOUND('',#126,.T.);
#83=FACE_BOUND('',#127,.T.);
#84=FACE_BOUND('',#128,.T.);
#85=FACE_BOUND('',#129,.T.);
#86=FACE_BOUND('',#130,.T.);
#87=FACE_BOUND('',#131,.T.);
#88=FACE_BOUND('',#132,.T.);
#89=FACE_BOUND('',#133,.T.);
#90=FACE_BOUND('',#134,.T.);
#91=FACE_BOUND('',#135,.T.);
#92=FACE_BOUND('',#136,.T.);
#93=FACE_BOUND('',#137,.T.);
#94=FACE_BOUND('',#138,.T.);
#95=FACE_BOUND('',#139,.T.);
#96=VERTEX_LOOP('',#165);
#97=ADVANCED_FACE('',(#113),#111,.F.);
#98=ADVANCED_FACE('',(#74,#75),#65,.T.);
#99=ADVANCED_FACE('',(#76,#77),#66,.T.);
#100=ADVANCED_FACE('',(#78,#79),#67,.T.);
#101=ADVANCED_FACE('',(#80,#81),#68,.T.);
#102=ADVANCED_FACE('',(#114),#39,.T.);
#103=ADVANCED_FACE('',(#115),#112,.F.);
#104=ADVANCED_FACE('',(#82,#83),#38,.T.);
#105=ADVANCED_FACE('',(#84,#85),#35,.T.);
#106=ADVANCED_FACE('',(#86,#87),#32,.T.);
#107=ADVANCED_FACE('',(#88,#89),#36,.T.);
#108=ADVANCED_FACE('',(#90,#91),#33,.T.);
#109=ADVANCED_FACE('',(#92,#93),#34,.T.);
#110=ADVANCED_FACE('',(#94,#95),#37,.T.);
#111=PLANE('',#203);
#112=PLANE('',#210);
#113=FACE_OUTER_BOUND('',#116,.T.);
#114=FACE_OUTER_BOUND('',#124,.T.);
#115=FACE_OUTER_BOUND('',#125,.T.);
#116=EDGE_LOOP('',(#140));
#117=EDGE_LOOP('',(#141));
#118=EDGE_LOOP('',(#142));
#119=EDGE_LOOP('',(#143));
#120=EDGE_LOOP('',(#144));
#121=EDGE_LOOP('',(#145));
#122=EDGE_LOOP('',(#146));
#123=EDGE_LOOP('',(#147));
#124=EDGE_LOOP('',(#148));
#125=EDGE_LOOP('',(#149));
#126=EDGE_LOOP('',(#150));
#127=EDGE_LOOP('',(#151));
#128=EDGE_LOOP('',(#152));
#129=EDGE_LOOP('',(#153));
#130=EDGE_LOOP('',(#154));
#131=EDGE_LOOP('',(#155));
#132=EDGE_LOOP('',(#156));
#133=EDGE_LOOP('',(#157));
#134=EDGE_LOOP('',(#158));
#135=EDGE_LOOP('',(#159));
#136=EDGE_LOOP('',(#160));
#137=EDGE_LOOP('',(#161));
#138=EDGE_LOOP('',(#162));
#139=EDGE_LOOP('',(#163));
#140=ORIENTED_EDGE('',*,*,#177,.F.);
#141=ORIENTED_EDGE('',*,*,#178,.T.);
#142=ORIENTED_EDGE('',*,*,#178,.F.);
#143=ORIENTED_EDGE('',*,*,#179,.T.);
#144=ORIENTED_EDGE('',*,*,#179,.F.);
#145=ORIENTED_EDGE('',*,*,#180,.T.);
#146=ORIENTED_EDGE('',*,*,#177,.T.);
#147=ORIENTED_EDGE('',*,*,#180,.F.);
#148=ORIENTED_EDGE('',*,*,#181,.T.);
#149=ORIENTED_EDGE('',*,*,#182,.F.);
#150=ORIENTED_EDGE('',*,*,#183,.F.);
#151=ORIENTED_EDGE('',*,*,#182,.T.);
#152=ORIENTED_EDGE('',*,*,#184,.F.);
#153=ORIENTED_EDGE('',*,*,#183,.T.);
#154=ORIENTED_EDGE('',*,*,#185,.F.);
#155=ORIENTED_EDGE('',*,*,#184,.T.);
#156=ORIENTED_EDGE('',*,*,#186,.F.);
#157=ORIENTED_EDGE('',*,*,#185,.T.);
#158=ORIENTED_EDGE('',*,*,#187,.F.);
#159=ORIENTED_EDGE('',*,*,#186,.T.);
#160=ORIENTED_EDGE('',*,*,#188,.F.);
#161=ORIENTED_EDGE('',*,*,#187,.T.);
#162=ORIENTED_EDGE('',*,*,#181,.F.);
#163=ORIENTED_EDGE('',*,*,#188,.T.);
#164=VERTEX_POINT('',#278);
#165=VERTEX_POINT('',#280);
#166=VERTEX_POINT('',#282);
#167=VERTEX_POINT('',#303);
#168=VERTEX_POINT('',#307);
#169=VERTEX_POINT('',#316);
#170=VERTEX_POINT('',#319);
#171=VERTEX_POINT('',#322);
#172=VERTEX_POINT('',#325);
#173=VERTEX_POINT('',#328);
#174=VERTEX_POINT('',#331);
#175=VERTEX_POINT('',#334);
#176=VERTEX_POINT('',#337);
#177=EDGE_CURVE('',#164,#164,#189,.T.);
#178=EDGE_CURVE('',#166,#166,#190,.T.);
#179=EDGE_CURVE('',#167,#167,#191,.T.);
#180=EDGE_CURVE('',#168,#168,#192,.T.);
#181=EDGE_CURVE('',#169,#169,#193,.T.);
#182=EDGE_CURVE('',#170,#170,#194,.T.);
#183=EDGE_CURVE('',#171,#171,#195,.T.);
#184=EDGE_CURVE('',#172,#172,#196,.T.);
#185=EDGE_CURVE('',#173,#173,#197,.T.);
#186=EDGE_CURVE('',#174,#174,#198,.T.);
#187=EDGE_CURVE('',#175,#175,#199,.T.);
#188=EDGE_CURVE('',#176,#176,#200,.T.);
#189=CIRCLE('',#202,2.13476629270649);
#190=CIRCLE('',#204,16.1284974865333);
#191=CIRCLE('',#205,15.0829578705344);
#192=CIRCLE('',#206,12.3325588964654);
#193=CIRCLE('',#207,14.4999999999999);
#194=CIRCLE('',#209,14.2499999999999);
#195=CIRCLE('',#211,15.75);
#196=CIRCLE('',#213,15.75);
#197=CIRCLE('',#215,16.);
#198=CIRCLE('',#217,16.);
#199=CIRCLE('',#219,15.75);
#200=CIRCLE('',#221,14.4999999999999);
#201=AXIS2_PLACEMENT_3D('',#276,#224,#225);
#202=AXIS2_PLACEMENT_3D('',#277,#226,#227);
#203=AXIS2_PLACEMENT_3D('',#279,#228,#229);
#204=AXIS2_PLACEMENT_3D('',#281,#230,#231);
#205=AXIS2_PLACEMENT_3D('',#302,#233,#234);
#206=AXIS2_PLACEMENT_3D('',#306,#237,#238);
#207=AXIS2_PLACEMENT_3D('',#315,#242,#243);
#208=AXIS2_PLACEMENT_3D('',#317,#244,#245);
#209=AXIS2_PLACEMENT_3D('',#318,#246,#247);
#210=AXIS2_PLACEMENT_3D('',#320,#248,#249);
#211=AXIS2_PLACEMENT_3D('',#321,#250,#251);
#212=AXIS2_PLACEMENT_3D('',#323,#252,#253);
#213=AXIS2_PLACEMENT_3D('',#324,#254,#255);
#214=AXIS2_PLACEMENT_3D('',#326,#256,#257);
#215=AXIS2_PLACEMENT_3D('',#327,#258,#259);
#216=AXIS2_PLACEMENT_3D('',#329,#260,#261);
#217=AXIS2_PLACEMENT_3D('',#330,#262,#263);
#218=AXIS2_PLACEMENT_3D('',#332,#264,#265);
#219=AXIS2_PLACEMENT_3D('',#333,#266,#267);
#220=AXIS2_PLACEMENT_3D('',#335,#268,#269);
#221=AXIS2_PLACEMENT_3D('',#336,#270,#271);
#222=AXIS2_PLACEMENT_3D('',#338,#272,#273);
#223=AXIS2_PLACEMENT_3D('',#339,#274,#275);
#224=DIRECTION('',(0.,0.,1.));
#225=DIRECTION('',(1.,0.,0.));
#226=DIRECTION('',(-1.,0.,0.));
#227=DIRECTION('',(0.,0.,1.));
#228=DIRECTION('',(-1.,0.,0.));
#229=DIRECTION('',(0.,0.,1.));
#230=DIRECTION('',(-1.,0.,0.));
#231=DIRECTION('',(0.,0.,1.));
#232=DIRECTION('',(-1.,0.,0.));
#233=DIRECTION('',(-1.,0.,0.));
#234=DIRECTION('',(0.,0.,1.));
#235=DIRECTION('',(-0.977878872211502,-0.172426429035657,0.118414685965769));
#236=DIRECTION('',(-1.,0.,0.));
#237=DIRECTION('',(-1.,0.,0.));
#238=DIRECTION('',(0.,0.,1.));
#239=DIRECTION('',(-1.,0.,0.));
#240=DIRECTION('',(0.0171896959130838,-0.978652821897936,0.204800313831843));
#241=DIRECTION('',(-1.,0.,0.));
#242=DIRECTION('',(-1.,0.,0.));
#243=DIRECTION('',(0.,0.,1.));
#244=DIRECTION('',(-1.,6.12323399573677E-17,0.));
#245=DIRECTION('',(0.,1.,0.));
#246=DIRECTION('',(-1.,0.,0.));
#247=DIRECTION('',(0.,0.,1.));
#248=DIRECTION('',(-1.,0.,0.));
#249=DIRECTION('',(0.,0.,1.));
#250=DIRECTION('',(-1.,0.,0.));
#251=DIRECTION('',(0.,0.,1.));
#252=DIRECTION('',(-1.,0.,0.));
#253=DIRECTION('',(0.,0.,1.));
#254=DIRECTION('',(-1.,0.,0.));
#255=DIRECTION('',(0.,0.,1.));
#256=DIRECTION('',(-1.,0.,0.));
#257=DIRECTION('',(0.,0.,1.));
#258=DIRECTION('',(-1.,0.,0.));
#259=DIRECTION('',(0.,0.,1.));
#260=DIRECTION('',(-1.,0.,0.));
#261=DIRECTION('',(-2.89004705438977E-16,0.,1.));
#262=DIRECTION('',(-1.,0.,0.));
#263=DIRECTION('',(0.,0.,1.));
#264=DIRECTION('',(-1.,0.,0.));
#265=DIRECTION('',(0.,0.,1.));
#266=DIRECTION('',(-1.,0.,0.));
#267=DIRECTION('',(0.,0.,1.));
#268=DIRECTION('',(1.,0.,0.));
#269=DIRECTION('',(-5.46369598732882E-17,0.,-1.));
#270=DIRECTION('',(-1.,0.,0.));
#271=DIRECTION('',(0.,0.,1.));
#272=DIRECTION('',(1.,0.,0.));
#273=DIRECTION('',(2.27608364957321E-15,0.,-1.));
#274=DIRECTION('',(-1.,0.,0.));
#275=DIRECTION('',(0.,0.,1.));
#276=CARTESIAN_POINT('',(0.,0.,0.));
#277=CARTESIAN_POINT('',(25.9925395921089,0.,0.));
#278=CARTESIAN_POINT('',(25.9925395921089,0.,2.13476629270649));
#279=CARTESIAN_POINT('',(25.9925395921089,0.,0.));
#280=CARTESIAN_POINT('',(-4.16333634234413E-14,2.7149900193519E-14,2.36136100480224E-13));
#281=CARTESIAN_POINT('',(15.9604038629999,0.,0.));
#282=CARTESIAN_POINT('',(15.9604038629999,0.,16.1284974865333));
#283=CARTESIAN_POINT('',(15.9604038629999,-15.9999510044855,2.03223990394292));
#284=CARTESIAN_POINT('',(14.9148454263082,-15.997363491862,2.11945243898026));
#285=CARTESIAN_POINT('',(13.8695949695551,-15.8919647753094,2.18497250005578));
#286=CARTESIAN_POINT('',(11.8195675566241,-15.4795721710855,2.27013098146659));
#287=CARTESIAN_POINT('',(10.8148548976285,-15.1725884502538,2.28976614766609));
#288=CARTESIAN_POINT('',(8.88442324487021,-14.3687764773252,2.28239804204111));
#289=CARTESIAN_POINT('',(7.95875168126263,-13.8719679746556,2.25539495125299));
#290=CARTESIAN_POINT('',(6.22186837164443,-12.7075297313046,2.15578252211728));
#291=CARTESIAN_POINT('',(5.41069930036807,-12.0399286005451,2.08317563122333));
#292=CARTESIAN_POINT('',(3.9339023057832,-10.5594723564714,1.89513491444988));
#293=CARTESIAN_POINT('',(3.26831066697427,-9.74665361756573,1.77970570867933));
#294=CARTESIAN_POINT('',(2.1081743562233,-8.00689392313664,1.51044032459352));
#295=CARTESIAN_POINT('',(1.61365818853046,-7.07999571306638,1.35661076206526));
#296=CARTESIAN_POINT('',(0.814626029297162,-5.14758073111994,1.01643595318781));
#297=CARTESIAN_POINT('',(0.510129669785858,-4.14211143822198,0.830099064854804));
#298=CARTESIAN_POINT('',(0.102811651281479,-2.09106973075119,0.432046530980144));
#299=CARTESIAN_POINT('',(-1.35360141358004E-13,-1.04556157249682,0.220343586946739));
#300=CARTESIAN_POINT('',(-4.16333634234413E-14,2.7149900193519E-14,2.36136100480224E-13));
#301=CARTESIAN_POINT('',(0.,0.,0.));
#302=CARTESIAN_POINT('',(21.5095137335086,0.,0.));
#303=CARTESIAN_POINT('',(21.5095137335086,0.,15.0829578705344));
#304=CARTESIAN_POINT('',(21.5095137335086,-15.0214932153991,1.36027927427923));
#305=CARTESIAN_POINT('',(0.,0.,0.));
#306=CARTESIAN_POINT('',(26.2013113754292,0.,0.));
#307=CARTESIAN_POINT('',(26.2013113754292,0.,12.3325588964654));
#308=CARTESIAN_POINT('',(26.2013113754293,-12.3261204854381,0.398450389948159));
#309=CARTESIAN_POINT('',(24.7983519466517,-13.4872340732018,0.760901526460293));
#310=CARTESIAN_POINT('',(23.219260572813,-14.3944001856387,1.08461874750701));
#311=CARTESIAN_POINT('',(21.5095137335086,-15.0214932153991,1.36027927427923));
#312=CARTESIAN_POINT('',(0.,0.,0.));
#313=CARTESIAN_POINT('',(25.9925395921089,-0.440215352955926,-2.08888428772341));
#314=CARTESIAN_POINT('',(0.,0.,0.));
#315=CARTESIAN_POINT('',(16.,1.27502175484295E-13,0.));
#316=CARTESIAN_POINT('',(16.,1.27502175484295E-13,14.4999999999999));
#317=CARTESIAN_POINT('',(16.,1.27502175484295E-13,0.));
#318=CARTESIAN_POINT('',(200.,1.27502175484295E-13,0.));
#319=CARTESIAN_POINT('',(200.,1.27502175484295E-13,14.2499999999999));
#320=CARTESIAN_POINT('',(200.,14.25,0.));
#321=CARTESIAN_POINT('',(198.5,1.27502175484295E-13,0.));
#322=CARTESIAN_POINT('',(198.5,1.27502175484295E-13,15.75));
#323=CARTESIAN_POINT('',(198.5,1.26634813746307E-13,0.));
#324=CARTESIAN_POINT('',(196.,1.27502175484295E-13,0.));
#325=CARTESIAN_POINT('',(196.,1.27502175484295E-13,15.75));
#326=CARTESIAN_POINT('',(3.45082291782168E-14,1.27502175484295E-13,0.));
#327=CARTESIAN_POINT('',(194.582179545096,1.27502175484295E-13,0.));
#328=CARTESIAN_POINT('',(194.582179545096,1.27502175484295E-13,16.));
#329=CARTESIAN_POINT('',(196.,1.27502175484295E-13,0.));
#330=CARTESIAN_POINT('',(100.25,1.27502175484295E-13,0.));
#331=CARTESIAN_POINT('',(100.25,1.27502175484295E-13,16.));
#332=CARTESIAN_POINT('',(3.45082291782168E-14,1.27502175484295E-13,0.));
#333=CARTESIAN_POINT('',(100.,1.27502175484295E-13,0.));
#334=CARTESIAN_POINT('',(100.,1.27502175484295E-13,15.75));
#335=CARTESIAN_POINT('',(100.25,1.27502175484295E-13,0.));
#336=CARTESIAN_POINT('',(40.,1.27502175484295E-13,0.));
#337=CARTESIAN_POINT('',(40.,1.27502175484295E-13,14.4999999999999));
#338=CARTESIAN_POINT('',(100.,1.27502175484295E-13,0.));
#339=CARTESIAN_POINT('',(3.45082291782168E-14,1.27502175484295E-13,0.));
#340=MECHANICAL_DESIGN_GEOMETRIC_PRESENTATION_REPRESENTATION('',(#41,#42),
#341);
#341=(
GEOMETRIC_REPRESENTATION_CONTEXT(3)
GLOBAL_UNCERTAINTY_ASSIGNED_CONTEXT((#342))
GLOBAL_UNIT_ASSIGNED_CONTEXT((#348,#344,#343))
REPRESENTATION_CONTEXT('APMR-P3232-D32-C32-L200',
'TOP_LEVEL_ASSEMBLY_PART')
);
#342=UNCERTAINTY_MEASURE_WITH_UNIT(LENGTH_MEASURE(0.0508),#348,
'DISTANCE_ACCURACY_VALUE','Maximum Tolerance applied to model');
#343=(
NAMED_UNIT(*)
SI_UNIT($,.STERADIAN.)
SOLID_ANGLE_UNIT()
);
#344=(
CONVERSION_BASED_UNIT('DEGREE',#346)
NAMED_UNIT(#345)
PLANE_ANGLE_UNIT()
);
#345=DIMENSIONAL_EXPONENTS(0.,0.,0.,0.,0.,0.,0.);
#346=PLANE_ANGLE_MEASURE_WITH_UNIT(PLANE_ANGLE_MEASURE(0.0174532925),#347);
#347=(
NAMED_UNIT(*)
PLANE_ANGLE_UNIT()
SI_UNIT($,.RADIAN.)
);
#348=(
LENGTH_UNIT()
NAMED_UNIT(*)
SI_UNIT(.MILLI.,.METRE.)
);
ENDSEC;
END-ISO-10303-21;
