ISO-10303-21;
HEADER;
/* Generated by software containing ST-Developer
 * from STEP Tools, Inc. (www.steptools.com) 
 */
/* OPTION: using custom schema-name function */

FILE_DESCRIPTION(
/* description */ (''),
/* implementation_level */ '2;1');

FILE_NAME(
/* name */ 'APMR-P3232-D32-M16-L43-LIGHT_x_t.stp',
/* time_stamp */ '2023-09-29T19:24:40+03:00',
/* author */ (''),
/* organization */ (''),
/* preprocessor_version */ 'ST-DEVELOPER v19.4',
/* originating_system */ 'SIEMENS PLM Software NX2306.5001',
/* authorisation */ '');

FILE_SCHEMA (('AUTOMOTIVE_DESIGN { 1 0 10303 214 3 1 1 1 }'));
ENDSEC;

DATA;
#10=PROPERTY_DEFINITION_REPRESENTATION(#14,#12);
#11=PROPERTY_DEFINITION_REPRESENTATION(#15,#13);
#12=REPRESENTATION('',(#16),#531);
#13=REPRESENTATION('',(#17),#531);
#14=PROPERTY_DEFINITION('pmi validation property','',#21);
#15=PROPERTY_DEFINITION('pmi validation property','',#21);
#16=VALUE_REPRESENTATION_ITEM('number of annotations',COUNT_MEASURE(0.));
#17=VALUE_REPRESENTATION_ITEM('number of views',COUNT_MEASURE(0.));
#18=SHAPE_REPRESENTATION_RELATIONSHIP('None',
'relationship between APMR-P3232-D32-M16-L43-LIGHT_x_t_objects-None an
d APMR-P3232-D32-M16-L43-LIGHT_x_t_objects-None',#30,#19);
#19=ADVANCED_BREP_SHAPE_REPRESENTATION(
'APMR-P3232-D32-M16-L43-LIGHT_x_t_objects-None',(#56,#57),#531);
#20=SHAPE_DEFINITION_REPRESENTATION(#21,#30);
#21=PRODUCT_DEFINITION_SHAPE('','',#22);
#22=PRODUCT_DEFINITION(' ','',#24,#23);
#23=PRODUCT_DEFINITION_CONTEXT('part definition',#29,'design');
#24=PRODUCT_DEFINITION_FORMATION_WITH_SPECIFIED_SOURCE(' ',' ',#26,
 .NOT_KNOWN.);
#25=PRODUCT_RELATED_PRODUCT_CATEGORY('part','',(#26));
#26=PRODUCT('APMR-P3232-D32-M16-L43-LIGHT_x_t_objects',
'APMR-P3232-D32-M16-L43-LIGHT_x_t_objects',' ',(#27));
#27=PRODUCT_CONTEXT(' ',#29,'mechanical');
#28=APPLICATION_PROTOCOL_DEFINITION('international standard',
'automotive_design',2010,#29);
#29=APPLICATION_CONTEXT(
'core data for automotive mechanical design processes');
#30=SHAPE_REPRESENTATION(
'APMR-P3232-D32-M16-L43-LIGHT_x_t_objects-None',(#308),#531);
#31=DRAUGHTING_PRE_DEFINED_COLOUR('yellow');
#32=LINE('',#512,#36);
#33=LINE('',#514,#37);
#34=LINE('',#523,#38);
#35=LINE('',#524,#39);
#36=VECTOR('',#432,1.);
#37=VECTOR('',#433,1.);
#38=VECTOR('',#444,1.);
#39=VECTOR('',#445,1.);
#40=PRESENTATION_LAYER_ASSIGNMENT('1','Layer 1',(#56,#57));
#41=STYLED_ITEM('',(#43),#56);
#42=STYLED_ITEM('',(#44),#57);
#43=PRESENTATION_STYLE_ASSIGNMENT((#45));
#44=PRESENTATION_STYLE_ASSIGNMENT((#46));
#45=SURFACE_STYLE_USAGE(.BOTH.,#47);
#46=SURFACE_STYLE_USAGE(.BOTH.,#48);
#47=SURFACE_SIDE_STYLE('',(#49));
#48=SURFACE_SIDE_STYLE('',(#50));
#49=SURFACE_STYLE_FILL_AREA(#51);
#50=SURFACE_STYLE_FILL_AREA(#52);
#51=FILL_AREA_STYLE('',(#53));
#52=FILL_AREA_STYLE('',(#54));
#53=FILL_AREA_STYLE_COLOUR('',#55);
#54=FILL_AREA_STYLE_COLOUR('',#31);
#55=COLOUR_RGB('silver gray',0.6,0.6,0.6);
#56=MANIFOLD_SOLID_BREP('',#58);
#57=MANIFOLD_SOLID_BREP('',#59);
#58=CLOSED_SHELL('',(#104,#105,#106,#107,#108,#109,#110,#111,#112,#113,
#114,#115,#116,#117,#118));
#59=CLOSED_SHELL('',(#119,#120,#121,#122,#123,#124,#125,#126));
#60=TOROIDAL_SURFACE('',#326,8.69999999999974,0.4);
#61=CYLINDRICAL_SURFACE('',#316,7.87499999999987);
#62=CYLINDRICAL_SURFACE('',#320,8.49999999999974);
#63=CYLINDRICAL_SURFACE('',#324,8.29999999999975);
#64=CYLINDRICAL_SURFACE('',#334,14.4999999999997);
#65=CYLINDRICAL_SURFACE('',#337,14.2999999999999);
#66=CONICAL_SURFACE('',#314,5.87499999999987,45.0000000000002);
#67=CONICAL_SURFACE('',#318,7.87499999999987,29.9999999999996);
#68=CONICAL_SURFACE('',#322,8.49999999999974,14.9999999999999);
#69=CONICAL_SURFACE('',#328,8.80352761804075,74.9999999999999);
#70=CONICAL_SURFACE('',#332,13.9999999999997,45.);
#71=CONICAL_SURFACE('',#336,14.4999999999997,45.0000000000005);
#72=CONICAL_SURFACE('',#351,15.9999510044855,10.0000000000002);
#73=CONICAL_SURFACE('',#355,15.9999510044854,10.0000000000002);
#74=FACE_BOUND('',#144,.T.);
#75=FACE_BOUND('',#145,.T.);
#76=FACE_BOUND('',#146,.T.);
#77=FACE_BOUND('',#147,.T.);
#78=FACE_BOUND('',#148,.T.);
#79=FACE_BOUND('',#149,.T.);
#80=FACE_BOUND('',#150,.T.);
#81=FACE_BOUND('',#151,.T.);
#82=FACE_BOUND('',#152,.T.);
#83=FACE_BOUND('',#153,.T.);
#84=FACE_BOUND('',#154,.T.);
#85=FACE_BOUND('',#155,.T.);
#86=FACE_BOUND('',#156,.T.);
#87=FACE_BOUND('',#157,.T.);
#88=FACE_BOUND('',#158,.T.);
#89=FACE_BOUND('',#159,.T.);
#90=FACE_BOUND('',#160,.T.);
#91=FACE_BOUND('',#161,.T.);
#92=FACE_BOUND('',#162,.T.);
#93=FACE_BOUND('',#163,.T.);
#94=FACE_BOUND('',#164,.T.);
#95=FACE_BOUND('',#165,.T.);
#96=FACE_BOUND('',#166,.T.);
#97=FACE_BOUND('',#167,.T.);
#98=FACE_BOUND('',#168,.T.);
#99=FACE_BOUND('',#169,.T.);
#100=PLANE('',#312);
#101=PLANE('',#330);
#102=PLANE('',#346);
#103=PLANE('',#352);
#104=ADVANCED_FACE('',(#132),#127,.T.);
#105=ADVANCED_FACE('',(#133),#100,.F.);
#106=ADVANCED_FACE('',(#74,#75),#66,.T.);
#107=ADVANCED_FACE('',(#76,#77),#61,.T.);
#108=ADVANCED_FACE('',(#78,#79),#67,.T.);
#109=ADVANCED_FACE('',(#80,#81),#62,.T.);
#110=ADVANCED_FACE('',(#82,#83),#68,.T.);
#111=ADVANCED_FACE('',(#84,#85),#63,.T.);
#112=ADVANCED_FACE('',(#86,#87),#60,.F.);
#113=ADVANCED_FACE('',(#88,#89),#69,.F.);
#114=ADVANCED_FACE('',(#90,#91),#101,.F.);
#115=ADVANCED_FACE('',(#92,#93),#70,.T.);
#116=ADVANCED_FACE('',(#94,#95),#64,.T.);
#117=ADVANCED_FACE('',(#96,#97),#71,.T.);
#118=ADVANCED_FACE('',(#98,#99),#65,.T.);
#119=ADVANCED_FACE('',(#134),#128,.T.);
#120=ADVANCED_FACE('',(#135),#129,.T.);
#121=ADVANCED_FACE('',(#136),#102,.F.);
#122=ADVANCED_FACE('',(#137),#130,.T.);
#123=ADVANCED_FACE('',(#138),#72,.T.);
#124=ADVANCED_FACE('',(#139),#103,.F.);
#125=ADVANCED_FACE('',(#140),#131,.T.);
#126=ADVANCED_FACE('',(#141),#73,.T.);
#127=SPHERICAL_SURFACE('',#310,14.3);
#128=SPHERICAL_SURFACE('',#342,16.);
#129=SPHERICAL_SURFACE('',#345,16.);
#130=SPHERICAL_SURFACE('',#350,16.);
#131=SPHERICAL_SURFACE('',#354,16.);
#132=FACE_OUTER_BOUND('',#142,.T.);
#133=FACE_OUTER_BOUND('',#143,.T.);
#134=FACE_OUTER_BOUND('',#170,.T.);
#135=FACE_OUTER_BOUND('',#171,.T.);
#136=FACE_OUTER_BOUND('',#172,.T.);
#137=FACE_OUTER_BOUND('',#173,.T.);
#138=FACE_OUTER_BOUND('',#174,.T.);
#139=FACE_OUTER_BOUND('',#175,.T.);
#140=FACE_OUTER_BOUND('',#176,.T.);
#141=FACE_OUTER_BOUND('',#177,.T.);
#142=EDGE_LOOP('',(#178));
#143=EDGE_LOOP('',(#179));
#144=EDGE_LOOP('',(#180));
#145=EDGE_LOOP('',(#181));
#146=EDGE_LOOP('',(#182));
#147=EDGE_LOOP('',(#183));
#148=EDGE_LOOP('',(#184));
#149=EDGE_LOOP('',(#185));
#150=EDGE_LOOP('',(#186));
#151=EDGE_LOOP('',(#187));
#152=EDGE_LOOP('',(#188));
#153=EDGE_LOOP('',(#189));
#154=EDGE_LOOP('',(#190));
#155=EDGE_LOOP('',(#191));
#156=EDGE_LOOP('',(#192));
#157=EDGE_LOOP('',(#193));
#158=EDGE_LOOP('',(#194));
#159=EDGE_LOOP('',(#195));
#160=EDGE_LOOP('',(#196));
#161=EDGE_LOOP('',(#197));
#162=EDGE_LOOP('',(#198));
#163=EDGE_LOOP('',(#199));
#164=EDGE_LOOP('',(#200));
#165=EDGE_LOOP('',(#201));
#166=EDGE_LOOP('',(#202));
#167=EDGE_LOOP('',(#203));
#168=EDGE_LOOP('',(#204));
#169=EDGE_LOOP('',(#205));
#170=EDGE_LOOP('',(#206,#207,#208,#209));
#171=EDGE_LOOP('',(#210,#211,#212,#213));
#172=EDGE_LOOP('',(#214,#215,#216));
#173=EDGE_LOOP('',(#217,#218,#219));
#174=EDGE_LOOP('',(#220,#221,#222,#223));
#175=EDGE_LOOP('',(#224,#225,#226));
#176=EDGE_LOOP('',(#227,#228,#229));
#177=EDGE_LOOP('',(#230,#231,#232,#233));
#178=ORIENTED_EDGE('',*,*,#256,.T.);
#179=ORIENTED_EDGE('',*,*,#257,.F.);
#180=ORIENTED_EDGE('',*,*,#258,.F.);
#181=ORIENTED_EDGE('',*,*,#257,.T.);
#182=ORIENTED_EDGE('',*,*,#259,.F.);
#183=ORIENTED_EDGE('',*,*,#258,.T.);
#184=ORIENTED_EDGE('',*,*,#260,.F.);
#185=ORIENTED_EDGE('',*,*,#259,.T.);
#186=ORIENTED_EDGE('',*,*,#261,.F.);
#187=ORIENTED_EDGE('',*,*,#260,.T.);
#188=ORIENTED_EDGE('',*,*,#262,.F.);
#189=ORIENTED_EDGE('',*,*,#261,.T.);
#190=ORIENTED_EDGE('',*,*,#263,.F.);
#191=ORIENTED_EDGE('',*,*,#262,.T.);
#192=ORIENTED_EDGE('',*,*,#264,.F.);
#193=ORIENTED_EDGE('',*,*,#263,.T.);
#194=ORIENTED_EDGE('',*,*,#265,.F.);
#195=ORIENTED_EDGE('',*,*,#264,.T.);
#196=ORIENTED_EDGE('',*,*,#266,.F.);
#197=ORIENTED_EDGE('',*,*,#265,.T.);
#198=ORIENTED_EDGE('',*,*,#267,.F.);
#199=ORIENTED_EDGE('',*,*,#266,.T.);
#200=ORIENTED_EDGE('',*,*,#268,.F.);
#201=ORIENTED_EDGE('',*,*,#267,.T.);
#202=ORIENTED_EDGE('',*,*,#269,.F.);
#203=ORIENTED_EDGE('',*,*,#268,.T.);
#204=ORIENTED_EDGE('',*,*,#256,.F.);
#205=ORIENTED_EDGE('',*,*,#269,.T.);
#206=ORIENTED_EDGE('',*,*,#270,.F.);
#207=ORIENTED_EDGE('',*,*,#271,.T.);
#208=ORIENTED_EDGE('',*,*,#272,.F.);
#209=ORIENTED_EDGE('',*,*,#273,.F.);
#210=ORIENTED_EDGE('',*,*,#274,.F.);
#211=ORIENTED_EDGE('',*,*,#272,.T.);
#212=ORIENTED_EDGE('',*,*,#275,.T.);
#213=ORIENTED_EDGE('',*,*,#270,.T.);
#214=ORIENTED_EDGE('',*,*,#276,.F.);
#215=ORIENTED_EDGE('',*,*,#274,.T.);
#216=ORIENTED_EDGE('',*,*,#277,.F.);
#217=ORIENTED_EDGE('',*,*,#278,.F.);
#218=ORIENTED_EDGE('',*,*,#279,.T.);
#219=ORIENTED_EDGE('',*,*,#280,.T.);
#220=ORIENTED_EDGE('',*,*,#281,.T.);
#221=ORIENTED_EDGE('',*,*,#275,.F.);
#222=ORIENTED_EDGE('',*,*,#282,.T.);
#223=ORIENTED_EDGE('',*,*,#278,.T.);
#224=ORIENTED_EDGE('',*,*,#273,.T.);
#225=ORIENTED_EDGE('',*,*,#276,.T.);
#226=ORIENTED_EDGE('',*,*,#277,.T.);
#227=ORIENTED_EDGE('',*,*,#279,.F.);
#228=ORIENTED_EDGE('',*,*,#283,.F.);
#229=ORIENTED_EDGE('',*,*,#280,.F.);
#230=ORIENTED_EDGE('',*,*,#283,.T.);
#231=ORIENTED_EDGE('',*,*,#282,.F.);
#232=ORIENTED_EDGE('',*,*,#271,.F.);
#233=ORIENTED_EDGE('',*,*,#281,.F.);
#234=VERTEX_POINT('',#458);
#235=VERTEX_POINT('',#461);
#236=VERTEX_POINT('',#464);
#237=VERTEX_POINT('',#467);
#238=VERTEX_POINT('',#470);
#239=VERTEX_POINT('',#473);
#240=VERTEX_POINT('',#476);
#241=VERTEX_POINT('',#479);
#242=VERTEX_POINT('',#482);
#243=VERTEX_POINT('',#485);
#244=VERTEX_POINT('',#488);
#245=VERTEX_POINT('',#491);
#246=VERTEX_POINT('',#494);
#247=VERTEX_POINT('',#497);
#248=VERTEX_POINT('',#501);
#249=VERTEX_POINT('',#502);
#250=VERTEX_POINT('',#504);
#251=VERTEX_POINT('',#506);
#252=VERTEX_POINT('',#513);
#253=VERTEX_POINT('',#517);
#254=VERTEX_POINT('',#518);
#255=VERTEX_POINT('',#520);
#256=EDGE_CURVE('',#234,#234,#284,.T.);
#257=EDGE_CURVE('',#235,#235,#285,.T.);
#258=EDGE_CURVE('',#236,#236,#286,.T.);
#259=EDGE_CURVE('',#237,#237,#287,.T.);
#260=EDGE_CURVE('',#238,#238,#288,.T.);
#261=EDGE_CURVE('',#239,#239,#289,.T.);
#262=EDGE_CURVE('',#240,#240,#290,.T.);
#263=EDGE_CURVE('',#241,#241,#291,.T.);
#264=EDGE_CURVE('',#242,#242,#292,.T.);
#265=EDGE_CURVE('',#243,#243,#293,.T.);
#266=EDGE_CURVE('',#244,#244,#294,.T.);
#267=EDGE_CURVE('',#245,#245,#295,.T.);
#268=EDGE_CURVE('',#246,#246,#296,.T.);
#269=EDGE_CURVE('',#247,#247,#297,.T.);
#270=EDGE_CURVE('',#248,#249,#298,.T.);
#271=EDGE_CURVE('',#248,#250,#299,.T.);
#272=EDGE_CURVE('',#251,#250,#300,.T.);
#273=EDGE_CURVE('',#249,#251,#301,.T.);
#274=EDGE_CURVE('',#251,#249,#302,.T.);
#275=EDGE_CURVE('',#250,#248,#303,.T.);
#276=EDGE_CURVE('',#251,#252,#32,.T.);
#277=EDGE_CURVE('',#252,#249,#33,.T.);
#278=EDGE_CURVE('',#253,#254,#304,.T.);
#279=EDGE_CURVE('',#253,#255,#305,.T.);
#280=EDGE_CURVE('',#255,#254,#306,.T.);
#281=EDGE_CURVE('',#254,#248,#34,.T.);
#282=EDGE_CURVE('',#250,#253,#35,.T.);
#283=EDGE_CURVE('',#254,#253,#307,.T.);
#284=CIRCLE('',#309,14.2999999999999);
#285=CIRCLE('',#311,5.87499999999987);
#286=CIRCLE('',#313,7.87499999999987);
#287=CIRCLE('',#315,7.87499999999987);
#288=CIRCLE('',#317,8.49999999999974);
#289=CIRCLE('',#319,8.49999999999974);
#290=CIRCLE('',#321,8.29999999999975);
#291=CIRCLE('',#323,8.29999999999975);
#292=CIRCLE('',#325,8.80352761804075);
#293=CIRCLE('',#327,9.99999999999975);
#294=CIRCLE('',#329,13.9999999999997);
#295=CIRCLE('',#331,14.4999999999997);
#296=CIRCLE('',#333,14.4999999999997);
#297=CIRCLE('',#335,14.2999999999999);
#298=CIRCLE('',#338,16.);
#299=CIRCLE('',#339,15.0214932153991);
#300=CIRCLE('',#340,16.);
#301=CIRCLE('',#341,12.4899959967968);
#302=CIRCLE('',#343,12.4899959967969);
#303=CIRCLE('',#344,15.0214932153992);
#304=CIRCLE('',#347,15.9999510044855);
#305=CIRCLE('',#348,16.);
#306=CIRCLE('',#349,16.);
#307=CIRCLE('',#353,15.9999510044854);
#308=AXIS2_PLACEMENT_3D('',#456,#356,#357);
#309=AXIS2_PLACEMENT_3D('',#457,#358,#359);
#310=AXIS2_PLACEMENT_3D('',#459,#360,#361);
#311=AXIS2_PLACEMENT_3D('',#460,#362,#363);
#312=AXIS2_PLACEMENT_3D('',#462,#364,#365);
#313=AXIS2_PLACEMENT_3D('',#463,#366,#367);
#314=AXIS2_PLACEMENT_3D('',#465,#368,#369);
#315=AXIS2_PLACEMENT_3D('',#466,#370,#371);
#316=AXIS2_PLACEMENT_3D('',#468,#372,#373);
#317=AXIS2_PLACEMENT_3D('',#469,#374,#375);
#318=AXIS2_PLACEMENT_3D('',#471,#376,#377);
#319=AXIS2_PLACEMENT_3D('',#472,#378,#379);
#320=AXIS2_PLACEMENT_3D('',#474,#380,#381);
#321=AXIS2_PLACEMENT_3D('',#475,#382,#383);
#322=AXIS2_PLACEMENT_3D('',#477,#384,#385);
#323=AXIS2_PLACEMENT_3D('',#478,#386,#387);
#324=AXIS2_PLACEMENT_3D('',#480,#388,#389);
#325=AXIS2_PLACEMENT_3D('',#481,#390,#391);
#326=AXIS2_PLACEMENT_3D('',#483,#392,#393);
#327=AXIS2_PLACEMENT_3D('',#484,#394,#395);
#328=AXIS2_PLACEMENT_3D('',#486,#396,#397);
#329=AXIS2_PLACEMENT_3D('',#487,#398,#399);
#330=AXIS2_PLACEMENT_3D('',#489,#400,#401);
#331=AXIS2_PLACEMENT_3D('',#490,#402,#403);
#332=AXIS2_PLACEMENT_3D('',#492,#404,#405);
#333=AXIS2_PLACEMENT_3D('',#493,#406,#407);
#334=AXIS2_PLACEMENT_3D('',#495,#408,#409);
#335=AXIS2_PLACEMENT_3D('',#496,#410,#411);
#336=AXIS2_PLACEMENT_3D('',#498,#412,#413);
#337=AXIS2_PLACEMENT_3D('',#499,#414,#415);
#338=AXIS2_PLACEMENT_3D('',#500,#416,#417);
#339=AXIS2_PLACEMENT_3D('',#503,#418,#419);
#340=AXIS2_PLACEMENT_3D('',#505,#420,#421);
#341=AXIS2_PLACEMENT_3D('',#507,#422,#423);
#342=AXIS2_PLACEMENT_3D('',#508,#424,#425);
#343=AXIS2_PLACEMENT_3D('',#509,#426,#427);
#344=AXIS2_PLACEMENT_3D('',#510,#428,#429);
#345=AXIS2_PLACEMENT_3D('',#511,#430,#431);
#346=AXIS2_PLACEMENT_3D('',#515,#434,#435);
#347=AXIS2_PLACEMENT_3D('',#516,#436,#437);
#348=AXIS2_PLACEMENT_3D('',#519,#438,#439);
#349=AXIS2_PLACEMENT_3D('',#521,#440,#441);
#350=AXIS2_PLACEMENT_3D('',#522,#442,#443);
#351=AXIS2_PLACEMENT_3D('',#525,#446,#447);
#352=AXIS2_PLACEMENT_3D('',#526,#448,#449);
#353=AXIS2_PLACEMENT_3D('',#527,#450,#451);
#354=AXIS2_PLACEMENT_3D('',#528,#452,#453);
#355=AXIS2_PLACEMENT_3D('',#529,#454,#455);
#356=DIRECTION('',(0.,0.,1.));
#357=DIRECTION('',(1.,0.,0.));
#358=DIRECTION('',(-1.,0.,0.));
#359=DIRECTION('',(0.,0.,1.));
#360=DIRECTION('',(-1.,6.1232339957368E-17,0.));
#361=DIRECTION('',(0.,1.,0.));
#362=DIRECTION('',(-1.,0.,0.));
#363=DIRECTION('',(0.,0.,1.));
#364=DIRECTION('',(-1.,0.,0.));
#365=DIRECTION('',(0.,0.,1.));
#366=DIRECTION('',(-1.,0.,0.));
#367=DIRECTION('',(0.,0.,1.));
#368=DIRECTION('',(-1.,0.,0.));
#369=DIRECTION('',(5.51869280290866E-17,0.,1.));
#370=DIRECTION('',(-1.,0.,0.));
#371=DIRECTION('',(0.,0.,1.));
#372=DIRECTION('',(-1.,0.,0.));
#373=DIRECTION('',(0.,0.,1.));
#374=DIRECTION('',(-1.,0.,0.));
#375=DIRECTION('',(0.,0.,1.));
#376=DIRECTION('',(-1.,0.,0.));
#377=DIRECTION('',(3.55703740211822E-17,0.,1.));
#378=DIRECTION('',(-1.,0.,0.));
#379=DIRECTION('',(0.,0.,1.));
#380=DIRECTION('',(-1.,0.,0.));
#381=DIRECTION('',(0.,0.,1.));
#382=DIRECTION('',(-1.,0.,0.));
#383=DIRECTION('',(0.,0.,1.));
#384=DIRECTION('',(1.,0.,0.));
#385=DIRECTION('',(5.02001387154431E-17,0.,-1.));
#386=DIRECTION('',(-1.,0.,0.));
#387=DIRECTION('',(0.,0.,1.));
#388=DIRECTION('',(-1.,0.,0.));
#389=DIRECTION('',(0.,0.,1.));
#390=DIRECTION('',(-1.,0.,0.));
#391=DIRECTION('',(0.,0.,1.));
#392=DIRECTION('',(-1.,0.,0.));
#393=DIRECTION('',(0.,0.,1.));
#394=DIRECTION('',(-1.,0.,0.));
#395=DIRECTION('',(0.,0.,1.));
#396=DIRECTION('',(1.,0.,0.));
#397=DIRECTION('',(-9.27447754198718E-18,0.,-1.));
#398=DIRECTION('',(-1.,0.,0.));
#399=DIRECTION('',(0.,0.,1.));
#400=DIRECTION('',(-1.,0.,0.));
#401=DIRECTION('',(0.,0.,1.));
#402=DIRECTION('',(-1.,0.,0.));
#403=DIRECTION('',(0.,0.,1.));
#404=DIRECTION('',(-1.,0.,0.));
#405=DIRECTION('',(4.1058543810102E-17,0.,1.));
#406=DIRECTION('',(-1.,0.,0.));
#407=DIRECTION('',(0.,0.,1.));
#408=DIRECTION('',(-1.,0.,0.));
#409=DIRECTION('',(0.,0.,1.));
#410=DIRECTION('',(-1.,0.,0.));
#411=DIRECTION('',(0.,0.,1.));
#412=DIRECTION('',(1.,0.,0.));
#413=DIRECTION('',(1.3679435986017E-17,0.,-1.));
#414=DIRECTION('',(-1.,0.,0.));
#415=DIRECTION('',(0.,0.,1.));
#416=DIRECTION('',(0.,1.,6.12323399573677E-17));
#417=DIRECTION('',(1.,0.,0.));
#418=DIRECTION('',(1.,0.,0.));
#419=DIRECTION('',(0.,-8.5492151027887E-15,1.));
#420=DIRECTION('',(0.,0.,-1.));
#421=DIRECTION('',(1.,0.,0.));
#422=DIRECTION('',(1.,0.,0.));
#423=DIRECTION('',(0.,-1.02695763231736E-14,1.));
#424=DIRECTION('',(1.,-3.74939945665465E-33,6.12323399573677E-17));
#425=DIRECTION('',(0.,-6.12323399573677E-17,1.));
#426=DIRECTION('',(1.,0.,0.));
#427=DIRECTION('',(0.,-1.,0.));
#428=DIRECTION('',(1.,0.,0.));
#429=DIRECTION('',(0.,-1.,0.));
#430=DIRECTION('',(1.,-6.12323399573677E-17,0.));
#431=DIRECTION('',(0.,-1.,0.));
#432=DIRECTION('',(0.,1.,0.));
#433=DIRECTION('',(0.,-6.12323399573677E-17,1.));
#434=DIRECTION('',(-1.,0.,0.));
#435=DIRECTION('',(0.,0.,1.));
#436=DIRECTION('',(1.,0.,0.));
#437=DIRECTION('',(0.,-1.,0.));
#438=DIRECTION('',(0.,0.,-1.));
#439=DIRECTION('',(1.,0.,0.));
#440=DIRECTION('',(0.,1.,6.12323399573677E-17));
#441=DIRECTION('',(1.,0.,0.));
#442=DIRECTION('',(1.,6.12323399573677E-17,0.));
#443=DIRECTION('',(0.,1.,0.));
#444=DIRECTION('',(0.984807753012207,1.06328842478791E-17,-0.173648177666935));
#445=DIRECTION('',(-0.984807753012207,-0.173648177666935,0.));
#446=DIRECTION('',(-1.,0.,0.));
#447=DIRECTION('',(3.60786388162393E-17,0.,1.));
#448=DIRECTION('',(-1.,0.,0.));
#449=DIRECTION('',(0.,0.,1.));
#450=DIRECTION('',(1.,0.,0.));
#451=DIRECTION('',(0.,-8.03014271027983E-15,1.));
#452=DIRECTION('',(1.,3.74939945665465E-33,-6.12323399573677E-17));
#453=DIRECTION('',(0.,6.12323399573677E-17,-1.));
#454=DIRECTION('',(-1.,0.,0.));
#455=DIRECTION('',(3.60786388162394E-17,0.,1.));
#456=CARTESIAN_POINT('',(0.,0.,0.));
#457=CARTESIAN_POINT('',(16.,1.27502175484295E-13,0.));
#458=CARTESIAN_POINT('',(16.,1.27502175484295E-13,14.2999999999999));
#459=CARTESIAN_POINT('',(16.,1.27502175484295E-13,0.));
#460=CARTESIAN_POINT('',(68.,1.27502175484295E-13,0.));
#461=CARTESIAN_POINT('',(68.,1.27502175484295E-13,5.87499999999987));
#462=CARTESIAN_POINT('',(68.,5.875,0.));
#463=CARTESIAN_POINT('',(66.,1.27502175484295E-13,0.));
#464=CARTESIAN_POINT('',(66.,1.27502175484295E-13,7.87499999999987));
#465=CARTESIAN_POINT('',(68.,1.27502175484295E-13,0.));
#466=CARTESIAN_POINT('',(50.0825317547303,1.27502175484295E-13,0.));
#467=CARTESIAN_POINT('',(50.0825317547303,1.27502175484295E-13,7.87499999999987));
#468=CARTESIAN_POINT('',(3.45082291782168E-14,1.27502175484295E-13,0.));
#469=CARTESIAN_POINT('',(49.,1.27502175484295E-13,0.));
#470=CARTESIAN_POINT('',(49.,1.27502175484295E-13,8.49999999999974));
#471=CARTESIAN_POINT('',(50.0825317547303,1.27502175484295E-13,0.));
#472=CARTESIAN_POINT('',(44.2,1.27502175484295E-13,0.));
#473=CARTESIAN_POINT('',(44.2,1.27502175484295E-13,8.49999999999974));
#474=CARTESIAN_POINT('',(3.45082291782168E-14,1.27502175484295E-13,0.));
#475=CARTESIAN_POINT('',(43.4535898384862,1.27502175484295E-13,0.));
#476=CARTESIAN_POINT('',(43.4535898384862,1.27502175484295E-13,8.29999999999975));
#477=CARTESIAN_POINT('',(44.2,1.27502175484295E-13,0.));
#478=CARTESIAN_POINT('',(43.0657765220036,1.27502175484295E-13,0.));
#479=CARTESIAN_POINT('',(43.0657765220036,1.27502175484295E-13,8.29999999999975));
#480=CARTESIAN_POINT('',(3.45082291782168E-14,1.27502175484295E-13,0.));
#481=CARTESIAN_POINT('',(42.6794061914879,1.27502175484295E-13,0.));
#482=CARTESIAN_POINT('',(42.6794061914879,1.27502175484295E-13,8.80352761804075));
#483=CARTESIAN_POINT('',(43.0657765220036,1.28369537222284E-13,0.));
#484=CARTESIAN_POINT('',(43.,1.27502175484295E-13,0.));
#485=CARTESIAN_POINT('',(43.,1.27502175484295E-13,9.99999999999975));
#486=CARTESIAN_POINT('',(42.6794061914879,1.27502175484295E-13,0.));
#487=CARTESIAN_POINT('',(43.,1.27502175484295E-13,0.));
#488=CARTESIAN_POINT('',(43.,1.27502175484295E-13,13.9999999999997));
#489=CARTESIAN_POINT('',(43.,13.9999999999999,0.));
#490=CARTESIAN_POINT('',(42.5,1.27502175484295E-13,0.));
#491=CARTESIAN_POINT('',(42.5,1.27502175484295E-13,14.4999999999997));
#492=CARTESIAN_POINT('',(43.,1.27502175484295E-13,0.));
#493=CARTESIAN_POINT('',(38.2,1.27502175484295E-13,0.));
#494=CARTESIAN_POINT('',(38.2,1.27502175484295E-13,14.4999999999997));
#495=CARTESIAN_POINT('',(3.45082291782168E-14,1.27502175484295E-13,0.));
#496=CARTESIAN_POINT('',(38.,1.27502175484295E-13,0.));
#497=CARTESIAN_POINT('',(38.,1.27502175484295E-13,14.2999999999999));
#498=CARTESIAN_POINT('',(38.2,1.27502175484295E-13,0.));
#499=CARTESIAN_POINT('',(3.45082291782168E-14,1.27502175484295E-13,0.));
#500=CARTESIAN_POINT('',(16.,0.,0.));
#501=CARTESIAN_POINT('',(21.5095137335085,-3.15608203390112E-15,15.0214932153992));
#502=CARTESIAN_POINT('',(26.,-3.32358835083036E-15,12.4899959967969));
#503=CARTESIAN_POINT('',(21.5095137335085,1.27502175484295E-13,0.));
#504=CARTESIAN_POINT('',(21.5095137335085,-15.0214932153991,0.));
#505=CARTESIAN_POINT('',(16.,0.,0.));
#506=CARTESIAN_POINT('',(26.,-12.4899959967968,0.));
#507=CARTESIAN_POINT('',(26.,1.27502175484295E-13,0.));
#508=CARTESIAN_POINT('',(16.,0.,0.));
#509=CARTESIAN_POINT('',(26.,1.27502175484295E-13,0.));
#510=CARTESIAN_POINT('',(21.5095137335085,1.27502175484295E-13,0.));
#511=CARTESIAN_POINT('',(16.,0.,0.));
#512=CARTESIAN_POINT('',(26.,0.,0.));
#513=CARTESIAN_POINT('',(26.,0.,0.));
#514=CARTESIAN_POINT('',(26.,0.,0.));
#515=CARTESIAN_POINT('',(26.,0.,0.));
#516=CARTESIAN_POINT('',(15.9604038629999,1.27502175484295E-13,0.));
#517=CARTESIAN_POINT('',(15.9604038629999,-15.9999510044854,0.));
#518=CARTESIAN_POINT('',(15.9604038629999,2.54401801592815E-15,15.9999510044855));
#519=CARTESIAN_POINT('',(16.,0.,0.));
#520=CARTESIAN_POINT('',(0.,0.,0.));
#521=CARTESIAN_POINT('',(16.,0.,0.));
#522=CARTESIAN_POINT('',(16.,0.,0.));
#523=CARTESIAN_POINT('',(15.9604038629999,-9.79714439207879E-16,15.9999510044854));
#524=CARTESIAN_POINT('',(15.9604038629999,-15.9999510044854,0.));
#525=CARTESIAN_POINT('',(15.9604038629999,1.27502175484295E-13,0.));
#526=CARTESIAN_POINT('',(26.,0.,0.));
#527=CARTESIAN_POINT('',(15.9604038629999,1.27502175484295E-13,0.));
#528=CARTESIAN_POINT('',(16.,0.,0.));
#529=CARTESIAN_POINT('',(15.9604038629999,1.27502175484295E-13,0.));
#530=MECHANICAL_DESIGN_GEOMETRIC_PRESENTATION_REPRESENTATION('',(#41,#42),
#531);
#531=(
GEOMETRIC_REPRESENTATION_CONTEXT(3)
GLOBAL_UNCERTAINTY_ASSIGNED_CONTEXT((#532))
GLOBAL_UNIT_ASSIGNED_CONTEXT((#538,#534,#533))
REPRESENTATION_CONTEXT('APMR-P3232-D32-M16-L43-LIGHT_x_t',
'TOP_LEVEL_ASSEMBLY_PART')
);
#532=UNCERTAINTY_MEASURE_WITH_UNIT(LENGTH_MEASURE(2.E-5),#538,
'DISTANCE_ACCURACY_VALUE','Maximum Tolerance applied to model');
#533=(
NAMED_UNIT(*)
SI_UNIT($,.STERADIAN.)
SOLID_ANGLE_UNIT()
);
#534=(
CONVERSION_BASED_UNIT('DEGREE',#536)
NAMED_UNIT(#535)
PLANE_ANGLE_UNIT()
);
#535=DIMENSIONAL_EXPONENTS(0.,0.,0.,0.,0.,0.,0.);
#536=PLANE_ANGLE_MEASURE_WITH_UNIT(PLANE_ANGLE_MEASURE(0.0174532925),#537);
#537=(
NAMED_UNIT(*)
PLANE_ANGLE_UNIT()
SI_UNIT($,.RADIAN.)
);
#538=(
LENGTH_UNIT()
NAMED_UNIT(*)
SI_UNIT(.MILLI.,.METRE.)
);
ENDSEC;
END-ISO-10303-21;
