ISO-10303-21;
HEADER;
/* Generated by software containing ST-Developer
 * from STEP Tools, Inc. (www.steptools.com) 
 */
/* OPTION: using custom schema-name function */

FILE_DESCRIPTION(
/* description */ (''),
/* implementation_level */ '2;1');

FILE_NAME(
/* name */ 'APMR-RO20-D20-C25-L220.stp',
/* time_stamp */ '2023-10-02T09:56:23+03:00',
/* author */ (''),
/* organization */ (''),
/* preprocessor_version */ 'ST-DEVELOPER v19.4',
/* originating_system */ 'SIEMENS PLM Software NX2306.5001',
/* authorisation */ '');

FILE_SCHEMA (('AUTOMOTIVE_DESIGN { 1 0 10303 214 3 1 1 1 }'));
ENDSEC;

DATA;
#10=PROPERTY_DEFINITION_REPRESENTATION(#14,#12);
#11=PROPERTY_DEFINITION_REPRESENTATION(#15,#13);
#12=REPRESENTATION('',(#16),#325);
#13=REPRESENTATION('',(#17),#325);
#14=PROPERTY_DEFINITION('pmi validation property','',#21);
#15=PROPERTY_DEFINITION('pmi validation property','',#21);
#16=VALUE_REPRESENTATION_ITEM('number of annotations',COUNT_MEASURE(0.));
#17=VALUE_REPRESENTATION_ITEM('number of views',COUNT_MEASURE(0.));
#18=SHAPE_REPRESENTATION_RELATIONSHIP('None',
'relationship between APMR-RO20-D20-C25-L220-LIGHT_x_t_objects-None an
d APMR-RO20-D20-C25-L220-LIGHT_x_t_objects-None',#30,#19);
#19=ADVANCED_BREP_SHAPE_REPRESENTATION(
'APMR-RO20-D20-C25-L220-LIGHT_x_t_objects-None',(#67,#68),#325);
#20=SHAPE_DEFINITION_REPRESENTATION(#21,#30);
#21=PRODUCT_DEFINITION_SHAPE('','',#22);
#22=PRODUCT_DEFINITION(' ','',#24,#23);
#23=PRODUCT_DEFINITION_CONTEXT('part definition',#29,'design');
#24=PRODUCT_DEFINITION_FORMATION_WITH_SPECIFIED_SOURCE(' ',' ',#26,
 .NOT_KNOWN.);
#25=PRODUCT_RELATED_PRODUCT_CATEGORY('part','',(#26));
#26=PRODUCT('APMR-RO20-D20-C25-L220-LIGHT_x_t_objects',
'APMR-RO20-D20-C25-L220-LIGHT_x_t_objects',' ',(#27));
#27=PRODUCT_CONTEXT(' ',#29,'mechanical');
#28=APPLICATION_PROTOCOL_DEFINITION('international standard',
'automotive_design',2010,#29);
#29=APPLICATION_CONTEXT(
'core data for automotive mechanical design processes');
#30=SHAPE_REPRESENTATION(
'APMR-RO20-D20-C25-L220-LIGHT_x_t_objects-None',(#196),#325);
#31=COLOUR_RGB('silver gray',0.6,0.6,0.6);
#32=CONICAL_SURFACE('',#216,12.25,14.9999999999999);
#33=CONICAL_SURFACE('',#222,12.25,4.99999999999963);
#34=TOROIDAL_SURFACE('',#212,11.25,1.);
#35=FACE_BOUND('',#108,.T.);
#36=FACE_BOUND('',#109,.T.);
#37=FACE_BOUND('',#110,.T.);
#38=FACE_BOUND('',#111,.T.);
#39=FACE_BOUND('',#112,.T.);
#40=FACE_BOUND('',#113,.T.);
#41=FACE_BOUND('',#114,.T.);
#42=FACE_BOUND('',#115,.T.);
#43=FACE_BOUND('',#116,.T.);
#44=FACE_BOUND('',#117,.T.);
#45=FACE_BOUND('',#118,.T.);
#46=FACE_BOUND('',#119,.T.);
#47=FACE_BOUND('',#120,.T.);
#48=FACE_BOUND('',#121,.T.);
#49=PLANE('',#210);
#50=PLANE('',#220);
#51=PRESENTATION_LAYER_ASSIGNMENT('1','Layer 1',(#67,#68));
#52=STYLED_ITEM('',(#54),#67);
#53=STYLED_ITEM('',(#55),#68);
#54=PRESENTATION_STYLE_ASSIGNMENT((#56));
#55=PRESENTATION_STYLE_ASSIGNMENT((#57));
#56=SURFACE_STYLE_USAGE(.BOTH.,#58);
#57=SURFACE_STYLE_USAGE(.BOTH.,#59);
#58=SURFACE_SIDE_STYLE('',(#60));
#59=SURFACE_SIDE_STYLE('',(#61));
#60=SURFACE_STYLE_FILL_AREA(#62);
#61=SURFACE_STYLE_FILL_AREA(#63);
#62=FILL_AREA_STYLE('',(#64));
#63=FILL_AREA_STYLE('',(#65));
#64=FILL_AREA_STYLE_COLOUR('',#66);
#65=FILL_AREA_STYLE_COLOUR('',#31);
#66=DRAUGHTING_PRE_DEFINED_COLOUR('yellow');
#67=MANIFOLD_SOLID_BREP('',#69);
#68=MANIFOLD_SOLID_BREP('',#70);
#69=CLOSED_SHELL('',(#80,#81,#82,#83));
#70=CLOSED_SHELL('',(#84,#85,#86,#87,#88,#89,#90,#91,#92));
#71=CYLINDRICAL_SURFACE('',#205,0.0268100963531724);
#72=CYLINDRICAL_SURFACE('',#206,0.0268100963531724);
#73=CYLINDRICAL_SURFACE('',#214,12.25);
#74=CYLINDRICAL_SURFACE('',#218,12.5);
#75=CYLINDRICAL_SURFACE('',#223,9.45);
#76=LINE('',#295,#78);
#77=LINE('',#296,#79);
#78=VECTOR('',#242,1.);
#79=VECTOR('',#243,1.);
#80=ADVANCED_FACE('',(#96),#93,.T.);
#81=ADVANCED_FACE('',(#97),#94,.T.);
#82=ADVANCED_FACE('',(#98),#71,.F.);
#83=ADVANCED_FACE('',(#99),#72,.F.);
#84=ADVANCED_FACE('',(#100),#95,.T.);
#85=ADVANCED_FACE('',(#101),#49,.F.);
#86=ADVANCED_FACE('',(#35,#36),#34,.T.);
#87=ADVANCED_FACE('',(#37,#38),#73,.T.);
#88=ADVANCED_FACE('',(#39,#40),#32,.T.);
#89=ADVANCED_FACE('',(#41,#42),#74,.T.);
#90=ADVANCED_FACE('',(#43,#44),#50,.F.);
#91=ADVANCED_FACE('',(#45,#46),#33,.T.);
#92=ADVANCED_FACE('',(#47,#48),#75,.T.);
#93=SPHERICAL_SURFACE('',#201,10.);
#94=SPHERICAL_SURFACE('',#204,10.);
#95=SPHERICAL_SURFACE('',#208,9.45);
#96=FACE_OUTER_BOUND('',#102,.T.);
#97=FACE_OUTER_BOUND('',#103,.T.);
#98=FACE_OUTER_BOUND('',#104,.T.);
#99=FACE_OUTER_BOUND('',#105,.T.);
#100=FACE_OUTER_BOUND('',#106,.T.);
#101=FACE_OUTER_BOUND('',#107,.T.);
#102=EDGE_LOOP('',(#122,#123,#124,#125));
#103=EDGE_LOOP('',(#126,#127,#128,#129));
#104=EDGE_LOOP('',(#130,#131,#132,#133));
#105=EDGE_LOOP('',(#134,#135,#136,#137));
#106=EDGE_LOOP('',(#138));
#107=EDGE_LOOP('',(#139));
#108=EDGE_LOOP('',(#140));
#109=EDGE_LOOP('',(#141));
#110=EDGE_LOOP('',(#142));
#111=EDGE_LOOP('',(#143));
#112=EDGE_LOOP('',(#144));
#113=EDGE_LOOP('',(#145));
#114=EDGE_LOOP('',(#146));
#115=EDGE_LOOP('',(#147));
#116=EDGE_LOOP('',(#148));
#117=EDGE_LOOP('',(#149));
#118=EDGE_LOOP('',(#150));
#119=EDGE_LOOP('',(#151));
#120=EDGE_LOOP('',(#152));
#121=EDGE_LOOP('',(#153));
#122=ORIENTED_EDGE('',*,*,#166,.F.);
#123=ORIENTED_EDGE('',*,*,#167,.F.);
#124=ORIENTED_EDGE('',*,*,#168,.F.);
#125=ORIENTED_EDGE('',*,*,#169,.F.);
#126=ORIENTED_EDGE('',*,*,#170,.F.);
#127=ORIENTED_EDGE('',*,*,#166,.T.);
#128=ORIENTED_EDGE('',*,*,#171,.F.);
#129=ORIENTED_EDGE('',*,*,#168,.T.);
#130=ORIENTED_EDGE('',*,*,#172,.T.);
#131=ORIENTED_EDGE('',*,*,#171,.T.);
#132=ORIENTED_EDGE('',*,*,#173,.T.);
#133=ORIENTED_EDGE('',*,*,#170,.T.);
#134=ORIENTED_EDGE('',*,*,#173,.F.);
#135=ORIENTED_EDGE('',*,*,#169,.T.);
#136=ORIENTED_EDGE('',*,*,#172,.F.);
#137=ORIENTED_EDGE('',*,*,#167,.T.);
#138=ORIENTED_EDGE('',*,*,#174,.T.);
#139=ORIENTED_EDGE('',*,*,#175,.F.);
#140=ORIENTED_EDGE('',*,*,#176,.F.);
#141=ORIENTED_EDGE('',*,*,#175,.T.);
#142=ORIENTED_EDGE('',*,*,#177,.F.);
#143=ORIENTED_EDGE('',*,*,#176,.T.);
#144=ORIENTED_EDGE('',*,*,#178,.F.);
#145=ORIENTED_EDGE('',*,*,#177,.T.);
#146=ORIENTED_EDGE('',*,*,#179,.F.);
#147=ORIENTED_EDGE('',*,*,#178,.T.);
#148=ORIENTED_EDGE('',*,*,#180,.F.);
#149=ORIENTED_EDGE('',*,*,#179,.T.);
#150=ORIENTED_EDGE('',*,*,#181,.F.);
#151=ORIENTED_EDGE('',*,*,#180,.T.);
#152=ORIENTED_EDGE('',*,*,#174,.F.);
#153=ORIENTED_EDGE('',*,*,#181,.T.);
#154=VERTEX_POINT('',#284);
#155=VERTEX_POINT('',#285);
#156=VERTEX_POINT('',#287);
#157=VERTEX_POINT('',#289);
#158=VERTEX_POINT('',#300);
#159=VERTEX_POINT('',#303);
#160=VERTEX_POINT('',#306);
#161=VERTEX_POINT('',#309);
#162=VERTEX_POINT('',#312);
#163=VERTEX_POINT('',#315);
#164=VERTEX_POINT('',#318);
#165=VERTEX_POINT('',#321);
#166=EDGE_CURVE('',#154,#155,#182,.T.);
#167=EDGE_CURVE('',#156,#154,#183,.T.);
#168=EDGE_CURVE('',#157,#156,#184,.T.);
#169=EDGE_CURVE('',#155,#157,#185,.T.);
#170=EDGE_CURVE('',#154,#156,#186,.T.);
#171=EDGE_CURVE('',#157,#155,#187,.T.);
#172=EDGE_CURVE('',#156,#157,#76,.T.);
#173=EDGE_CURVE('',#155,#154,#77,.T.);
#174=EDGE_CURVE('',#158,#158,#188,.T.);
#175=EDGE_CURVE('',#159,#159,#189,.T.);
#176=EDGE_CURVE('',#160,#160,#190,.T.);
#177=EDGE_CURVE('',#161,#161,#191,.T.);
#178=EDGE_CURVE('',#162,#162,#192,.T.);
#179=EDGE_CURVE('',#163,#163,#193,.T.);
#180=EDGE_CURVE('',#164,#164,#194,.T.);
#181=EDGE_CURVE('',#165,#165,#195,.T.);
#182=CIRCLE('',#197,10.);
#183=CIRCLE('',#198,0.0268100963531724);
#184=CIRCLE('',#199,10.);
#185=CIRCLE('',#200,0.0268100963531724);
#186=CIRCLE('',#202,0.0268100963531724);
#187=CIRCLE('',#203,0.0268100963531724);
#188=CIRCLE('',#207,9.45);
#189=CIRCLE('',#209,11.25);
#190=CIRCLE('',#211,12.25);
#191=CIRCLE('',#213,12.25);
#192=CIRCLE('',#215,12.5);
#193=CIRCLE('',#217,12.5);
#194=CIRCLE('',#219,12.25);
#195=CIRCLE('',#221,9.45);
#196=AXIS2_PLACEMENT_3D('',#282,#224,#225);
#197=AXIS2_PLACEMENT_3D('',#283,#226,#227);
#198=AXIS2_PLACEMENT_3D('',#286,#228,#229);
#199=AXIS2_PLACEMENT_3D('',#288,#230,#231);
#200=AXIS2_PLACEMENT_3D('',#290,#232,#233);
#201=AXIS2_PLACEMENT_3D('',#291,#234,#235);
#202=AXIS2_PLACEMENT_3D('',#292,#236,#237);
#203=AXIS2_PLACEMENT_3D('',#293,#238,#239);
#204=AXIS2_PLACEMENT_3D('',#294,#240,#241);
#205=AXIS2_PLACEMENT_3D('',#297,#244,#245);
#206=AXIS2_PLACEMENT_3D('',#298,#246,#247);
#207=AXIS2_PLACEMENT_3D('',#299,#248,#249);
#208=AXIS2_PLACEMENT_3D('',#301,#250,#251);
#209=AXIS2_PLACEMENT_3D('',#302,#252,#253);
#210=AXIS2_PLACEMENT_3D('',#304,#254,#255);
#211=AXIS2_PLACEMENT_3D('',#305,#256,#257);
#212=AXIS2_PLACEMENT_3D('',#307,#258,#259);
#213=AXIS2_PLACEMENT_3D('',#308,#260,#261);
#214=AXIS2_PLACEMENT_3D('',#310,#262,#263);
#215=AXIS2_PLACEMENT_3D('',#311,#264,#265);
#216=AXIS2_PLACEMENT_3D('',#313,#266,#267);
#217=AXIS2_PLACEMENT_3D('',#314,#268,#269);
#218=AXIS2_PLACEMENT_3D('',#316,#270,#271);
#219=AXIS2_PLACEMENT_3D('',#317,#272,#273);
#220=AXIS2_PLACEMENT_3D('',#319,#274,#275);
#221=AXIS2_PLACEMENT_3D('',#320,#276,#277);
#222=AXIS2_PLACEMENT_3D('',#322,#278,#279);
#223=AXIS2_PLACEMENT_3D('',#323,#280,#281);
#224=DIRECTION('',(0.,0.,1.));
#225=DIRECTION('',(1.,0.,0.));
#226=DIRECTION('',(0.,0.,1.));
#227=DIRECTION('',(-1.,0.,0.));
#228=DIRECTION('',(1.,0.,0.));
#229=DIRECTION('',(0.,-1.83697019872103E-16,1.));
#230=DIRECTION('',(0.,1.,1.83697019872103E-16));
#231=DIRECTION('',(-1.,0.,0.));
#232=DIRECTION('',(-1.,0.,0.));
#233=DIRECTION('',(-1.61760279889067E-14,-1.83697019872103E-16,1.));
#234=DIRECTION('',(1.,-1.12481983699639E-32,6.12323399573677E-17));
#235=DIRECTION('',(0.,-1.83697019872103E-16,1.));
#236=DIRECTION('',(1.,0.,0.));
#237=DIRECTION('',(0.,1.,0.));
#238=DIRECTION('',(-1.,0.,0.));
#239=DIRECTION('',(-1.61760279889067E-14,1.,0.));
#240=DIRECTION('',(1.,6.12323399573677E-17,0.));
#241=DIRECTION('',(0.,1.,0.));
#242=DIRECTION('',(-1.,0.,0.));
#243=DIRECTION('',(1.,0.,0.));
#244=DIRECTION('',(1.,0.,0.));
#245=DIRECTION('',(0.,0.,-1.));
#246=DIRECTION('',(1.,0.,0.));
#247=DIRECTION('',(0.,0.,-1.));
#248=DIRECTION('',(-1.,0.,0.));
#249=DIRECTION('',(0.,0.,1.));
#250=DIRECTION('',(-1.,6.12323399573676E-17,0.));
#251=DIRECTION('',(0.,1.,0.));
#252=DIRECTION('',(-1.,0.,0.));
#253=DIRECTION('',(0.,0.,1.));
#254=DIRECTION('',(-1.,0.,0.));
#255=DIRECTION('',(0.,0.,1.));
#256=DIRECTION('',(-1.,0.,0.));
#257=DIRECTION('',(0.,0.,1.));
#258=DIRECTION('',(-1.,0.,0.));
#259=DIRECTION('',(0.,0.,1.));
#260=DIRECTION('',(-1.,0.,0.));
#261=DIRECTION('',(0.,0.,1.));
#262=DIRECTION('',(-1.,0.,0.));
#263=DIRECTION('',(0.,0.,1.));
#264=DIRECTION('',(-1.,0.,0.));
#265=DIRECTION('',(0.,0.,1.));
#266=DIRECTION('',(-1.,0.,0.));
#267=DIRECTION('',(-9.9056586761762E-17,0.,1.));
#268=DIRECTION('',(-1.,0.,0.));
#269=DIRECTION('',(0.,0.,1.));
#270=DIRECTION('',(-1.,0.,0.));
#271=DIRECTION('',(0.,0.,1.));
#272=DIRECTION('',(-1.,0.,0.));
#273=DIRECTION('',(0.,0.,1.));
#274=DIRECTION('',(1.,0.,0.));
#275=DIRECTION('',(0.,0.,-1.));
#276=DIRECTION('',(-1.,0.,0.));
#277=DIRECTION('',(0.,0.,1.));
#278=DIRECTION('',(1.,0.,0.));
#279=DIRECTION('',(6.957075279141E-16,0.,-1.));
#280=DIRECTION('',(-1.,0.,0.));
#281=DIRECTION('',(0.,0.,1.));
#282=CARTESIAN_POINT('',(0.,0.,0.));
#283=CARTESIAN_POINT('',(10.,6.07153216591882E-15,0.));
#284=CARTESIAN_POINT('',(19.9999640608721,0.0268100963531724,0.));
#285=CARTESIAN_POINT('',(3.59391278954673E-5,0.0268100963531724,0.));
#286=CARTESIAN_POINT('',(19.9999640608721,0.,0.));
#287=CARTESIAN_POINT('',(19.9999640608721,-4.31139231855495E-18,0.0268100963531724));
#288=CARTESIAN_POINT('',(10.,-1.1153223649369E-30,6.07153216591882E-15));
#289=CARTESIAN_POINT('',(3.59391278959009E-5,-4.31139231855495E-18,0.0268100963531724));
#290=CARTESIAN_POINT('',(3.59391278959009E-5,0.,0.));
#291=CARTESIAN_POINT('',(10.,-1.1153223649369E-30,6.07153216591882E-15));
#292=CARTESIAN_POINT('',(19.9999640608721,0.,0.));
#293=CARTESIAN_POINT('',(3.59391278959009E-5,0.,0.));
#294=CARTESIAN_POINT('',(10.,6.07153216591882E-15,0.));
#295=CARTESIAN_POINT('',(3.59391278954673E-5,-4.9249348025617E-18,0.0268100963531724));
#296=CARTESIAN_POINT('',(3.59391278954673E-5,0.0268100963531724,0.));
#297=CARTESIAN_POINT('',(10.,0.,0.));
#298=CARTESIAN_POINT('',(10.,0.,0.));
#299=CARTESIAN_POINT('',(10.,0.,0.));
#300=CARTESIAN_POINT('',(10.,0.,9.45));
#301=CARTESIAN_POINT('',(10.,6.07153216591882E-15,0.));
#302=CARTESIAN_POINT('',(220.,0.,0.));
#303=CARTESIAN_POINT('',(220.,0.,11.25));
#304=CARTESIAN_POINT('',(220.,11.25,0.));
#305=CARTESIAN_POINT('',(219.,0.,0.));
#306=CARTESIAN_POINT('',(219.,0.,12.25));
#307=CARTESIAN_POINT('',(219.,0.,0.));
#308=CARTESIAN_POINT('',(216.,0.,0.));
#309=CARTESIAN_POINT('',(216.,0.,12.25));
#310=CARTESIAN_POINT('',(0.,0.,0.));
#311=CARTESIAN_POINT('',(215.066987298108,0.,0.));
#312=CARTESIAN_POINT('',(215.066987298108,0.,12.5));
#313=CARTESIAN_POINT('',(216.,0.,0.));
#314=CARTESIAN_POINT('',(80.,0.,0.));
#315=CARTESIAN_POINT('',(80.,0.,12.5));
#316=CARTESIAN_POINT('',(0.,0.,0.));
#317=CARTESIAN_POINT('',(80.,0.,0.));
#318=CARTESIAN_POINT('',(80.,0.,12.25));
#319=CARTESIAN_POINT('',(80.,12.5,0.));
#320=CARTESIAN_POINT('',(47.9958535522659,0.,0.));
#321=CARTESIAN_POINT('',(47.9958535522659,0.,9.45));
#322=CARTESIAN_POINT('',(80.,0.,0.));
#323=CARTESIAN_POINT('',(0.,0.,0.));
#324=MECHANICAL_DESIGN_GEOMETRIC_PRESENTATION_REPRESENTATION('',(#52,#53),
#325);
#325=(
GEOMETRIC_REPRESENTATION_CONTEXT(3)
GLOBAL_UNCERTAINTY_ASSIGNED_CONTEXT((#326))
GLOBAL_UNIT_ASSIGNED_CONTEXT((#332,#328,#327))
REPRESENTATION_CONTEXT('APMR-RO20-D20-C25-L220',
'TOP_LEVEL_ASSEMBLY_PART')
);
#326=UNCERTAINTY_MEASURE_WITH_UNIT(LENGTH_MEASURE(2.E-5),#332,
'DISTANCE_ACCURACY_VALUE','Maximum Tolerance applied to model');
#327=(
NAMED_UNIT(*)
SI_UNIT($,.STERADIAN.)
SOLID_ANGLE_UNIT()
);
#328=(
CONVERSION_BASED_UNIT('DEGREE',#330)
NAMED_UNIT(#329)
PLANE_ANGLE_UNIT()
);
#329=DIMENSIONAL_EXPONENTS(0.,0.,0.,0.,0.,0.,0.);
#330=PLANE_ANGLE_MEASURE_WITH_UNIT(PLANE_ANGLE_MEASURE(0.0174532925),#331);
#331=(
NAMED_UNIT(*)
PLANE_ANGLE_UNIT()
SI_UNIT($,.RADIAN.)
);
#332=(
LENGTH_UNIT()
NAMED_UNIT(*)
SI_UNIT(.MILLI.,.METRE.)
);
ENDSEC;
END-ISO-10303-21;
