ISO-10303-21;
HEADER;
/* Generated by software containing ST-Developer
 * from STEP Tools, Inc. (www.steptools.com) 
 */
/* OPTION: using custom schema-name function */

FILE_DESCRIPTION(
/* description */ (''),
/* implementation_level */ '2;1');

FILE_NAME(
/* name */ 'APMR-XP25-D25-C25-L150.stp',
/* time_stamp */ '2023-10-02T13:55:54+03:00',
/* author */ (''),
/* organization */ (''),
/* preprocessor_version */ 'ST-DEVELOPER v19.4',
/* originating_system */ 'SIEMENS PLM Software NX2306.5001',
/* authorisation */ '');

FILE_SCHEMA (('AUTOMOTIVE_DESIGN { 1 0 10303 214 3 1 1 1 }'));
ENDSEC;

DATA;
#10=PROPERTY_DEFINITION_REPRESENTATION(#14,#12);
#11=PROPERTY_DEFINITION_REPRESENTATION(#15,#13);
#12=REPRESENTATION('',(#16),#633);
#13=REPRESENTATION('',(#17),#633);
#14=PROPERTY_DEFINITION('pmi validation property','',#21);
#15=PROPERTY_DEFINITION('pmi validation property','',#21);
#16=VALUE_REPRESENTATION_ITEM('number of annotations',COUNT_MEASURE(0.));
#17=VALUE_REPRESENTATION_ITEM('number of views',COUNT_MEASURE(0.));
#18=SHAPE_REPRESENTATION_RELATIONSHIP('None',
'relationship between APMR-XP25-D25-C25-L150-LIGHT_x_t_objects-None an
d APMR-XP25-D25-C25-L150-LIGHT_x_t_objects-None',#30,#19);
#19=ADVANCED_BREP_SHAPE_REPRESENTATION(
'APMR-XP25-D25-C25-L150-LIGHT_x_t_objects-None',(#96,#97),#633);
#20=SHAPE_DEFINITION_REPRESENTATION(#21,#30);
#21=PRODUCT_DEFINITION_SHAPE('','',#22);
#22=PRODUCT_DEFINITION(' ','',#24,#23);
#23=PRODUCT_DEFINITION_CONTEXT('part definition',#29,'design');
#24=PRODUCT_DEFINITION_FORMATION_WITH_SPECIFIED_SOURCE(' ',' ',#26,
 .NOT_KNOWN.);
#25=PRODUCT_RELATED_PRODUCT_CATEGORY('part','',(#26));
#26=PRODUCT('APMR-XP25-D25-C25-L150-LIGHT_x_t_objects',
'APMR-XP25-D25-C25-L150-LIGHT_x_t_objects',' ',(#27));
#27=PRODUCT_CONTEXT(' ',#29,'mechanical');
#28=APPLICATION_PROTOCOL_DEFINITION('international standard',
'automotive_design',2010,#29);
#29=APPLICATION_CONTEXT(
'core data for automotive mechanical design processes');
#30=SHAPE_REPRESENTATION(
'APMR-XP25-D25-C25-L150-LIGHT_x_t_objects-None',(#362),#633);
#31=DRAUGHTING_PRE_DEFINED_COLOUR('yellow');
#32=LINE('',#561,#35);
#33=LINE('',#565,#36);
#34=LINE('',#605,#37);
#35=VECTOR('',#463,2.75581984684273);
#36=VECTOR('',#467,1.26993317281542);
#37=VECTOR('',#485,2.74877190664068);
#38=ELLIPSE('',#390,2.,0.245569121805809);
#39=ELLIPSE('',#399,2.,0.245569121805809);
#40=B_SPLINE_CURVE_WITH_KNOTS('',3,(#543,#544,#545,#546,#547,#548),
 .UNSPECIFIED.,.F.,.F.,(4,2,4),(0.,0.5,1.),.UNSPECIFIED.);
#41=B_SPLINE_CURVE_WITH_KNOTS('',3,(#552,#553,#554,#555),.UNSPECIFIED.,
 .F.,.F.,(4,4),(0.,1.),.UNSPECIFIED.);
#42=B_SPLINE_CURVE_WITH_KNOTS('',3,(#569,#570,#571,#572,#573,#574),
 .UNSPECIFIED.,.F.,.F.,(4,2,4),(0.,0.5,1.),.UNSPECIFIED.);
#43=B_SPLINE_CURVE_WITH_KNOTS('',3,(#588,#589,#590,#591,#592,#593),
 .UNSPECIFIED.,.F.,.F.,(4,2,4),(0.,0.5,1.),.UNSPECIFIED.);
#44=B_SPLINE_CURVE_WITH_KNOTS('',3,(#611,#612,#613,#614,#615),
 .UNSPECIFIED.,.F.,.F.,(4,1,4),(0.,0.5,1.),.UNSPECIFIED.);
#45=B_SPLINE_CURVE_WITH_KNOTS('',3,(#625,#626,#627,#628,#629,#630),
 .UNSPECIFIED.,.F.,.F.,(4,2,4),(0.,0.5,1.),.UNSPECIFIED.);
#46=SURFACE_OF_REVOLUTION('',#76,#61);
#47=SURFACE_OF_REVOLUTION('',#40,#62);
#48=SURFACE_OF_REVOLUTION('',#41,#63);
#49=SURFACE_OF_REVOLUTION('',#38,#64);
#50=SURFACE_OF_REVOLUTION('',#32,#65);
#51=SURFACE_OF_REVOLUTION('',#33,#66);
#52=SURFACE_OF_REVOLUTION('',#42,#67);
#53=SURFACE_OF_REVOLUTION('',#77,#68);
#54=SURFACE_OF_REVOLUTION('',#43,#69);
#55=SURFACE_OF_REVOLUTION('',#78,#70);
#56=SURFACE_OF_REVOLUTION('',#34,#71);
#57=SURFACE_OF_REVOLUTION('',#39,#72);
#58=SURFACE_OF_REVOLUTION('',#44,#73);
#59=SURFACE_OF_REVOLUTION('',#79,#74);
#60=SURFACE_OF_REVOLUTION('',#45,#75);
#61=AXIS1_PLACEMENT('',#538,#449);
#62=AXIS1_PLACEMENT('',#549,#454);
#63=AXIS1_PLACEMENT('',#556,#457);
#64=AXIS1_PLACEMENT('',#560,#462);
#65=AXIS1_PLACEMENT('',#562,#464);
#66=AXIS1_PLACEMENT('',#566,#468);
#67=AXIS1_PLACEMENT('',#575,#471);
#68=AXIS1_PLACEMENT('',#583,#474);
#69=AXIS1_PLACEMENT('',#594,#479);
#70=AXIS1_PLACEMENT('',#602,#482);
#71=AXIS1_PLACEMENT('',#606,#486);
#72=AXIS1_PLACEMENT('',#610,#491);
#73=AXIS1_PLACEMENT('',#616,#492);
#74=AXIS1_PLACEMENT('',#624,#495);
#75=AXIS1_PLACEMENT('',#631,#496);
#76=(
BOUNDED_CURVE()
B_SPLINE_CURVE(3,(#533,#534,#535,#536,#537),.UNSPECIFIED.,.F.,.F.)
B_SPLINE_CURVE_WITH_KNOTS((4,1,4),(0.,0.75,1.),.UNSPECIFIED.)
CURVE()
GEOMETRIC_REPRESENTATION_ITEM()
RATIONAL_B_SPLINE_CURVE((0.580795021414473,0.5,0.473068326195176,0.553863347609649,
0.580795021414473))
REPRESENTATION_ITEM('')
);
#77=(
BOUNDED_CURVE()
B_SPLINE_CURVE(3,(#578,#579,#580,#581,#582),.UNSPECIFIED.,.F.,.F.)
B_SPLINE_CURVE_WITH_KNOTS((4,1,4),(0.,0.75,1.),.UNSPECIFIED.)
CURVE()
GEOMETRIC_REPRESENTATION_ITEM()
RATIONAL_B_SPLINE_CURVE((0.580795021414473,0.5,0.473068326195176,0.553863347609649,
0.580795021414473))
REPRESENTATION_ITEM('')
);
#78=(
BOUNDED_CURVE()
B_SPLINE_CURVE(3,(#597,#598,#599,#600,#601),.UNSPECIFIED.,.F.,.F.)
B_SPLINE_CURVE_WITH_KNOTS((4,1,4),(0.,0.75,1.),.UNSPECIFIED.)
CURVE()
GEOMETRIC_REPRESENTATION_ITEM()
RATIONAL_B_SPLINE_CURVE((0.580795021414473,0.5,0.473068326195176,0.553863347609649,
0.580795021414473))
REPRESENTATION_ITEM('')
);
#79=(
BOUNDED_CURVE()
B_SPLINE_CURVE(3,(#619,#620,#621,#622,#623),.UNSPECIFIED.,.F.,.F.)
B_SPLINE_CURVE_WITH_KNOTS((4,1,4),(0.,0.75,1.),.UNSPECIFIED.)
CURVE()
GEOMETRIC_REPRESENTATION_ITEM()
RATIONAL_B_SPLINE_CURVE((0.549613603251781,0.5,0.483462132249406,0.533075735501188,
0.549613603251781))
REPRESENTATION_ITEM('')
);
#80=PRESENTATION_LAYER_ASSIGNMENT('1','Layer 1',(#96,#97));
#81=STYLED_ITEM('',(#83),#96);
#82=STYLED_ITEM('',(#84),#97);
#83=PRESENTATION_STYLE_ASSIGNMENT((#85));
#84=PRESENTATION_STYLE_ASSIGNMENT((#86));
#85=SURFACE_STYLE_USAGE(.BOTH.,#87);
#86=SURFACE_STYLE_USAGE(.BOTH.,#88);
#87=SURFACE_SIDE_STYLE('',(#89));
#88=SURFACE_SIDE_STYLE('',(#90));
#89=SURFACE_STYLE_FILL_AREA(#91);
#90=SURFACE_STYLE_FILL_AREA(#92);
#91=FILL_AREA_STYLE('',(#93));
#92=FILL_AREA_STYLE('',(#94));
#93=FILL_AREA_STYLE_COLOUR('',#95);
#94=FILL_AREA_STYLE_COLOUR('',#31);
#95=COLOUR_RGB('silver gray',0.6,0.6,0.6);
#96=MANIFOLD_SOLID_BREP('',#98);
#97=MANIFOLD_SOLID_BREP('',#99);
#98=CLOSED_SHELL('',(#157,#158,#159,#160,#161,#162,#163,#164,#165,#166,
#167));
#99=CLOSED_SHELL('',(#168,#169,#170,#171,#172,#173,#174,#175,#176,#177,
#178,#179,#180,#181,#182));
#100=SPHERICAL_SURFACE('',#382,11.5);
#101=CONICAL_SURFACE('',#370,12.25,9.99999999999958);
#102=CONICAL_SURFACE('',#374,12.5,45.);
#103=CONICAL_SURFACE('',#378,11.75,29.9999999999999);
#104=CONICAL_SURFACE('',#380,10.65,4.00000000000001);
#105=CYLINDRICAL_SURFACE('',#368,12.25);
#106=CYLINDRICAL_SURFACE('',#372,12.5);
#107=CYLINDRICAL_SURFACE('',#376,11.75);
#108=TOROIDAL_SURFACE('',#366,11.25,1.);
#109=FACE_BOUND('',#188,.T.);
#110=FACE_BOUND('',#189,.T.);
#111=FACE_BOUND('',#190,.T.);
#112=FACE_BOUND('',#191,.T.);
#113=FACE_BOUND('',#192,.T.);
#114=FACE_BOUND('',#193,.T.);
#115=FACE_BOUND('',#194,.T.);
#116=FACE_BOUND('',#195,.T.);
#117=FACE_BOUND('',#196,.T.);
#118=FACE_BOUND('',#197,.T.);
#119=FACE_BOUND('',#198,.T.);
#120=FACE_BOUND('',#199,.T.);
#121=FACE_BOUND('',#200,.T.);
#122=FACE_BOUND('',#201,.T.);
#123=FACE_BOUND('',#202,.T.);
#124=FACE_BOUND('',#203,.T.);
#125=FACE_BOUND('',#204,.T.);
#126=FACE_BOUND('',#205,.T.);
#127=FACE_BOUND('',#207,.T.);
#128=FACE_BOUND('',#208,.T.);
#129=FACE_BOUND('',#209,.T.);
#130=FACE_BOUND('',#210,.T.);
#131=FACE_BOUND('',#211,.T.);
#132=FACE_BOUND('',#212,.T.);
#133=FACE_BOUND('',#213,.T.);
#134=FACE_BOUND('',#214,.T.);
#135=FACE_BOUND('',#215,.T.);
#136=FACE_BOUND('',#216,.T.);
#137=FACE_BOUND('',#217,.T.);
#138=FACE_BOUND('',#218,.T.);
#139=FACE_BOUND('',#219,.T.);
#140=FACE_BOUND('',#220,.T.);
#141=FACE_BOUND('',#221,.T.);
#142=FACE_BOUND('',#222,.T.);
#143=FACE_BOUND('',#223,.T.);
#144=FACE_BOUND('',#224,.T.);
#145=FACE_BOUND('',#225,.T.);
#146=FACE_BOUND('',#226,.T.);
#147=FACE_BOUND('',#227,.T.);
#148=FACE_BOUND('',#228,.T.);
#149=FACE_BOUND('',#229,.T.);
#150=FACE_BOUND('',#230,.T.);
#151=FACE_BOUND('',#231,.T.);
#152=FACE_BOUND('',#232,.T.);
#153=FACE_BOUND('',#233,.T.);
#154=FACE_BOUND('',#234,.T.);
#155=FACE_BOUND('',#235,.T.);
#156=FACE_BOUND('',#236,.T.);
#157=ADVANCED_FACE('',(#185),#183,.F.);
#158=ADVANCED_FACE('',(#109,#110),#108,.T.);
#159=ADVANCED_FACE('',(#111,#112),#105,.T.);
#160=ADVANCED_FACE('',(#113,#114),#101,.T.);
#161=ADVANCED_FACE('',(#115,#116),#106,.T.);
#162=ADVANCED_FACE('',(#117,#118),#102,.T.);
#163=ADVANCED_FACE('',(#119,#120),#107,.T.);
#164=ADVANCED_FACE('',(#121,#122),#103,.T.);
#165=ADVANCED_FACE('',(#123,#124),#104,.T.);
#166=ADVANCED_FACE('',(#125,#126),#100,.T.);
#167=ADVANCED_FACE('',(#186),#184,.F.);
#168=ADVANCED_FACE('',(#127,#128),#46,.T.);
#169=ADVANCED_FACE('',(#129,#130),#47,.T.);
#170=ADVANCED_FACE('',(#131,#132),#48,.T.);
#171=ADVANCED_FACE('',(#133,#134),#49,.T.);
#172=ADVANCED_FACE('',(#135,#136),#50,.T.);
#173=ADVANCED_FACE('',(#137,#138),#51,.T.);
#174=ADVANCED_FACE('',(#139,#140),#52,.T.);
#175=ADVANCED_FACE('',(#141,#142),#53,.T.);
#176=ADVANCED_FACE('',(#143,#144),#54,.T.);
#177=ADVANCED_FACE('',(#145,#146),#55,.T.);
#178=ADVANCED_FACE('',(#147,#148),#56,.T.);
#179=ADVANCED_FACE('',(#149,#150),#57,.T.);
#180=ADVANCED_FACE('',(#151,#152),#58,.T.);
#181=ADVANCED_FACE('',(#153,#154),#59,.T.);
#182=ADVANCED_FACE('',(#155,#156),#60,.T.);
#183=PLANE('',#364);
#184=PLANE('',#383);
#185=FACE_OUTER_BOUND('',#187,.T.);
#186=FACE_OUTER_BOUND('',#206,.T.);
#187=EDGE_LOOP('',(#237));
#188=EDGE_LOOP('',(#238));
#189=EDGE_LOOP('',(#239));
#190=EDGE_LOOP('',(#240));
#191=EDGE_LOOP('',(#241));
#192=EDGE_LOOP('',(#242));
#193=EDGE_LOOP('',(#243));
#194=EDGE_LOOP('',(#244));
#195=EDGE_LOOP('',(#245));
#196=EDGE_LOOP('',(#246));
#197=EDGE_LOOP('',(#247));
#198=EDGE_LOOP('',(#248));
#199=EDGE_LOOP('',(#249));
#200=EDGE_LOOP('',(#250));
#201=EDGE_LOOP('',(#251));
#202=EDGE_LOOP('',(#252));
#203=EDGE_LOOP('',(#253));
#204=EDGE_LOOP('',(#254));
#205=EDGE_LOOP('',(#255));
#206=EDGE_LOOP('',(#256));
#207=EDGE_LOOP('',(#257));
#208=EDGE_LOOP('',(#258));
#209=EDGE_LOOP('',(#259));
#210=EDGE_LOOP('',(#260));
#211=EDGE_LOOP('',(#261));
#212=EDGE_LOOP('',(#262));
#213=EDGE_LOOP('',(#263));
#214=EDGE_LOOP('',(#264));
#215=EDGE_LOOP('',(#265));
#216=EDGE_LOOP('',(#266));
#217=EDGE_LOOP('',(#267));
#218=EDGE_LOOP('',(#268));
#219=EDGE_LOOP('',(#269));
#220=EDGE_LOOP('',(#270));
#221=EDGE_LOOP('',(#271));
#222=EDGE_LOOP('',(#272));
#223=EDGE_LOOP('',(#273));
#224=EDGE_LOOP('',(#274));
#225=EDGE_LOOP('',(#275));
#226=EDGE_LOOP('',(#276));
#227=EDGE_LOOP('',(#277));
#228=EDGE_LOOP('',(#278));
#229=EDGE_LOOP('',(#279));
#230=EDGE_LOOP('',(#280));
#231=EDGE_LOOP('',(#281));
#232=EDGE_LOOP('',(#282));
#233=EDGE_LOOP('',(#283));
#234=EDGE_LOOP('',(#284));
#235=EDGE_LOOP('',(#285));
#236=EDGE_LOOP('',(#286));
#237=ORIENTED_EDGE('',*,*,#312,.F.);
#238=ORIENTED_EDGE('',*,*,#313,.F.);
#239=ORIENTED_EDGE('',*,*,#312,.T.);
#240=ORIENTED_EDGE('',*,*,#314,.F.);
#241=ORIENTED_EDGE('',*,*,#313,.T.);
#242=ORIENTED_EDGE('',*,*,#315,.F.);
#243=ORIENTED_EDGE('',*,*,#314,.T.);
#244=ORIENTED_EDGE('',*,*,#316,.F.);
#245=ORIENTED_EDGE('',*,*,#315,.T.);
#246=ORIENTED_EDGE('',*,*,#317,.F.);
#247=ORIENTED_EDGE('',*,*,#316,.T.);
#248=ORIENTED_EDGE('',*,*,#318,.F.);
#249=ORIENTED_EDGE('',*,*,#317,.T.);
#250=ORIENTED_EDGE('',*,*,#319,.F.);
#251=ORIENTED_EDGE('',*,*,#318,.T.);
#252=ORIENTED_EDGE('',*,*,#320,.F.);
#253=ORIENTED_EDGE('',*,*,#319,.T.);
#254=ORIENTED_EDGE('',*,*,#321,.F.);
#255=ORIENTED_EDGE('',*,*,#320,.T.);
#256=ORIENTED_EDGE('',*,*,#321,.T.);
#257=ORIENTED_EDGE('',*,*,#322,.F.);
#258=ORIENTED_EDGE('',*,*,#323,.F.);
#259=ORIENTED_EDGE('',*,*,#324,.T.);
#260=ORIENTED_EDGE('',*,*,#325,.F.);
#261=ORIENTED_EDGE('',*,*,#326,.F.);
#262=ORIENTED_EDGE('',*,*,#322,.T.);
#263=ORIENTED_EDGE('',*,*,#327,.F.);
#264=ORIENTED_EDGE('',*,*,#326,.T.);
#265=ORIENTED_EDGE('',*,*,#324,.F.);
#266=ORIENTED_EDGE('',*,*,#327,.T.);
#267=ORIENTED_EDGE('',*,*,#328,.F.);
#268=ORIENTED_EDGE('',*,*,#325,.T.);
#269=ORIENTED_EDGE('',*,*,#329,.F.);
#270=ORIENTED_EDGE('',*,*,#328,.T.);
#271=ORIENTED_EDGE('',*,*,#329,.T.);
#272=ORIENTED_EDGE('',*,*,#330,.T.);
#273=ORIENTED_EDGE('',*,*,#331,.F.);
#274=ORIENTED_EDGE('',*,*,#332,.T.);
#275=ORIENTED_EDGE('',*,*,#331,.T.);
#276=ORIENTED_EDGE('',*,*,#333,.F.);
#277=ORIENTED_EDGE('',*,*,#332,.F.);
#278=ORIENTED_EDGE('',*,*,#334,.T.);
#279=ORIENTED_EDGE('',*,*,#334,.F.);
#280=ORIENTED_EDGE('',*,*,#335,.T.);
#281=ORIENTED_EDGE('',*,*,#335,.F.);
#282=ORIENTED_EDGE('',*,*,#330,.F.);
#283=ORIENTED_EDGE('',*,*,#336,.T.);
#284=ORIENTED_EDGE('',*,*,#323,.T.);
#285=ORIENTED_EDGE('',*,*,#336,.F.);
#286=ORIENTED_EDGE('',*,*,#333,.T.);
#287=VERTEX_POINT('',#499);
#288=VERTEX_POINT('',#502);
#289=VERTEX_POINT('',#505);
#290=VERTEX_POINT('',#508);
#291=VERTEX_POINT('',#511);
#292=VERTEX_POINT('',#514);
#293=VERTEX_POINT('',#517);
#294=VERTEX_POINT('',#520);
#295=VERTEX_POINT('',#523);
#296=VERTEX_POINT('',#526);
#297=VERTEX_POINT('',#530);
#298=VERTEX_POINT('',#532);
#299=VERTEX_POINT('',#540);
#300=VERTEX_POINT('',#542);
#301=VERTEX_POINT('',#551);
#302=VERTEX_POINT('',#558);
#303=VERTEX_POINT('',#564);
#304=VERTEX_POINT('',#568);
#305=VERTEX_POINT('',#577);
#306=VERTEX_POINT('',#585);
#307=VERTEX_POINT('',#587);
#308=VERTEX_POINT('',#596);
#309=VERTEX_POINT('',#604);
#310=VERTEX_POINT('',#608);
#311=VERTEX_POINT('',#618);
#312=EDGE_CURVE('',#287,#287,#337,.T.);
#313=EDGE_CURVE('',#288,#288,#338,.T.);
#314=EDGE_CURVE('',#289,#289,#339,.T.);
#315=EDGE_CURVE('',#290,#290,#340,.T.);
#316=EDGE_CURVE('',#291,#291,#341,.T.);
#317=EDGE_CURVE('',#292,#292,#342,.T.);
#318=EDGE_CURVE('',#293,#293,#343,.T.);
#319=EDGE_CURVE('',#294,#294,#344,.T.);
#320=EDGE_CURVE('',#295,#295,#345,.T.);
#321=EDGE_CURVE('',#296,#296,#346,.T.);
#322=EDGE_CURVE('',#297,#297,#347,.T.);
#323=EDGE_CURVE('',#298,#298,#348,.T.);
#324=EDGE_CURVE('',#299,#299,#349,.T.);
#325=EDGE_CURVE('',#300,#300,#350,.T.);
#326=EDGE_CURVE('',#301,#301,#351,.T.);
#327=EDGE_CURVE('',#302,#302,#352,.T.);
#328=EDGE_CURVE('',#303,#303,#353,.T.);
#329=EDGE_CURVE('',#304,#304,#354,.T.);
#330=EDGE_CURVE('',#305,#305,#355,.T.);
#331=EDGE_CURVE('',#306,#306,#356,.T.);
#332=EDGE_CURVE('',#307,#307,#357,.T.);
#333=EDGE_CURVE('',#308,#308,#358,.T.);
#334=EDGE_CURVE('',#309,#309,#359,.T.);
#335=EDGE_CURVE('',#310,#310,#360,.T.);
#336=EDGE_CURVE('',#311,#311,#361,.T.);
#337=CIRCLE('',#363,11.25);
#338=CIRCLE('',#365,12.25);
#339=CIRCLE('',#367,12.25);
#340=CIRCLE('',#369,12.5);
#341=CIRCLE('',#371,12.5);
#342=CIRCLE('',#373,11.75);
#343=CIRCLE('',#375,11.75);
#344=CIRCLE('',#377,10.65);
#345=CIRCLE('',#379,11.471986577988);
#346=CIRCLE('',#381,3.35410196624968);
#347=CIRCLE('',#384,12.4964966937277);
#348=CIRCLE('',#385,11.4089797966046);
#349=CIRCLE('',#386,12.4924014786003);
#350=CIRCLE('',#387,12.3276284301144);
#351=CIRCLE('',#388,12.4888446320928);
#352=CIRCLE('',#389,12.4674592621634);
#353=CIRCLE('',#391,12.340450185148);
#354=CIRCLE('',#392,11.0514114501578);
#355=CIRCLE('',#393,2.23490680451433);
#356=CIRCLE('',#394,0.83456949115459);
#357=CIRCLE('',#395,0.469181645810629);
#358=CIRCLE('',#396,3.85664027154123);
#359=CIRCLE('',#397,0.56688058998237);
#360=CIRCLE('',#398,0.723310531660572);
#361=CIRCLE('',#400,4.53873514673554);
#362=AXIS2_PLACEMENT_3D('',#497,#401,#402);
#363=AXIS2_PLACEMENT_3D('',#498,#403,#404);
#364=AXIS2_PLACEMENT_3D('',#500,#405,#406);
#365=AXIS2_PLACEMENT_3D('',#501,#407,#408);
#366=AXIS2_PLACEMENT_3D('',#503,#409,#410);
#367=AXIS2_PLACEMENT_3D('',#504,#411,#412);
#368=AXIS2_PLACEMENT_3D('',#506,#413,#414);
#369=AXIS2_PLACEMENT_3D('',#507,#415,#416);
#370=AXIS2_PLACEMENT_3D('',#509,#417,#418);
#371=AXIS2_PLACEMENT_3D('',#510,#419,#420);
#372=AXIS2_PLACEMENT_3D('',#512,#421,#422);
#373=AXIS2_PLACEMENT_3D('',#513,#423,#424);
#374=AXIS2_PLACEMENT_3D('',#515,#425,#426);
#375=AXIS2_PLACEMENT_3D('',#516,#427,#428);
#376=AXIS2_PLACEMENT_3D('',#518,#429,#430);
#377=AXIS2_PLACEMENT_3D('',#519,#431,#432);
#378=AXIS2_PLACEMENT_3D('',#521,#433,#434);
#379=AXIS2_PLACEMENT_3D('',#522,#435,#436);
#380=AXIS2_PLACEMENT_3D('',#524,#437,#438);
#381=AXIS2_PLACEMENT_3D('',#525,#439,#440);
#382=AXIS2_PLACEMENT_3D('',#527,#441,#442);
#383=AXIS2_PLACEMENT_3D('',#528,#443,#444);
#384=AXIS2_PLACEMENT_3D('',#529,#445,#446);
#385=AXIS2_PLACEMENT_3D('',#531,#447,#448);
#386=AXIS2_PLACEMENT_3D('',#539,#450,#451);
#387=AXIS2_PLACEMENT_3D('',#541,#452,#453);
#388=AXIS2_PLACEMENT_3D('',#550,#455,#456);
#389=AXIS2_PLACEMENT_3D('',#557,#458,#459);
#390=AXIS2_PLACEMENT_3D('',#559,#460,#461);
#391=AXIS2_PLACEMENT_3D('',#563,#465,#466);
#392=AXIS2_PLACEMENT_3D('',#567,#469,#470);
#393=AXIS2_PLACEMENT_3D('',#576,#472,#473);
#394=AXIS2_PLACEMENT_3D('',#584,#475,#476);
#395=AXIS2_PLACEMENT_3D('',#586,#477,#478);
#396=AXIS2_PLACEMENT_3D('',#595,#480,#481);
#397=AXIS2_PLACEMENT_3D('',#603,#483,#484);
#398=AXIS2_PLACEMENT_3D('',#607,#487,#488);
#399=AXIS2_PLACEMENT_3D('',#609,#489,#490);
#400=AXIS2_PLACEMENT_3D('',#617,#493,#494);
#401=DIRECTION('',(0.,0.,1.));
#402=DIRECTION('',(1.,0.,0.));
#403=DIRECTION('',(-1.,0.,0.));
#404=DIRECTION('',(0.,0.,1.));
#405=DIRECTION('',(-1.,0.,0.));
#406=DIRECTION('',(0.,0.,1.));
#407=DIRECTION('',(-1.,0.,0.));
#408=DIRECTION('',(0.,0.,1.));
#409=DIRECTION('',(-1.,0.,0.));
#410=DIRECTION('',(0.,0.,1.));
#411=DIRECTION('',(-1.,0.,0.));
#412=DIRECTION('',(0.,0.,1.));
#413=DIRECTION('',(-1.,0.,0.));
#414=DIRECTION('',(0.,0.,1.));
#415=DIRECTION('',(-1.,0.,0.));
#416=DIRECTION('',(0.,0.,1.));
#417=DIRECTION('',(-1.,0.,0.));
#418=DIRECTION('',(1.47184324997437E-16,0.,1.));
#419=DIRECTION('',(-1.,0.,0.));
#420=DIRECTION('',(0.,0.,1.));
#421=DIRECTION('',(-1.,0.,0.));
#422=DIRECTION('',(0.,0.,1.));
#423=DIRECTION('',(-1.,0.,0.));
#424=DIRECTION('',(0.,0.,1.));
#425=DIRECTION('',(1.,0.,0.));
#426=DIRECTION('',(4.11193712824131E-17,0.,-1.));
#427=DIRECTION('',(-1.,0.,0.));
#428=DIRECTION('',(0.,0.,1.));
#429=DIRECTION('',(-1.,0.,0.));
#430=DIRECTION('',(0.,0.,1.));
#431=DIRECTION('',(-1.,0.,0.));
#432=DIRECTION('',(0.,0.,1.));
#433=DIRECTION('',(1.,0.,0.));
#434=DIRECTION('',(1.47234992640822E-16,0.,-1.));
#435=DIRECTION('',(-1.,0.,0.));
#436=DIRECTION('',(0.,0.,1.));
#437=DIRECTION('',(-1.,0.,0.));
#438=DIRECTION('',(-2.58345809540287E-16,0.,1.));
#439=DIRECTION('',(-1.,0.,0.));
#440=DIRECTION('',(0.,0.,1.));
#441=DIRECTION('',(-1.,6.12323399573677E-17,0.));
#442=DIRECTION('',(0.,1.,0.));
#443=DIRECTION('',(1.,0.,0.));
#444=DIRECTION('',(0.,0.,-1.));
#445=DIRECTION('',(1.,0.,0.));
#446=DIRECTION('',(0.,0.,-1.));
#447=DIRECTION('',(-1.,0.,0.));
#448=DIRECTION('',(0.,0.,-1.));
#449=DIRECTION('',(1.,0.,0.));
#450=DIRECTION('',(1.,0.,0.));
#451=DIRECTION('',(0.,0.,-1.));
#452=DIRECTION('',(1.,0.,0.));
#453=DIRECTION('',(0.,0.,-1.));
#454=DIRECTION('',(1.,0.,0.));
#455=DIRECTION('',(1.,0.,0.));
#456=DIRECTION('',(0.,0.,-1.));
#457=DIRECTION('',(1.,0.,0.));
#458=DIRECTION('',(1.,0.,0.));
#459=DIRECTION('',(0.,0.,-1.));
#460=DIRECTION('',(0.173648177666937,7.48533179883992E-16,0.984807753012207));
#461=DIRECTION('',(-0.984014387075049,0.0401317925325436,0.173508285846641));
#462=DIRECTION('',(1.,0.,0.));
#463=DIRECTION('',(0.983817020485544,-0.0448444007332889,-0.173473484791821));
#464=DIRECTION('',(1.,0.,0.));
#465=DIRECTION('',(1.,0.,0.));
#466=DIRECTION('',(0.,0.,-1.));
#467=DIRECTION('',(0.983439075488932,0.052703431006087,0.173406842891688));
#468=DIRECTION('',(1.,0.,0.));
#469=DIRECTION('',(1.,0.,0.));
#470=DIRECTION('',(0.,0.,-1.));
#471=DIRECTION('',(1.,0.,0.));
#472=DIRECTION('',(-1.,0.,0.));
#473=DIRECTION('',(0.,0.,-1.));
#474=DIRECTION('',(1.,0.,0.));
#475=DIRECTION('',(1.,0.,0.));
#476=DIRECTION('',(0.,0.,-1.));
#477=DIRECTION('',(1.,0.,0.));
#478=DIRECTION('',(0.,0.,-1.));
#479=DIRECTION('',(1.,0.,0.));
#480=DIRECTION('',(1.,0.,0.));
#481=DIRECTION('',(0.,0.,-1.));
#482=DIRECTION('',(1.,0.,0.));
#483=DIRECTION('',(1.,0.,0.));
#484=DIRECTION('',(0.,0.,-1.));
#485=DIRECTION('',(-0.979450687079905,-0.104162489423789,0.172703582405638));
#486=DIRECTION('',(1.,0.,0.));
#487=DIRECTION('',(1.,0.,0.));
#488=DIRECTION('',(0.,0.,-1.));
#489=DIRECTION('',(0.173648177666937,7.25114412958305E-16,0.984807753012207));
#490=DIRECTION('',(-0.979047576984495,-0.107999355706023,0.172632503219621));
#491=DIRECTION('',(1.,0.,0.));
#492=DIRECTION('',(1.,0.,0.));
#493=DIRECTION('',(1.,0.,0.));
#494=DIRECTION('',(0.,0.,-1.));
#495=DIRECTION('',(1.,0.,0.));
#496=DIRECTION('',(1.,0.,0.));
#497=CARTESIAN_POINT('',(0.,0.,0.));
#498=CARTESIAN_POINT('',(150.,0.,0.));
#499=CARTESIAN_POINT('',(150.,0.,11.25));
#500=CARTESIAN_POINT('',(150.,0.,0.));
#501=CARTESIAN_POINT('',(149.,0.,0.));
#502=CARTESIAN_POINT('',(149.,0.,12.25));
#503=CARTESIAN_POINT('',(149.,0.,0.));
#504=CARTESIAN_POINT('',(146.,0.,0.));
#505=CARTESIAN_POINT('',(146.,0.,12.25));
#506=CARTESIAN_POINT('',(0.,0.,0.));
#507=CARTESIAN_POINT('',(144.582179545095,0.,0.));
#508=CARTESIAN_POINT('',(144.582179545095,0.,12.5));
#509=CARTESIAN_POINT('',(146.,0.,0.));
#510=CARTESIAN_POINT('',(50.,0.,0.));
#511=CARTESIAN_POINT('',(50.,0.,12.5));
#512=CARTESIAN_POINT('',(0.,0.,0.));
#513=CARTESIAN_POINT('',(49.25,0.,0.));
#514=CARTESIAN_POINT('',(49.25,0.,11.75));
#515=CARTESIAN_POINT('',(50.,0.,0.));
#516=CARTESIAN_POINT('',(26.962411055686,0.,0.));
#517=CARTESIAN_POINT('',(26.962411055686,0.,11.75));
#518=CARTESIAN_POINT('',(0.,0.,0.));
#519=CARTESIAN_POINT('',(25.0571551673602,0.,0.));
#520=CARTESIAN_POINT('',(25.0571551673602,0.,10.65));
#521=CARTESIAN_POINT('',(26.962411055686,0.,0.));
#522=CARTESIAN_POINT('',(13.3021994480574,0.,0.));
#523=CARTESIAN_POINT('',(13.3021994480574,0.,11.471986577988));
#524=CARTESIAN_POINT('',(25.0571551673602,0.,0.));
#525=CARTESIAN_POINT('',(1.5,0.,0.));
#526=CARTESIAN_POINT('',(1.5,0.,3.35410196624968));
#527=CARTESIAN_POINT('',(12.5,0.,0.));
#528=CARTESIAN_POINT('',(1.5,3.35410196624968,0.));
#529=CARTESIAN_POINT('',(12.6390903889065,0.,0.));
#530=CARTESIAN_POINT('',(12.6390903889065,0.,-12.4964966937277));
#531=CARTESIAN_POINT('',(7.40632155968836,0.,0.));
#532=CARTESIAN_POINT('',(7.40632155968836,0.,-11.4089797966046));
#533=CARTESIAN_POINT('',(-0.0732004027939297,0.818223370834003,0.16436773097866));
#534=CARTESIAN_POINT('',(0.313478494524916,5.8248061137727,0.0961858085107427));
#535=CARTESIAN_POINT('',(4.37354491949178,11.4058408853247,-0.619713445679509));
#536=CARTESIAN_POINT('',(11.1519654436169,12.381086381405,-1.81493187067082));
#537=CARTESIAN_POINT('',(12.6390903889065,12.3226567215656,-2.07715212221));
#538=CARTESIAN_POINT('',(26.962411055686,0.,0.));
#539=CARTESIAN_POINT('',(23.3641019749598,0.,0.));
#540=CARTESIAN_POINT('',(23.3641019749598,0.,-12.4924014786003));
#541=CARTESIAN_POINT('',(23.9789255253816,0.,0.));
#542=CARTESIAN_POINT('',(23.9789255253816,0.,-12.3276284301144));
#543=CARTESIAN_POINT('',(23.3641019749598,11.8453788067156,-3.96826103324215));
#544=CARTESIAN_POINT('',(23.7125328709327,11.8294966107366,-4.02969880111461));
#545=CARTESIAN_POINT('',(24.0449416138632,11.6498087525089,-4.08831143111664));
#546=CARTESIAN_POINT('',(24.4566821597447,11.0893726309084,-4.16091239840719));
#547=CARTESIAN_POINT('',(24.5321118214337,10.7135099422938,-4.17421268290867));
#548=CARTESIAN_POINT('',(24.4500796364103,10.3690535945833,-4.15974819540256));
#549=CARTESIAN_POINT('',(26.962411055686,0.,0.));
#550=CARTESIAN_POINT('',(19.7786443258795,0.,0.));
#551=CARTESIAN_POINT('',(19.7786443258795,0.,-12.4888446320928));
#552=CARTESIAN_POINT('',(12.6390903889065,12.3226567215656,-2.07715212221));
#553=CARTESIAN_POINT('',(15.0190318509286,12.2291479881508,-2.49680001447126));
#554=CARTESIAN_POINT('',(17.3988380884041,12.1320905757344,-2.9164240629965));
#555=CARTESIAN_POINT('',(19.7786443258795,12.035033163318,-3.33604811152173));
#556=CARTESIAN_POINT('',(26.962411055686,0.,0.));
#557=CARTESIAN_POINT('',(20.652879504244,0.,0.));
#558=CARTESIAN_POINT('',(20.652879504244,0.,-12.4674592621634));
#559=CARTESIAN_POINT('',(20.7381260709024,12.2110711840665,-3.50523063066651));
#560=CARTESIAN_POINT('',(26.962411055686,0.,0.));
#561=CARTESIAN_POINT('',(20.652879504244,11.9689618962762,-3.49019936095188));
#562=CARTESIAN_POINT('',(26.962411055686,0.,0.));
#563=CARTESIAN_POINT('',(25.227827430788,0.,0.));
#564=CARTESIAN_POINT('',(25.227827430788,0.,-12.340450185148));
#565=CARTESIAN_POINT('',(23.9789255253816,-11.6158489446009,4.12825338456606));
#566=CARTESIAN_POINT('',(26.962411055686,0.,0.));
#567=CARTESIAN_POINT('',(26.3054073005633,0.,0.));
#568=CARTESIAN_POINT('',(26.3054073005633,0.,-11.0514114501578));
#569=CARTESIAN_POINT('',(25.227827430788,-11.548919109245,4.34846848674741));
#570=CARTESIAN_POINT('',(25.5741626892058,-11.5303586748959,4.40953673717711));
#571=CARTESIAN_POINT('',(25.9045848382311,-11.3494216426401,4.46779907707394));
#572=CARTESIAN_POINT('',(26.3118290431983,-10.7911928964246,4.53960721814683));
#573=CARTESIAN_POINT('',(26.3863060750139,-10.4190844839398,4.55273952829901));
#574=CARTESIAN_POINT('',(26.3054073005633,-10.0765043888482,4.53847489165711));
#575=CARTESIAN_POINT('',(26.962411055686,0.,0.));
#576=CARTESIAN_POINT('',(12.7756855176879,0.,0.));
#577=CARTESIAN_POINT('',(12.7756855176879,0.,-2.23490680451433));
#578=CARTESIAN_POINT('',(26.3054073005633,-10.0765043888482,4.53847489165711));
#579=CARTESIAN_POINT('',(25.1521855686953,-5.19298404817699,4.33513078558944));
#580=CARTESIAN_POINT('',(20.2823029470328,-0.325593365714396,3.47643908650708));
#581=CARTESIAN_POINT('',(13.4370917799398,-0.439091397464122,2.2694436691017));
#582=CARTESIAN_POINT('',(11.977277359643,-0.73302809638905,2.01203899997608));
#583=CARTESIAN_POINT('',(26.962411055686,0.,0.));
#584=CARTESIAN_POINT('',(-0.0732004027939291,0.,0.));
#585=CARTESIAN_POINT('',(-0.0732004027939291,0.,-0.83456949115459));
#586=CARTESIAN_POINT('',(1.21794975212844,0.,0.));
#587=CARTESIAN_POINT('',(1.21794975212844,0.,-0.469181645810629));
#588=CARTESIAN_POINT('',(1.21794975212843,-0.464892376864628,-0.0632968774800748));
#589=CARTESIAN_POINT('',(0.873019074395606,-0.501575018007497,-0.00247629252171812));
#590=CARTESIAN_POINT('',(0.518790195809926,-0.375352425486158,0.0599838161190425));
#591=CARTESIAN_POINT('',(0.0305603089357074,0.111313785575065,0.146071917963212));
#592=CARTESIAN_POINT('',(-0.100326017959333,0.467010419415423,0.169150708800636));
#593=CARTESIAN_POINT('',(-0.0732004027939412,0.818223370834009,0.164367730978662));
#594=CARTESIAN_POINT('',(26.962411055686,0.,0.));
#595=CARTESIAN_POINT('',(0.541749151268336,0.,0.));
#596=CARTESIAN_POINT('',(0.541749151268336,0.,-3.85664027154123));
#597=CARTESIAN_POINT('',(-0.0732004027939297,0.818223370834003,0.16436773097866));
#598=CARTESIAN_POINT('',(0.313478494524916,5.8248061137727,0.0961858085107427));
#599=CARTESIAN_POINT('',(4.37354491949178,11.4058408853247,-0.619713445679509));
#600=CARTESIAN_POINT('',(11.1519654436169,12.381086381405,-1.81493187067082));
#601=CARTESIAN_POINT('',(12.6390903889065,12.3226567215656,-2.07715212221));
#602=CARTESIAN_POINT('',(26.962411055686,0.,0.));
#603=CARTESIAN_POINT('',(3.91023628471359,0.,0.));
#604=CARTESIAN_POINT('',(3.91023628471359,0.,-0.56688058998237));
#605=CARTESIAN_POINT('',(3.91023628471359,-0.17857345221076,-0.538019632972897));
#606=CARTESIAN_POINT('',(26.962411055686,0.,0.));
#607=CARTESIAN_POINT('',(4.91586838718497,0.,0.));
#608=CARTESIAN_POINT('',(4.91586838718497,0.,-0.723310531660572));
#609=CARTESIAN_POINT('',(3.87483653042296,-0.429370450071927,-0.531777701181009));
#610=CARTESIAN_POINT('',(26.962411055686,0.,0.));
#611=CARTESIAN_POINT('',(13.863449985136,0.88312204864652,-2.29303975311459));
#612=CARTESIAN_POINT('',(12.3724732064687,0.715457621770644,-2.03014031942572));
#613=CARTESIAN_POINT('',(9.38983127875518,0.386440509561504,-1.50422007377751));
#614=CARTESIAN_POINT('',(6.40718935104171,0.0574233973523629,-0.978299828129295));
#615=CARTESIAN_POINT('',(4.91586838718497,-0.107085158752207,-0.715339705305189));
#616=CARTESIAN_POINT('',(26.962411055686,0.,0.));
#617=CARTESIAN_POINT('',(0.612668933391378,0.,0.));
#618=CARTESIAN_POINT('',(0.612668933391378,0.,-4.53873514673554));
#619=CARTESIAN_POINT('',(0.61266893339138,-4.53872782600898,0.00815190924114884));
#620=CARTESIAN_POINT('',(2.10357132787038,-8.17663069882443,0.271038226990652));
#621=CARTESIAN_POINT('',(6.0556678040153,-11.740926971447,0.96789946609785));
#622=CARTESIAN_POINT('',(11.3184274580818,-12.2838256611699,1.89586598609372));
#623=CARTESIAN_POINT('',(12.530342053125,-12.2262098435381,2.10955922751421));
#624=CARTESIAN_POINT('',(26.962411055686,0.,0.));
#625=CARTESIAN_POINT('',(1.45783688422418,-2.9080735528506,0.157177822203058));
#626=CARTESIAN_POINT('',(1.11614252811572,-2.97910766563314,0.0969278880653304));
#627=CARTESIAN_POINT('',(0.815508617835287,-3.20938563868077,0.0439180183670025));
#628=CARTESIAN_POINT('',(0.495176878730017,-3.82832590809213,-0.0125651100145218));
#629=CARTESIAN_POINT('',(0.478580488072388,-4.21154293299204,-0.0154915014698397));
#630=CARTESIAN_POINT('',(0.612668933391098,-4.53872782600902,0.00815190924110073));
#631=CARTESIAN_POINT('',(26.962411055686,0.,0.));
#632=MECHANICAL_DESIGN_GEOMETRIC_PRESENTATION_REPRESENTATION('',(#81,#82),
#633);
#633=(
GEOMETRIC_REPRESENTATION_CONTEXT(3)
GLOBAL_UNCERTAINTY_ASSIGNED_CONTEXT((#634))
GLOBAL_UNIT_ASSIGNED_CONTEXT((#640,#636,#635))
REPRESENTATION_CONTEXT('APMR-XP25-D25-C25-L150',
'TOP_LEVEL_ASSEMBLY_PART')
);
#634=UNCERTAINTY_MEASURE_WITH_UNIT(LENGTH_MEASURE(2.E-5),#640,
'DISTANCE_ACCURACY_VALUE','Maximum Tolerance applied to model');
#635=(
NAMED_UNIT(*)
SI_UNIT($,.STERADIAN.)
SOLID_ANGLE_UNIT()
);
#636=(
CONVERSION_BASED_UNIT('DEGREE',#638)
NAMED_UNIT(#637)
PLANE_ANGLE_UNIT()
);
#637=DIMENSIONAL_EXPONENTS(0.,0.,0.,0.,0.,0.,0.);
#638=PLANE_ANGLE_MEASURE_WITH_UNIT(PLANE_ANGLE_MEASURE(0.0174532925),#639);
#639=(
NAMED_UNIT(*)
PLANE_ANGLE_UNIT()
SI_UNIT($,.RADIAN.)
);
#640=(
LENGTH_UNIT()
NAMED_UNIT(*)
SI_UNIT(.MILLI.,.METRE.)
);
ENDSEC;
END-ISO-10303-21;
