ISO-10303-21;
HEADER;
/* Generated by software containing ST-Developer
 * from STEP Tools, Inc. (www.steptools.com) 
 */
/* OPTION: using custom schema-name function */

FILE_DESCRIPTION(
/* description */ (''),
/* implementation_level */ '2;1');

FILE_NAME(
/* name */ 'ATM-3EI-D14-W20-L90-Z01-H.stp',
/* time_stamp */ '2023-09-30T02:42:07+03:00',
/* author */ (''),
/* organization */ (''),
/* preprocessor_version */ 'ST-DEVELOPER v19.4',
/* originating_system */ 'SIEMENS PLM Software NX2306.5001',
/* authorisation */ '');

FILE_SCHEMA (('AUTOMOTIVE_DESIGN { 1 0 10303 214 3 1 1 1 }'));
ENDSEC;

DATA;
#10=CONSTRUCTIVE_GEOMETRY_REPRESENTATION_RELATIONSHIP(
'supplemental geometry','',#32,#11);
#11=CONSTRUCTIVE_GEOMETRY_REPRESENTATION('supplemental geometry',(#205),
#334);
#12=PROPERTY_DEFINITION_REPRESENTATION(#16,#14);
#13=PROPERTY_DEFINITION_REPRESENTATION(#17,#15);
#14=REPRESENTATION('',(#18),#334);
#15=REPRESENTATION('',(#19),#334);
#16=PROPERTY_DEFINITION('pmi validation property','',#23);
#17=PROPERTY_DEFINITION('pmi validation property','',#23);
#18=VALUE_REPRESENTATION_ITEM('number of annotations',COUNT_MEASURE(0.));
#19=VALUE_REPRESENTATION_ITEM('number of views',COUNT_MEASURE(0.));
#20=SHAPE_REPRESENTATION_RELATIONSHIP('None',
'relationship between ATM-3EI-D14-W20-L90-Z01-H-LIGHT_objects-None and
 ATM-3EI-D14-W20-L90-Z01-H-LIGHT_objects-None',#32,#21);
#21=ADVANCED_BREP_SHAPE_REPRESENTATION(
'ATM-3EI-D14-W20-L90-Z01-H-LIGHT_objects-None',(#44,#45),#334);
#22=SHAPE_DEFINITION_REPRESENTATION(#23,#32);
#23=PRODUCT_DEFINITION_SHAPE('','',#24);
#24=PRODUCT_DEFINITION(' ','',#26,#25);
#25=PRODUCT_DEFINITION_CONTEXT('part definition',#31,'design');
#26=PRODUCT_DEFINITION_FORMATION_WITH_SPECIFIED_SOURCE(' ',' ',#28,
 .NOT_KNOWN.);
#27=PRODUCT_RELATED_PRODUCT_CATEGORY('part','',(#28));
#28=PRODUCT('ATM-3EI-D14-W20-L90-Z01-H-LIGHT_objects',
'ATM-3EI-D14-W20-L90-Z01-H-LIGHT_objects',' ',(#29));
#29=PRODUCT_CONTEXT(' ',#31,'mechanical');
#30=APPLICATION_PROTOCOL_DEFINITION('international standard',
'automotive_design',2010,#31);
#31=APPLICATION_CONTEXT(
'core data for automotive mechanical design processes');
#32=SHAPE_REPRESENTATION('ATM-3EI-D14-W20-L90-Z01-H-LIGHT_objects-None',
(#204),#334);
#33=DRAUGHTING_PRE_DEFINED_COLOUR('yellow');
#34=SURFACE_STYLE_USAGE(.BOTH.,#36);
#35=SURFACE_STYLE_USAGE(.BOTH.,#37);
#36=SURFACE_SIDE_STYLE('',(#38));
#37=SURFACE_SIDE_STYLE('',(#39));
#38=SURFACE_STYLE_FILL_AREA(#40);
#39=SURFACE_STYLE_FILL_AREA(#41);
#40=FILL_AREA_STYLE('',(#42));
#41=FILL_AREA_STYLE('',(#43));
#42=FILL_AREA_STYLE_COLOUR('',#202);
#43=FILL_AREA_STYLE_COLOUR('',#33);
#44=MANIFOLD_SOLID_BREP('',#46);
#45=MANIFOLD_SOLID_BREP('',#47);
#46=CLOSED_SHELL('',(#61,#62,#63,#64,#65,#66,#67,#68,#69,#70));
#47=CLOSED_SHELL('',(#71,#72,#73,#74));
#48=PLANE('',#215);
#49=PLANE('',#224);
#50=PLANE('',#229);
#51=PLANE('',#232);
#52=FACE_OUTER_BOUND('',#110,.T.);
#53=FACE_OUTER_BOUND('',#119,.T.);
#54=CONICAL_SURFACE('',#212,9.75,10.0000000000027);
#55=CONICAL_SURFACE('',#217,104.061833294566,45.);
#56=CYLINDRICAL_SURFACE('',#210,9.75);
#57=CYLINDRICAL_SURFACE('',#214,10.);
#58=CYLINDRICAL_SURFACE('',#221,5.75);
#59=CYLINDRICAL_SURFACE('',#227,7.);
#60=CYLINDRICAL_SURFACE('',#231,4.);
#61=ADVANCED_FACE('',(#78,#79),#75,.T.);
#62=ADVANCED_FACE('',(#80,#81),#56,.T.);
#63=ADVANCED_FACE('',(#82,#83),#54,.T.);
#64=ADVANCED_FACE('',(#84,#85),#57,.T.);
#65=ADVANCED_FACE('',(#52),#48,.F.);
#66=ADVANCED_FACE('',(#86,#87),#55,.T.);
#67=ADVANCED_FACE('',(#88,#89),#76,.F.);
#68=ADVANCED_FACE('',(#90,#91),#58,.T.);
#69=ADVANCED_FACE('',(#92,#93),#77,.T.);
#70=ADVANCED_FACE('',(#53),#49,.F.);
#71=ADVANCED_FACE('',(#94,#95),#59,.T.);
#72=ADVANCED_FACE('',(#96,#97),#50,.F.);
#73=ADVANCED_FACE('',(#98,#99),#60,.F.);
#74=ADVANCED_FACE('',(#100,#101),#51,.F.);
#75=TOROIDAL_SURFACE('',#208,8.25,1.5);
#76=TOROIDAL_SURFACE('',#219,9.75,4.);
#77=TOROIDAL_SURFACE('',#223,4.95,0.8);
#78=FACE_BOUND('',#102,.T.);
#79=FACE_BOUND('',#103,.T.);
#80=FACE_BOUND('',#104,.T.);
#81=FACE_BOUND('',#105,.T.);
#82=FACE_BOUND('',#106,.T.);
#83=FACE_BOUND('',#107,.T.);
#84=FACE_BOUND('',#108,.T.);
#85=FACE_BOUND('',#109,.T.);
#86=FACE_BOUND('',#111,.T.);
#87=FACE_BOUND('',#112,.T.);
#88=FACE_BOUND('',#113,.T.);
#89=FACE_BOUND('',#114,.T.);
#90=FACE_BOUND('',#115,.T.);
#91=FACE_BOUND('',#116,.T.);
#92=FACE_BOUND('',#117,.T.);
#93=FACE_BOUND('',#118,.T.);
#94=FACE_BOUND('',#120,.T.);
#95=FACE_BOUND('',#121,.T.);
#96=FACE_BOUND('',#122,.T.);
#97=FACE_BOUND('',#123,.T.);
#98=FACE_BOUND('',#124,.T.);
#99=FACE_BOUND('',#125,.T.);
#100=FACE_BOUND('',#126,.T.);
#101=FACE_BOUND('',#127,.T.);
#102=EDGE_LOOP('',(#128));
#103=EDGE_LOOP('',(#129));
#104=EDGE_LOOP('',(#130));
#105=EDGE_LOOP('',(#131));
#106=EDGE_LOOP('',(#132));
#107=EDGE_LOOP('',(#133));
#108=EDGE_LOOP('',(#134));
#109=EDGE_LOOP('',(#135));
#110=EDGE_LOOP('',(#136));
#111=EDGE_LOOP('',(#137));
#112=EDGE_LOOP('',(#138));
#113=EDGE_LOOP('',(#139));
#114=EDGE_LOOP('',(#140));
#115=EDGE_LOOP('',(#141));
#116=EDGE_LOOP('',(#142));
#117=EDGE_LOOP('',(#143));
#118=EDGE_LOOP('',(#144));
#119=EDGE_LOOP('',(#145));
#120=EDGE_LOOP('',(#146));
#121=EDGE_LOOP('',(#147));
#122=EDGE_LOOP('',(#148));
#123=EDGE_LOOP('',(#149));
#124=EDGE_LOOP('',(#150));
#125=EDGE_LOOP('',(#151));
#126=EDGE_LOOP('',(#152));
#127=EDGE_LOOP('',(#153));
#128=ORIENTED_EDGE('',*,*,#167,.T.);
#129=ORIENTED_EDGE('',*,*,#168,.T.);
#130=ORIENTED_EDGE('',*,*,#169,.T.);
#131=ORIENTED_EDGE('',*,*,#167,.F.);
#132=ORIENTED_EDGE('',*,*,#170,.T.);
#133=ORIENTED_EDGE('',*,*,#169,.F.);
#134=ORIENTED_EDGE('',*,*,#171,.T.);
#135=ORIENTED_EDGE('',*,*,#170,.F.);
#136=ORIENTED_EDGE('',*,*,#168,.F.);
#137=ORIENTED_EDGE('',*,*,#172,.T.);
#138=ORIENTED_EDGE('',*,*,#171,.F.);
#139=ORIENTED_EDGE('',*,*,#173,.T.);
#140=ORIENTED_EDGE('',*,*,#172,.F.);
#141=ORIENTED_EDGE('',*,*,#174,.T.);
#142=ORIENTED_EDGE('',*,*,#173,.F.);
#143=ORIENTED_EDGE('',*,*,#175,.T.);
#144=ORIENTED_EDGE('',*,*,#174,.F.);
#145=ORIENTED_EDGE('',*,*,#175,.F.);
#146=ORIENTED_EDGE('',*,*,#176,.F.);
#147=ORIENTED_EDGE('',*,*,#177,.T.);
#148=ORIENTED_EDGE('',*,*,#178,.F.);
#149=ORIENTED_EDGE('',*,*,#176,.T.);
#150=ORIENTED_EDGE('',*,*,#179,.F.);
#151=ORIENTED_EDGE('',*,*,#178,.T.);
#152=ORIENTED_EDGE('',*,*,#177,.F.);
#153=ORIENTED_EDGE('',*,*,#179,.T.);
#154=VERTEX_POINT('',#294);
#155=VERTEX_POINT('',#296);
#156=VERTEX_POINT('',#299);
#157=VERTEX_POINT('',#302);
#158=VERTEX_POINT('',#305);
#159=VERTEX_POINT('',#309);
#160=VERTEX_POINT('',#312);
#161=VERTEX_POINT('',#315);
#162=VERTEX_POINT('',#318);
#163=VERTEX_POINT('',#322);
#164=VERTEX_POINT('',#324);
#165=VERTEX_POINT('',#327);
#166=VERTEX_POINT('',#330);
#167=EDGE_CURVE('',#154,#154,#180,.T.);
#168=EDGE_CURVE('',#155,#155,#181,.T.);
#169=EDGE_CURVE('',#156,#156,#182,.T.);
#170=EDGE_CURVE('',#157,#157,#183,.T.);
#171=EDGE_CURVE('',#158,#158,#184,.T.);
#172=EDGE_CURVE('',#159,#159,#185,.T.);
#173=EDGE_CURVE('',#160,#160,#186,.T.);
#174=EDGE_CURVE('',#161,#161,#187,.T.);
#175=EDGE_CURVE('',#162,#162,#188,.T.);
#176=EDGE_CURVE('',#163,#163,#189,.T.);
#177=EDGE_CURVE('',#164,#164,#190,.T.);
#178=EDGE_CURVE('',#165,#165,#191,.T.);
#179=EDGE_CURVE('',#166,#166,#192,.T.);
#180=CIRCLE('',#206,9.75);
#181=CIRCLE('',#207,8.25);
#182=CIRCLE('',#209,9.75);
#183=CIRCLE('',#211,10.0000000000001);
#184=CIRCLE('',#213,10.);
#185=CIRCLE('',#216,6.92157287525379);
#186=CIRCLE('',#218,5.75);
#187=CIRCLE('',#220,5.75);
#188=CIRCLE('',#222,4.95);
#189=CIRCLE('',#225,7.);
#190=CIRCLE('',#226,7.);
#191=CIRCLE('',#228,4.);
#192=CIRCLE('',#230,4.);
#193=PRESENTATION_LAYER_ASSIGNMENT('1','Layer 1',(#205,#44,#45));
#194=STYLED_ITEM('',(#197),#205);
#195=STYLED_ITEM('',(#198),#44);
#196=STYLED_ITEM('',(#199),#45);
#197=PRESENTATION_STYLE_ASSIGNMENT((#200));
#198=PRESENTATION_STYLE_ASSIGNMENT((#34));
#199=PRESENTATION_STYLE_ASSIGNMENT((#35));
#200=CURVE_STYLE('',#203,POSITIVE_LENGTH_MEASURE(0.13),#201);
#201=COLOUR_RGB('Medium Maroon',0.6,0.4,0.4);
#202=COLOUR_RGB('smoke gray',0.694117647058824,0.694117647058824,0.694117647058824);
#203=DRAUGHTING_PRE_DEFINED_CURVE_FONT('continuous');
#204=AXIS2_PLACEMENT_3D('',#291,#233,#234);
#205=AXIS2_PLACEMENT_3D('',#292,#235,#236);
#206=AXIS2_PLACEMENT_3D('',#293,#237,#238);
#207=AXIS2_PLACEMENT_3D('',#295,#239,#240);
#208=AXIS2_PLACEMENT_3D('',#297,#241,#242);
#209=AXIS2_PLACEMENT_3D('',#298,#243,#244);
#210=AXIS2_PLACEMENT_3D('',#300,#245,#246);
#211=AXIS2_PLACEMENT_3D('',#301,#247,#248);
#212=AXIS2_PLACEMENT_3D('',#303,#249,#250);
#213=AXIS2_PLACEMENT_3D('',#304,#251,#252);
#214=AXIS2_PLACEMENT_3D('',#306,#253,#254);
#215=AXIS2_PLACEMENT_3D('',#307,#255,#256);
#216=AXIS2_PLACEMENT_3D('',#308,#257,#258);
#217=AXIS2_PLACEMENT_3D('',#310,#259,#260);
#218=AXIS2_PLACEMENT_3D('',#311,#261,#262);
#219=AXIS2_PLACEMENT_3D('',#313,#263,#264);
#220=AXIS2_PLACEMENT_3D('',#314,#265,#266);
#221=AXIS2_PLACEMENT_3D('',#316,#267,#268);
#222=AXIS2_PLACEMENT_3D('',#317,#269,#270);
#223=AXIS2_PLACEMENT_3D('',#319,#271,#272);
#224=AXIS2_PLACEMENT_3D('',#320,#273,#274);
#225=AXIS2_PLACEMENT_3D('',#321,#275,#276);
#226=AXIS2_PLACEMENT_3D('',#323,#277,#278);
#227=AXIS2_PLACEMENT_3D('',#325,#279,#280);
#228=AXIS2_PLACEMENT_3D('',#326,#281,#282);
#229=AXIS2_PLACEMENT_3D('',#328,#283,#284);
#230=AXIS2_PLACEMENT_3D('',#329,#285,#286);
#231=AXIS2_PLACEMENT_3D('',#331,#287,#288);
#232=AXIS2_PLACEMENT_3D('',#332,#289,#290);
#233=DIRECTION('',(0.,0.,1.));
#234=DIRECTION('',(1.,0.,0.));
#235=DIRECTION('',(0.,1.,0.));
#236=DIRECTION('',(-1.,0.,0.));
#237=DIRECTION('',(1.,0.,0.));
#238=DIRECTION('',(0.,0.,1.));
#239=DIRECTION('',(-1.,0.,0.));
#240=DIRECTION('',(0.,0.,1.));
#241=DIRECTION('',(-1.,0.,0.));
#242=DIRECTION('',(0.,0.,1.));
#243=DIRECTION('',(1.,0.,0.));
#244=DIRECTION('',(0.,0.,1.));
#245=DIRECTION('',(-1.,0.,0.));
#246=DIRECTION('',(0.,0.,1.));
#247=DIRECTION('',(1.,0.,0.));
#248=DIRECTION('',(0.,0.,1.));
#249=DIRECTION('',(-1.,0.,0.));
#250=DIRECTION('',(-1.4916179051243E-16,0.,1.));
#251=DIRECTION('',(1.,0.,0.));
#252=DIRECTION('',(0.,0.,-1.));
#253=DIRECTION('',(-1.,0.,0.));
#254=DIRECTION('',(0.,0.,1.));
#255=DIRECTION('',(-1.,0.,0.));
#256=DIRECTION('',(0.,0.,1.));
#257=DIRECTION('',(1.,0.,0.));
#258=DIRECTION('',(0.,0.,1.));
#259=DIRECTION('',(1.,0.,0.));
#260=DIRECTION('',(1.25697559586881E-17,0.,-1.));
#261=DIRECTION('',(1.,0.,0.));
#262=DIRECTION('',(0.,0.,1.));
#263=DIRECTION('',(-1.,0.,0.));
#264=DIRECTION('',(0.,0.,1.));
#265=DIRECTION('',(1.,0.,0.));
#266=DIRECTION('',(0.,0.,1.));
#267=DIRECTION('',(-1.,0.,0.));
#268=DIRECTION('',(0.,0.,1.));
#269=DIRECTION('',(1.,0.,0.));
#270=DIRECTION('',(0.,0.,1.));
#271=DIRECTION('',(-1.,0.,0.));
#272=DIRECTION('',(0.,0.,1.));
#273=DIRECTION('',(1.,0.,0.));
#274=DIRECTION('',(0.,0.,-1.));
#275=DIRECTION('',(1.,0.,0.));
#276=DIRECTION('',(0.,0.,-1.));
#277=DIRECTION('',(1.,0.,0.));
#278=DIRECTION('',(0.,0.,-1.));
#279=DIRECTION('',(1.,0.,0.));
#280=DIRECTION('',(0.,0.,-1.));
#281=DIRECTION('',(1.,0.,0.));
#282=DIRECTION('',(0.,0.,-1.));
#283=DIRECTION('',(-1.,0.,0.));
#284=DIRECTION('',(0.,0.,1.));
#285=DIRECTION('',(1.,0.,0.));
#286=DIRECTION('',(0.,0.,-1.));
#287=DIRECTION('',(1.,0.,0.));
#288=DIRECTION('',(0.,0.,-1.));
#289=DIRECTION('',(1.,0.,0.));
#290=DIRECTION('',(0.,0.,-1.));
#291=CARTESIAN_POINT('',(0.,0.,0.));
#292=CARTESIAN_POINT('',(0.,0.,0.));
#293=CARTESIAN_POINT('',(88.5,0.,0.));
#294=CARTESIAN_POINT('',(88.5,0.,9.75));
#295=CARTESIAN_POINT('',(90.,0.,0.));
#296=CARTESIAN_POINT('',(90.,0.,8.25));
#297=CARTESIAN_POINT('',(88.5,0.,0.));
#298=CARTESIAN_POINT('',(86.,0.,0.));
#299=CARTESIAN_POINT('',(86.,0.,9.75));
#300=CARTESIAN_POINT('',(0.,0.,0.));
#301=CARTESIAN_POINT('',(84.5821795450956,0.,0.));
#302=CARTESIAN_POINT('',(84.5821795450956,0.,10.0000000000001));
#303=CARTESIAN_POINT('',(86.,0.,0.));
#304=CARTESIAN_POINT('',(27.9068542494925,0.,0.));
#305=CARTESIAN_POINT('',(27.9068542494925,0.,-10.));
#306=CARTESIAN_POINT('',(0.,0.,0.));
#307=CARTESIAN_POINT('',(90.,0.,0.));
#308=CARTESIAN_POINT('',(24.8284271247462,0.,0.));
#309=CARTESIAN_POINT('',(24.8284271247462,0.,6.92157287525379));
#310=CARTESIAN_POINT('',(121.968687544059,0.,0.));
#311=CARTESIAN_POINT('',(22.,0.,0.));
#312=CARTESIAN_POINT('',(22.,0.,5.75));
#313=CARTESIAN_POINT('',(22.,0.,0.));
#314=CARTESIAN_POINT('',(1.29999999999884,0.,0.));
#315=CARTESIAN_POINT('',(1.29999999999884,0.,5.75));
#316=CARTESIAN_POINT('',(0.,0.,0.));
#317=CARTESIAN_POINT('',(0.500000000000523,0.,0.));
#318=CARTESIAN_POINT('',(0.500000000000523,0.,4.95));
#319=CARTESIAN_POINT('',(1.30000000000052,0.,0.));
#320=CARTESIAN_POINT('',(0.499999999999679,4.95,0.));
#321=CARTESIAN_POINT('',(15.3000000000133,0.,0.));
#322=CARTESIAN_POINT('',(15.3000000000133,0.,-7.));
#323=CARTESIAN_POINT('',(0.,0.,0.));
#324=CARTESIAN_POINT('',(0.,0.,-7.));
#325=CARTESIAN_POINT('',(22.,0.,0.));
#326=CARTESIAN_POINT('',(15.3000000000176,0.,0.));
#327=CARTESIAN_POINT('',(15.3000000000176,0.,-4.));
#328=CARTESIAN_POINT('',(15.3000000000154,0.,-7.));
#329=CARTESIAN_POINT('',(0.,0.,0.));
#330=CARTESIAN_POINT('',(0.,0.,-4.));
#331=CARTESIAN_POINT('',(22.,0.,0.));
#332=CARTESIAN_POINT('',(0.,0.,-4.));
#333=MECHANICAL_DESIGN_GEOMETRIC_PRESENTATION_REPRESENTATION('',(#194,#195,
#196),#334);
#334=(
GEOMETRIC_REPRESENTATION_CONTEXT(3)
GLOBAL_UNCERTAINTY_ASSIGNED_CONTEXT((#335))
GLOBAL_UNIT_ASSIGNED_CONTEXT((#341,#337,#336))
REPRESENTATION_CONTEXT('ATM-3EI-D14-W20-L90-Z01-H',
'TOP_LEVEL_ASSEMBLY_PART')
);
#335=UNCERTAINTY_MEASURE_WITH_UNIT(LENGTH_MEASURE(2.E-5),#341,
'DISTANCE_ACCURACY_VALUE','Maximum Tolerance applied to model');
#336=(
NAMED_UNIT(*)
SI_UNIT($,.STERADIAN.)
SOLID_ANGLE_UNIT()
);
#337=(
CONVERSION_BASED_UNIT('DEGREE',#339)
NAMED_UNIT(#338)
PLANE_ANGLE_UNIT()
);
#338=DIMENSIONAL_EXPONENTS(0.,0.,0.,0.,0.,0.,0.);
#339=PLANE_ANGLE_MEASURE_WITH_UNIT(PLANE_ANGLE_MEASURE(0.0174532925),#340);
#340=(
NAMED_UNIT(*)
PLANE_ANGLE_UNIT()
SI_UNIT($,.RADIAN.)
);
#341=(
LENGTH_UNIT()
NAMED_UNIT(*)
SI_UNIT(.MILLI.,.METRE.)
);
ENDSEC;
END-ISO-10303-21;
