ISO-10303-21;
HEADER;
/* Generated by software containing ST-Developer
 * from STEP Tools, Inc. (www.steptools.com) 
 */
/* OPTION: using custom schema-name function */

FILE_DESCRIPTION(
/* description */ (''),
/* implementation_level */ '2;1');

FILE_NAME(
/* name */ 'ATM-C14-D14-W20-L100-Z01-H.stp',
/* time_stamp */ '2023-09-30T01:39:50+03:00',
/* author */ (''),
/* organization */ (''),
/* preprocessor_version */ 'ST-DEVELOPER v19.4',
/* originating_system */ 'SIEMENS PLM Software NX2306.5001',
/* authorisation */ '');

FILE_SCHEMA (('AUTOMOTIVE_DESIGN { 1 0 10303 214 3 1 1 1 }'));
ENDSEC;

DATA;
#10=PROPERTY_DEFINITION_REPRESENTATION(#14,#12);
#11=PROPERTY_DEFINITION_REPRESENTATION(#15,#13);
#12=REPRESENTATION('',(#16),#363);
#13=REPRESENTATION('',(#17),#363);
#14=PROPERTY_DEFINITION('pmi validation property','',#21);
#15=PROPERTY_DEFINITION('pmi validation property','',#21);
#16=VALUE_REPRESENTATION_ITEM('number of annotations',COUNT_MEASURE(0.));
#17=VALUE_REPRESENTATION_ITEM('number of views',COUNT_MEASURE(0.));
#18=SHAPE_REPRESENTATION_RELATIONSHIP('None',
'relationship between ATM-C14-D14-W20-L100-Z01-H-LIGHT_objects-None an
d ATM-C14-D14-W20-L100-Z01-H-LIGHT_objects-None',#30,#19);
#19=ADVANCED_BREP_SHAPE_REPRESENTATION(
'ATM-C14-D14-W20-L100-Z01-H-LIGHT_objects-None',(#48,#49),#363);
#20=SHAPE_DEFINITION_REPRESENTATION(#21,#30);
#21=PRODUCT_DEFINITION_SHAPE('','',#22);
#22=PRODUCT_DEFINITION(' ','',#24,#23);
#23=PRODUCT_DEFINITION_CONTEXT('part definition',#29,'design');
#24=PRODUCT_DEFINITION_FORMATION_WITH_SPECIFIED_SOURCE(' ',' ',#26,
 .NOT_KNOWN.);
#25=PRODUCT_RELATED_PRODUCT_CATEGORY('part','',(#26));
#26=PRODUCT('ATM-C14-D14-W20-L100-Z01-H-LIGHT_objects',
'ATM-C14-D14-W20-L100-Z01-H-LIGHT_objects',' ',(#27));
#27=PRODUCT_CONTEXT(' ',#29,'mechanical');
#28=APPLICATION_PROTOCOL_DEFINITION('international standard',
'automotive_design',2010,#29);
#29=APPLICATION_CONTEXT(
'core data for automotive mechanical design processes');
#30=SHAPE_REPRESENTATION(
'ATM-C14-D14-W20-L100-Z01-H-LIGHT_objects-None',(#219),#363);
#31=DRAUGHTING_PRE_DEFINED_COLOUR('yellow');
#32=PRESENTATION_LAYER_ASSIGNMENT('1','Layer 1',(#48,#49));
#33=STYLED_ITEM('',(#35),#48);
#34=STYLED_ITEM('',(#36),#49);
#35=PRESENTATION_STYLE_ASSIGNMENT((#37));
#36=PRESENTATION_STYLE_ASSIGNMENT((#38));
#37=SURFACE_STYLE_USAGE(.BOTH.,#39);
#38=SURFACE_STYLE_USAGE(.BOTH.,#40);
#39=SURFACE_SIDE_STYLE('',(#41));
#40=SURFACE_SIDE_STYLE('',(#42));
#41=SURFACE_STYLE_FILL_AREA(#43);
#42=SURFACE_STYLE_FILL_AREA(#44);
#43=FILL_AREA_STYLE('',(#45));
#44=FILL_AREA_STYLE('',(#46));
#45=FILL_AREA_STYLE_COLOUR('',#47);
#46=FILL_AREA_STYLE_COLOUR('',#31);
#47=COLOUR_RGB('silver gray',0.6,0.6,0.6);
#48=MANIFOLD_SOLID_BREP('',#50);
#49=MANIFOLD_SOLID_BREP('',#51);
#50=CLOSED_SHELL('',(#65,#66,#67,#68,#69,#70,#71,#72,#73,#74,#75,#76));
#51=CLOSED_SHELL('',(#77,#78,#79,#80));
#52=PLANE('',#229);
#53=PLANE('',#231);
#54=PLANE('',#245);
#55=PLANE('',#249);
#56=FACE_OUTER_BOUND('',#122,.T.);
#57=FACE_OUTER_BOUND('',#123,.T.);
#58=CONICAL_SURFACE('',#228,9.75,10.0000000000103);
#59=CONICAL_SURFACE('',#235,5.32696164176962,2.00000000000001);
#60=CONICAL_SURFACE('',#241,6.67157287525381,45.);
#61=CONICAL_SURFACE('',#242,9.93033320996791,14.9999999999999);
#62=TOROIDAL_SURFACE('',#225,8.25,1.5);
#63=TOROIDAL_SURFACE('',#233,4.52744898015434,0.8);
#64=TOROIDAL_SURFACE('',#239,9.5,4.);
#65=ADVANCED_FACE('',(#86,#87),#81,.T.);
#66=ADVANCED_FACE('',(#88,#89),#62,.T.);
#67=ADVANCED_FACE('',(#90,#91),#82,.T.);
#68=ADVANCED_FACE('',(#92,#93),#58,.T.);
#69=ADVANCED_FACE('',(#56),#52,.F.);
#70=ADVANCED_FACE('',(#57),#53,.T.);
#71=ADVANCED_FACE('',(#94,#95),#63,.T.);
#72=ADVANCED_FACE('',(#96,#97),#59,.T.);
#73=ADVANCED_FACE('',(#98,#99),#83,.T.);
#74=ADVANCED_FACE('',(#100,#101),#64,.F.);
#75=ADVANCED_FACE('',(#102,#103),#60,.T.);
#76=ADVANCED_FACE('',(#104,#105),#61,.T.);
#77=ADVANCED_FACE('',(#106,#107),#54,.F.);
#78=ADVANCED_FACE('',(#108,#109),#84,.T.);
#79=ADVANCED_FACE('',(#110,#111),#55,.F.);
#80=ADVANCED_FACE('',(#112,#113),#85,.F.);
#81=CYLINDRICAL_SURFACE('',#222,10.0000000000001);
#82=CYLINDRICAL_SURFACE('',#227,9.75);
#83=CYLINDRICAL_SURFACE('',#237,5.5);
#84=CYLINDRICAL_SURFACE('',#247,7.);
#85=CYLINDRICAL_SURFACE('',#250,5.);
#86=FACE_BOUND('',#114,.T.);
#87=FACE_BOUND('',#115,.T.);
#88=FACE_BOUND('',#116,.T.);
#89=FACE_BOUND('',#117,.T.);
#90=FACE_BOUND('',#118,.T.);
#91=FACE_BOUND('',#119,.T.);
#92=FACE_BOUND('',#120,.T.);
#93=FACE_BOUND('',#121,.T.);
#94=FACE_BOUND('',#124,.T.);
#95=FACE_BOUND('',#125,.T.);
#96=FACE_BOUND('',#126,.T.);
#97=FACE_BOUND('',#127,.T.);
#98=FACE_BOUND('',#128,.T.);
#99=FACE_BOUND('',#129,.T.);
#100=FACE_BOUND('',#130,.T.);
#101=FACE_BOUND('',#131,.T.);
#102=FACE_BOUND('',#132,.T.);
#103=FACE_BOUND('',#133,.T.);
#104=FACE_BOUND('',#134,.T.);
#105=FACE_BOUND('',#135,.T.);
#106=FACE_BOUND('',#136,.T.);
#107=FACE_BOUND('',#137,.T.);
#108=FACE_BOUND('',#138,.T.);
#109=FACE_BOUND('',#139,.T.);
#110=FACE_BOUND('',#140,.T.);
#111=FACE_BOUND('',#141,.T.);
#112=FACE_BOUND('',#142,.T.);
#113=FACE_BOUND('',#143,.T.);
#114=EDGE_LOOP('',(#144));
#115=EDGE_LOOP('',(#145));
#116=EDGE_LOOP('',(#146));
#117=EDGE_LOOP('',(#147));
#118=EDGE_LOOP('',(#148));
#119=EDGE_LOOP('',(#149));
#120=EDGE_LOOP('',(#150));
#121=EDGE_LOOP('',(#151));
#122=EDGE_LOOP('',(#152));
#123=EDGE_LOOP('',(#153));
#124=EDGE_LOOP('',(#154));
#125=EDGE_LOOP('',(#155));
#126=EDGE_LOOP('',(#156));
#127=EDGE_LOOP('',(#157));
#128=EDGE_LOOP('',(#158));
#129=EDGE_LOOP('',(#159));
#130=EDGE_LOOP('',(#160));
#131=EDGE_LOOP('',(#161));
#132=EDGE_LOOP('',(#162));
#133=EDGE_LOOP('',(#163));
#134=EDGE_LOOP('',(#164));
#135=EDGE_LOOP('',(#165));
#136=EDGE_LOOP('',(#166));
#137=EDGE_LOOP('',(#167));
#138=EDGE_LOOP('',(#168));
#139=EDGE_LOOP('',(#169));
#140=EDGE_LOOP('',(#170));
#141=EDGE_LOOP('',(#171));
#142=EDGE_LOOP('',(#172));
#143=EDGE_LOOP('',(#173));
#144=ORIENTED_EDGE('',*,*,#189,.F.);
#145=ORIENTED_EDGE('',*,*,#190,.F.);
#146=ORIENTED_EDGE('',*,*,#191,.T.);
#147=ORIENTED_EDGE('',*,*,#192,.T.);
#148=ORIENTED_EDGE('',*,*,#193,.T.);
#149=ORIENTED_EDGE('',*,*,#191,.F.);
#150=ORIENTED_EDGE('',*,*,#189,.T.);
#151=ORIENTED_EDGE('',*,*,#193,.F.);
#152=ORIENTED_EDGE('',*,*,#192,.F.);
#153=ORIENTED_EDGE('',*,*,#194,.F.);
#154=ORIENTED_EDGE('',*,*,#195,.F.);
#155=ORIENTED_EDGE('',*,*,#194,.T.);
#156=ORIENTED_EDGE('',*,*,#196,.F.);
#157=ORIENTED_EDGE('',*,*,#195,.T.);
#158=ORIENTED_EDGE('',*,*,#197,.F.);
#159=ORIENTED_EDGE('',*,*,#196,.T.);
#160=ORIENTED_EDGE('',*,*,#198,.F.);
#161=ORIENTED_EDGE('',*,*,#197,.T.);
#162=ORIENTED_EDGE('',*,*,#199,.F.);
#163=ORIENTED_EDGE('',*,*,#198,.T.);
#164=ORIENTED_EDGE('',*,*,#190,.T.);
#165=ORIENTED_EDGE('',*,*,#199,.T.);
#166=ORIENTED_EDGE('',*,*,#200,.F.);
#167=ORIENTED_EDGE('',*,*,#201,.T.);
#168=ORIENTED_EDGE('',*,*,#202,.F.);
#169=ORIENTED_EDGE('',*,*,#200,.T.);
#170=ORIENTED_EDGE('',*,*,#203,.F.);
#171=ORIENTED_EDGE('',*,*,#202,.T.);
#172=ORIENTED_EDGE('',*,*,#201,.F.);
#173=ORIENTED_EDGE('',*,*,#203,.T.);
#174=VERTEX_POINT('',#317);
#175=VERTEX_POINT('',#319);
#176=VERTEX_POINT('',#322);
#177=VERTEX_POINT('',#324);
#178=VERTEX_POINT('',#327);
#179=VERTEX_POINT('',#332);
#180=VERTEX_POINT('',#335);
#181=VERTEX_POINT('',#338);
#182=VERTEX_POINT('',#341);
#183=VERTEX_POINT('',#344);
#184=VERTEX_POINT('',#347);
#185=VERTEX_POINT('',#351);
#186=VERTEX_POINT('',#353);
#187=VERTEX_POINT('',#356);
#188=VERTEX_POINT('',#359);
#189=EDGE_CURVE('',#174,#174,#204,.T.);
#190=EDGE_CURVE('',#175,#175,#205,.T.);
#191=EDGE_CURVE('',#176,#176,#206,.T.);
#192=EDGE_CURVE('',#177,#177,#207,.T.);
#193=EDGE_CURVE('',#178,#178,#208,.T.);
#194=EDGE_CURVE('',#179,#179,#209,.T.);
#195=EDGE_CURVE('',#180,#180,#210,.T.);
#196=EDGE_CURVE('',#181,#181,#211,.T.);
#197=EDGE_CURVE('',#182,#182,#212,.T.);
#198=EDGE_CURVE('',#183,#183,#213,.T.);
#199=EDGE_CURVE('',#184,#184,#214,.T.);
#200=EDGE_CURVE('',#185,#185,#215,.T.);
#201=EDGE_CURVE('',#186,#186,#216,.T.);
#202=EDGE_CURVE('',#187,#187,#217,.T.);
#203=EDGE_CURVE('',#188,#188,#218,.T.);
#204=CIRCLE('',#220,10.0000000000003);
#205=CIRCLE('',#221,10.);
#206=CIRCLE('',#223,9.75);
#207=CIRCLE('',#224,8.25);
#208=CIRCLE('',#226,9.75);
#209=CIRCLE('',#230,4.52744898015434);
#210=CIRCLE('',#232,5.32696164176962);
#211=CIRCLE('',#234,5.5);
#212=CIRCLE('',#236,5.5);
#213=CIRCLE('',#238,6.67157287525381);
#214=CIRCLE('',#240,9.93033320996791);
#215=CIRCLE('',#243,7.);
#216=CIRCLE('',#244,5.);
#217=CIRCLE('',#246,7.);
#218=CIRCLE('',#248,5.);
#219=AXIS2_PLACEMENT_3D('',#315,#251,#252);
#220=AXIS2_PLACEMENT_3D('',#316,#253,#254);
#221=AXIS2_PLACEMENT_3D('',#318,#255,#256);
#222=AXIS2_PLACEMENT_3D('',#320,#257,#258);
#223=AXIS2_PLACEMENT_3D('',#321,#259,#260);
#224=AXIS2_PLACEMENT_3D('',#323,#261,#262);
#225=AXIS2_PLACEMENT_3D('',#325,#263,#264);
#226=AXIS2_PLACEMENT_3D('',#326,#265,#266);
#227=AXIS2_PLACEMENT_3D('',#328,#267,#268);
#228=AXIS2_PLACEMENT_3D('',#329,#269,#270);
#229=AXIS2_PLACEMENT_3D('',#330,#271,#272);
#230=AXIS2_PLACEMENT_3D('',#331,#273,#274);
#231=AXIS2_PLACEMENT_3D('',#333,#275,#276);
#232=AXIS2_PLACEMENT_3D('',#334,#277,#278);
#233=AXIS2_PLACEMENT_3D('',#336,#279,#280);
#234=AXIS2_PLACEMENT_3D('',#337,#281,#282);
#235=AXIS2_PLACEMENT_3D('',#339,#283,#284);
#236=AXIS2_PLACEMENT_3D('',#340,#285,#286);
#237=AXIS2_PLACEMENT_3D('',#342,#287,#288);
#238=AXIS2_PLACEMENT_3D('',#343,#289,#290);
#239=AXIS2_PLACEMENT_3D('',#345,#291,#292);
#240=AXIS2_PLACEMENT_3D('',#346,#293,#294);
#241=AXIS2_PLACEMENT_3D('',#348,#295,#296);
#242=AXIS2_PLACEMENT_3D('',#349,#297,#298);
#243=AXIS2_PLACEMENT_3D('',#350,#299,#300);
#244=AXIS2_PLACEMENT_3D('',#352,#301,#302);
#245=AXIS2_PLACEMENT_3D('',#354,#303,#304);
#246=AXIS2_PLACEMENT_3D('',#355,#305,#306);
#247=AXIS2_PLACEMENT_3D('',#357,#307,#308);
#248=AXIS2_PLACEMENT_3D('',#358,#309,#310);
#249=AXIS2_PLACEMENT_3D('',#360,#311,#312);
#250=AXIS2_PLACEMENT_3D('',#361,#313,#314);
#251=DIRECTION('',(0.,0.,1.));
#252=DIRECTION('',(1.,0.,0.));
#253=DIRECTION('',(1.,0.,0.));
#254=DIRECTION('',(0.,0.,1.));
#255=DIRECTION('',(-1.,0.,0.));
#256=DIRECTION('',(0.,0.,1.));
#257=DIRECTION('',(-1.,0.,0.));
#258=DIRECTION('',(0.,0.,1.));
#259=DIRECTION('',(1.,0.,0.));
#260=DIRECTION('',(0.,0.,1.));
#261=DIRECTION('',(-1.,0.,0.));
#262=DIRECTION('',(0.,0.,1.));
#263=DIRECTION('',(-1.,0.,0.));
#264=DIRECTION('',(0.,0.,1.));
#265=DIRECTION('',(1.,0.,0.));
#266=DIRECTION('',(0.,0.,1.));
#267=DIRECTION('',(-1.,0.,0.));
#268=DIRECTION('',(0.,0.,1.));
#269=DIRECTION('',(-1.,0.,0.));
#270=DIRECTION('',(-7.45808952561605E-17,0.,1.));
#271=DIRECTION('',(-1.,0.,0.));
#272=DIRECTION('',(0.,0.,1.));
#273=DIRECTION('',(1.,0.,0.));
#274=DIRECTION('',(0.,0.,1.));
#275=DIRECTION('',(-1.,0.,0.));
#276=DIRECTION('',(0.,0.,1.));
#277=DIRECTION('',(1.,0.,0.));
#278=DIRECTION('',(0.,0.,1.));
#279=DIRECTION('',(-1.,0.,0.));
#280=DIRECTION('',(0.,0.,1.));
#281=DIRECTION('',(1.,0.,0.));
#282=DIRECTION('',(0.,0.,1.));
#283=DIRECTION('',(1.,0.,0.));
#284=DIRECTION('',(1.07752873709952E-15,0.,-1.));
#285=DIRECTION('',(1.,0.,0.));
#286=DIRECTION('',(0.,0.,1.));
#287=DIRECTION('',(-1.,0.,0.));
#288=DIRECTION('',(0.,0.,1.));
#289=DIRECTION('',(1.,0.,0.));
#290=DIRECTION('',(0.,0.,1.));
#291=DIRECTION('',(-1.,0.,0.));
#292=DIRECTION('',(0.,0.,1.));
#293=DIRECTION('',(1.,0.,0.));
#294=DIRECTION('',(0.,0.,1.));
#295=DIRECTION('',(1.,0.,0.));
#296=DIRECTION('',(1.37858147401309E-17,0.,-1.));
#297=DIRECTION('',(1.,0.,0.));
#298=DIRECTION('',(-1.12368921371749E-16,0.,-1.));
#299=DIRECTION('',(1.,0.,0.));
#300=DIRECTION('',(0.,0.,-1.));
#301=DIRECTION('',(1.,0.,0.));
#302=DIRECTION('',(0.,0.,-1.));
#303=DIRECTION('',(1.,0.,0.));
#304=DIRECTION('',(0.,0.,-1.));
#305=DIRECTION('',(1.,0.,0.));
#306=DIRECTION('',(0.,0.,-1.));
#307=DIRECTION('',(1.,0.,0.));
#308=DIRECTION('',(0.,0.,-1.));
#309=DIRECTION('',(1.,0.,0.));
#310=DIRECTION('',(0.,0.,-1.));
#311=DIRECTION('',(-1.,0.,0.));
#312=DIRECTION('',(0.,0.,1.));
#313=DIRECTION('',(1.,0.,0.));
#314=DIRECTION('',(0.,0.,-1.));
#315=CARTESIAN_POINT('',(0.,0.,0.));
#316=CARTESIAN_POINT('',(94.5821795450956,0.,0.));
#317=CARTESIAN_POINT('',(94.5821795450956,0.,10.0000000000003));
#318=CARTESIAN_POINT('',(31.3471874594603,0.,0.));
#319=CARTESIAN_POINT('',(31.3471874594603,0.,10.));
#320=CARTESIAN_POINT('',(0.,0.,0.));
#321=CARTESIAN_POINT('',(98.5,0.,0.));
#322=CARTESIAN_POINT('',(98.5,0.,9.75));
#323=CARTESIAN_POINT('',(100.,0.,0.));
#324=CARTESIAN_POINT('',(100.,0.,8.25));
#325=CARTESIAN_POINT('',(98.5,0.,0.));
#326=CARTESIAN_POINT('',(96.,0.,0.));
#327=CARTESIAN_POINT('',(96.,0.,9.75));
#328=CARTESIAN_POINT('',(0.,0.,0.));
#329=CARTESIAN_POINT('',(96.,0.,0.));
#330=CARTESIAN_POINT('',(100.,0.,0.));
#331=CARTESIAN_POINT('',(0.5,0.,0.));
#332=CARTESIAN_POINT('',(0.5,0.,4.52744898015434));
#333=CARTESIAN_POINT('',(0.499999999999997,0.,0.));
#334=CARTESIAN_POINT('',(1.272080402638,0.,0.));
#335=CARTESIAN_POINT('',(1.272080402638,0.,5.32696164176962));
#336=CARTESIAN_POINT('',(1.3,0.,0.));
#337=CARTESIAN_POINT('',(6.22725065658312,0.,0.));
#338=CARTESIAN_POINT('',(6.22725065658312,0.,5.5));
#339=CARTESIAN_POINT('',(1.272080402638,0.,0.));
#340=CARTESIAN_POINT('',(25.,0.,0.));
#341=CARTESIAN_POINT('',(25.,0.,5.5));
#342=CARTESIAN_POINT('',(0.,0.,0.));
#343=CARTESIAN_POINT('',(27.8284271247462,0.,0.));
#344=CARTESIAN_POINT('',(27.8284271247462,0.,6.67157287525381));
#345=CARTESIAN_POINT('',(25.,0.,0.));
#346=CARTESIAN_POINT('',(31.0871874594603,0.,0.));
#347=CARTESIAN_POINT('',(31.0871874594603,0.,9.93033320996791));
#348=CARTESIAN_POINT('',(27.8284271247462,0.,0.));
#349=CARTESIAN_POINT('',(31.0871874594603,0.,0.));
#350=CARTESIAN_POINT('',(-1.92592994438724E-31,0.,0.));
#351=CARTESIAN_POINT('',(-1.92592994438724E-31,0.,-7.));
#352=CARTESIAN_POINT('',(1.01064309961486E-15,0.,0.));
#353=CARTESIAN_POINT('',(1.01064309961486E-15,0.,-5.));
#354=CARTESIAN_POINT('',(5.0532154980743E-16,-5.,0.));
#355=CARTESIAN_POINT('',(14.,0.,0.));
#356=CARTESIAN_POINT('',(14.,0.,-7.));
#357=CARTESIAN_POINT('',(0.,0.,0.));
#358=CARTESIAN_POINT('',(14.,0.,0.));
#359=CARTESIAN_POINT('',(14.,0.,-5.));
#360=CARTESIAN_POINT('',(14.,-7.,0.));
#361=CARTESIAN_POINT('',(0.,0.,0.));
#362=MECHANICAL_DESIGN_GEOMETRIC_PRESENTATION_REPRESENTATION('',(#33,#34),
#363);
#363=(
GEOMETRIC_REPRESENTATION_CONTEXT(3)
GLOBAL_UNCERTAINTY_ASSIGNED_CONTEXT((#364))
GLOBAL_UNIT_ASSIGNED_CONTEXT((#370,#366,#365))
REPRESENTATION_CONTEXT('ATM-C14-D14-W20-L100-Z01-H',
'TOP_LEVEL_ASSEMBLY_PART')
);
#364=UNCERTAINTY_MEASURE_WITH_UNIT(LENGTH_MEASURE(2.E-5),#370,
'DISTANCE_ACCURACY_VALUE','Maximum Tolerance applied to model');
#365=(
NAMED_UNIT(*)
SI_UNIT($,.STERADIAN.)
SOLID_ANGLE_UNIT()
);
#366=(
CONVERSION_BASED_UNIT('DEGREE',#368)
NAMED_UNIT(#367)
PLANE_ANGLE_UNIT()
);
#367=DIMENSIONAL_EXPONENTS(0.,0.,0.,0.,0.,0.,0.);
#368=PLANE_ANGLE_MEASURE_WITH_UNIT(PLANE_ANGLE_MEASURE(0.0174532925),#369);
#369=(
NAMED_UNIT(*)
PLANE_ANGLE_UNIT()
SI_UNIT($,.RADIAN.)
);
#370=(
LENGTH_UNIT()
NAMED_UNIT(*)
SI_UNIT(.MILLI.,.METRE.)
);
ENDSEC;
END-ISO-10303-21;
