ISO-10303-21;
HEADER;
/* Generated by software containing ST-Developer
 * from STEP Tools, Inc. (www.steptools.com) 
 */
/* OPTION: using custom schema-name function */

FILE_DESCRIPTION(
/* description */ (''),
/* implementation_level */ '2;1');

FILE_NAME(
/* name */ 'ATM-C21-D18-W20-L100-Z01-H.stp',
/* time_stamp */ '2023-09-30T00:25:22+03:00',
/* author */ (''),
/* organization */ (''),
/* preprocessor_version */ 'ST-DEVELOPER v19.4',
/* originating_system */ 'SIEMENS PLM Software NX2306.5001',
/* authorisation */ '');

FILE_SCHEMA (('AUTOMOTIVE_DESIGN { 1 0 10303 214 3 1 1 1 }'));
ENDSEC;

DATA;
#10=PROPERTY_DEFINITION_REPRESENTATION(#14,#12);
#11=PROPERTY_DEFINITION_REPRESENTATION(#15,#13);
#12=REPRESENTATION('',(#16),#343);
#13=REPRESENTATION('',(#17),#343);
#14=PROPERTY_DEFINITION('pmi validation property','',#21);
#15=PROPERTY_DEFINITION('pmi validation property','',#21);
#16=VALUE_REPRESENTATION_ITEM('number of annotations',COUNT_MEASURE(0.));
#17=VALUE_REPRESENTATION_ITEM('number of views',COUNT_MEASURE(0.));
#18=SHAPE_REPRESENTATION_RELATIONSHIP('None',
'relationship between ATM-C21-D18-W20-L100-Z01-H-LIGHT_objects-None an
d ATM-C21-D18-W20-L100-Z01-H-LIGHT_objects-None',#30,#19);
#19=ADVANCED_BREP_SHAPE_REPRESENTATION(
'ATM-C21-D18-W20-L100-Z01-H-LIGHT_objects-None',(#48,#49),#343);
#20=SHAPE_DEFINITION_REPRESENTATION(#21,#30);
#21=PRODUCT_DEFINITION_SHAPE('','',#22);
#22=PRODUCT_DEFINITION(' ','',#24,#23);
#23=PRODUCT_DEFINITION_CONTEXT('part definition',#29,'design');
#24=PRODUCT_DEFINITION_FORMATION_WITH_SPECIFIED_SOURCE(' ',' ',#26,
 .NOT_KNOWN.);
#25=PRODUCT_RELATED_PRODUCT_CATEGORY('part','',(#26));
#26=PRODUCT('ATM-C21-D18-W20-L100-Z01-H-LIGHT_objects',
'ATM-C21-D18-W20-L100-Z01-H-LIGHT_objects',' ',(#27));
#27=PRODUCT_CONTEXT(' ',#29,'mechanical');
#28=APPLICATION_PROTOCOL_DEFINITION('international standard',
'automotive_design',2010,#29);
#29=APPLICATION_CONTEXT(
'core data for automotive mechanical design processes');
#30=SHAPE_REPRESENTATION(
'ATM-C21-D18-W20-L100-Z01-H-LIGHT_objects-None',(#208),#343);
#31=DRAUGHTING_PRE_DEFINED_COLOUR('yellow');
#32=PRESENTATION_LAYER_ASSIGNMENT('1','Layer 1',(#48,#49));
#33=STYLED_ITEM('',(#35),#48);
#34=STYLED_ITEM('',(#36),#49);
#35=PRESENTATION_STYLE_ASSIGNMENT((#37));
#36=PRESENTATION_STYLE_ASSIGNMENT((#38));
#37=SURFACE_STYLE_USAGE(.BOTH.,#39);
#38=SURFACE_STYLE_USAGE(.BOTH.,#40);
#39=SURFACE_SIDE_STYLE('',(#41));
#40=SURFACE_SIDE_STYLE('',(#42));
#41=SURFACE_STYLE_FILL_AREA(#43);
#42=SURFACE_STYLE_FILL_AREA(#44);
#43=FILL_AREA_STYLE('',(#45));
#44=FILL_AREA_STYLE('',(#46));
#45=FILL_AREA_STYLE_COLOUR('',#47);
#46=FILL_AREA_STYLE_COLOUR('',#31);
#47=COLOUR_RGB('silver gray',0.6,0.6,0.6);
#48=MANIFOLD_SOLID_BREP('',#50);
#49=MANIFOLD_SOLID_BREP('',#51);
#50=CLOSED_SHELL('',(#64,#65,#66,#67,#68,#69,#70,#71,#72,#73,#74));
#51=CLOSED_SHELL('',(#75,#76,#77,#78));
#52=PLANE('',#218);
#53=PLANE('',#220);
#54=PLANE('',#234);
#55=PLANE('',#237);
#56=FACE_OUTER_BOUND('',#118,.T.);
#57=FACE_OUTER_BOUND('',#119,.T.);
#58=CONICAL_SURFACE('',#217,9.75,10.0000000000103);
#59=CONICAL_SURFACE('',#224,6.62696164176962,2.);
#60=CONICAL_SURFACE('',#229,7.6698729810778,30.);
#61=TOROIDAL_SURFACE('',#214,8.25,1.5);
#62=TOROIDAL_SURFACE('',#222,5.82744898015434,0.8);
#63=TOROIDAL_SURFACE('',#228,12.,5.);
#64=ADVANCED_FACE('',(#84,#85),#79,.T.);
#65=ADVANCED_FACE('',(#86,#87),#61,.T.);
#66=ADVANCED_FACE('',(#88,#89),#80,.T.);
#67=ADVANCED_FACE('',(#90,#91),#58,.T.);
#68=ADVANCED_FACE('',(#56),#52,.F.);
#69=ADVANCED_FACE('',(#57),#53,.T.);
#70=ADVANCED_FACE('',(#92,#93),#62,.T.);
#71=ADVANCED_FACE('',(#94,#95),#59,.T.);
#72=ADVANCED_FACE('',(#96,#97),#81,.T.);
#73=ADVANCED_FACE('',(#98,#99),#63,.F.);
#74=ADVANCED_FACE('',(#100,#101),#60,.T.);
#75=ADVANCED_FACE('',(#102,#103),#82,.T.);
#76=ADVANCED_FACE('',(#104,#105),#54,.F.);
#77=ADVANCED_FACE('',(#106,#107),#83,.F.);
#78=ADVANCED_FACE('',(#108,#109),#55,.F.);
#79=CYLINDRICAL_SURFACE('',#211,10.0000000000001);
#80=CYLINDRICAL_SURFACE('',#216,9.75);
#81=CYLINDRICAL_SURFACE('',#226,7.);
#82=CYLINDRICAL_SURFACE('',#232,9.00000000000001);
#83=CYLINDRICAL_SURFACE('',#236,6.00000000000001);
#84=FACE_BOUND('',#110,.T.);
#85=FACE_BOUND('',#111,.T.);
#86=FACE_BOUND('',#112,.T.);
#87=FACE_BOUND('',#113,.T.);
#88=FACE_BOUND('',#114,.T.);
#89=FACE_BOUND('',#115,.T.);
#90=FACE_BOUND('',#116,.T.);
#91=FACE_BOUND('',#117,.T.);
#92=FACE_BOUND('',#120,.T.);
#93=FACE_BOUND('',#121,.T.);
#94=FACE_BOUND('',#122,.T.);
#95=FACE_BOUND('',#123,.T.);
#96=FACE_BOUND('',#124,.T.);
#97=FACE_BOUND('',#125,.T.);
#98=FACE_BOUND('',#126,.T.);
#99=FACE_BOUND('',#127,.T.);
#100=FACE_BOUND('',#128,.T.);
#101=FACE_BOUND('',#129,.T.);
#102=FACE_BOUND('',#130,.T.);
#103=FACE_BOUND('',#131,.T.);
#104=FACE_BOUND('',#132,.T.);
#105=FACE_BOUND('',#133,.T.);
#106=FACE_BOUND('',#134,.T.);
#107=FACE_BOUND('',#135,.T.);
#108=FACE_BOUND('',#136,.T.);
#109=FACE_BOUND('',#137,.T.);
#110=EDGE_LOOP('',(#138));
#111=EDGE_LOOP('',(#139));
#112=EDGE_LOOP('',(#140));
#113=EDGE_LOOP('',(#141));
#114=EDGE_LOOP('',(#142));
#115=EDGE_LOOP('',(#143));
#116=EDGE_LOOP('',(#144));
#117=EDGE_LOOP('',(#145));
#118=EDGE_LOOP('',(#146));
#119=EDGE_LOOP('',(#147));
#120=EDGE_LOOP('',(#148));
#121=EDGE_LOOP('',(#149));
#122=EDGE_LOOP('',(#150));
#123=EDGE_LOOP('',(#151));
#124=EDGE_LOOP('',(#152));
#125=EDGE_LOOP('',(#153));
#126=EDGE_LOOP('',(#154));
#127=EDGE_LOOP('',(#155));
#128=EDGE_LOOP('',(#156));
#129=EDGE_LOOP('',(#157));
#130=EDGE_LOOP('',(#158));
#131=EDGE_LOOP('',(#159));
#132=EDGE_LOOP('',(#160));
#133=EDGE_LOOP('',(#161));
#134=EDGE_LOOP('',(#162));
#135=EDGE_LOOP('',(#163));
#136=EDGE_LOOP('',(#164));
#137=EDGE_LOOP('',(#165));
#138=ORIENTED_EDGE('',*,*,#180,.F.);
#139=ORIENTED_EDGE('',*,*,#181,.F.);
#140=ORIENTED_EDGE('',*,*,#182,.T.);
#141=ORIENTED_EDGE('',*,*,#183,.T.);
#142=ORIENTED_EDGE('',*,*,#184,.T.);
#143=ORIENTED_EDGE('',*,*,#182,.F.);
#144=ORIENTED_EDGE('',*,*,#180,.T.);
#145=ORIENTED_EDGE('',*,*,#184,.F.);
#146=ORIENTED_EDGE('',*,*,#183,.F.);
#147=ORIENTED_EDGE('',*,*,#185,.F.);
#148=ORIENTED_EDGE('',*,*,#186,.F.);
#149=ORIENTED_EDGE('',*,*,#185,.T.);
#150=ORIENTED_EDGE('',*,*,#187,.F.);
#151=ORIENTED_EDGE('',*,*,#186,.T.);
#152=ORIENTED_EDGE('',*,*,#188,.F.);
#153=ORIENTED_EDGE('',*,*,#187,.T.);
#154=ORIENTED_EDGE('',*,*,#189,.F.);
#155=ORIENTED_EDGE('',*,*,#188,.T.);
#156=ORIENTED_EDGE('',*,*,#181,.T.);
#157=ORIENTED_EDGE('',*,*,#189,.T.);
#158=ORIENTED_EDGE('',*,*,#190,.F.);
#159=ORIENTED_EDGE('',*,*,#191,.T.);
#160=ORIENTED_EDGE('',*,*,#192,.F.);
#161=ORIENTED_EDGE('',*,*,#190,.T.);
#162=ORIENTED_EDGE('',*,*,#193,.F.);
#163=ORIENTED_EDGE('',*,*,#192,.T.);
#164=ORIENTED_EDGE('',*,*,#191,.F.);
#165=ORIENTED_EDGE('',*,*,#193,.T.);
#166=VERTEX_POINT('',#300);
#167=VERTEX_POINT('',#302);
#168=VERTEX_POINT('',#305);
#169=VERTEX_POINT('',#307);
#170=VERTEX_POINT('',#310);
#171=VERTEX_POINT('',#315);
#172=VERTEX_POINT('',#318);
#173=VERTEX_POINT('',#321);
#174=VERTEX_POINT('',#324);
#175=VERTEX_POINT('',#327);
#176=VERTEX_POINT('',#331);
#177=VERTEX_POINT('',#333);
#178=VERTEX_POINT('',#336);
#179=VERTEX_POINT('',#339);
#180=EDGE_CURVE('',#166,#166,#194,.T.);
#181=EDGE_CURVE('',#167,#167,#195,.T.);
#182=EDGE_CURVE('',#168,#168,#196,.T.);
#183=EDGE_CURVE('',#169,#169,#197,.T.);
#184=EDGE_CURVE('',#170,#170,#198,.T.);
#185=EDGE_CURVE('',#171,#171,#199,.T.);
#186=EDGE_CURVE('',#172,#172,#200,.T.);
#187=EDGE_CURVE('',#173,#173,#201,.T.);
#188=EDGE_CURVE('',#174,#174,#202,.T.);
#189=EDGE_CURVE('',#175,#175,#203,.T.);
#190=EDGE_CURVE('',#176,#176,#204,.T.);
#191=EDGE_CURVE('',#177,#177,#205,.T.);
#192=EDGE_CURVE('',#178,#178,#206,.T.);
#193=EDGE_CURVE('',#179,#179,#207,.T.);
#194=CIRCLE('',#209,10.0000000000003);
#195=CIRCLE('',#210,10.);
#196=CIRCLE('',#212,9.75);
#197=CIRCLE('',#213,8.25);
#198=CIRCLE('',#215,9.75);
#199=CIRCLE('',#219,5.82744898015434);
#200=CIRCLE('',#221,6.62696164176962);
#201=CIRCLE('',#223,7.);
#202=CIRCLE('',#225,7.);
#203=CIRCLE('',#227,7.6698729810778);
#204=CIRCLE('',#230,9.00000000000001);
#205=CIRCLE('',#231,9.00000000000001);
#206=CIRCLE('',#233,6.00000000000001);
#207=CIRCLE('',#235,6.00000000000001);
#208=AXIS2_PLACEMENT_3D('',#298,#238,#239);
#209=AXIS2_PLACEMENT_3D('',#299,#240,#241);
#210=AXIS2_PLACEMENT_3D('',#301,#242,#243);
#211=AXIS2_PLACEMENT_3D('',#303,#244,#245);
#212=AXIS2_PLACEMENT_3D('',#304,#246,#247);
#213=AXIS2_PLACEMENT_3D('',#306,#248,#249);
#214=AXIS2_PLACEMENT_3D('',#308,#250,#251);
#215=AXIS2_PLACEMENT_3D('',#309,#252,#253);
#216=AXIS2_PLACEMENT_3D('',#311,#254,#255);
#217=AXIS2_PLACEMENT_3D('',#312,#256,#257);
#218=AXIS2_PLACEMENT_3D('',#313,#258,#259);
#219=AXIS2_PLACEMENT_3D('',#314,#260,#261);
#220=AXIS2_PLACEMENT_3D('',#316,#262,#263);
#221=AXIS2_PLACEMENT_3D('',#317,#264,#265);
#222=AXIS2_PLACEMENT_3D('',#319,#266,#267);
#223=AXIS2_PLACEMENT_3D('',#320,#268,#269);
#224=AXIS2_PLACEMENT_3D('',#322,#270,#271);
#225=AXIS2_PLACEMENT_3D('',#323,#272,#273);
#226=AXIS2_PLACEMENT_3D('',#325,#274,#275);
#227=AXIS2_PLACEMENT_3D('',#326,#276,#277);
#228=AXIS2_PLACEMENT_3D('',#328,#278,#279);
#229=AXIS2_PLACEMENT_3D('',#329,#280,#281);
#230=AXIS2_PLACEMENT_3D('',#330,#282,#283);
#231=AXIS2_PLACEMENT_3D('',#332,#284,#285);
#232=AXIS2_PLACEMENT_3D('',#334,#286,#287);
#233=AXIS2_PLACEMENT_3D('',#335,#288,#289);
#234=AXIS2_PLACEMENT_3D('',#337,#290,#291);
#235=AXIS2_PLACEMENT_3D('',#338,#292,#293);
#236=AXIS2_PLACEMENT_3D('',#340,#294,#295);
#237=AXIS2_PLACEMENT_3D('',#341,#296,#297);
#238=DIRECTION('',(0.,0.,1.));
#239=DIRECTION('',(1.,0.,0.));
#240=DIRECTION('',(1.,0.,0.));
#241=DIRECTION('',(0.,0.,1.));
#242=DIRECTION('',(-1.,0.,0.));
#243=DIRECTION('',(0.,0.,1.));
#244=DIRECTION('',(-1.,0.,0.));
#245=DIRECTION('',(0.,0.,1.));
#246=DIRECTION('',(1.,0.,0.));
#247=DIRECTION('',(0.,0.,1.));
#248=DIRECTION('',(-1.,0.,0.));
#249=DIRECTION('',(0.,0.,1.));
#250=DIRECTION('',(-1.,0.,0.));
#251=DIRECTION('',(0.,0.,1.));
#252=DIRECTION('',(1.,0.,0.));
#253=DIRECTION('',(0.,0.,1.));
#254=DIRECTION('',(-1.,0.,0.));
#255=DIRECTION('',(0.,0.,1.));
#256=DIRECTION('',(-1.,0.,0.));
#257=DIRECTION('',(-7.45808952561605E-17,0.,1.));
#258=DIRECTION('',(-1.,0.,0.));
#259=DIRECTION('',(0.,0.,1.));
#260=DIRECTION('',(1.,0.,0.));
#261=DIRECTION('',(0.,0.,1.));
#262=DIRECTION('',(-1.,0.,0.));
#263=DIRECTION('',(0.,0.,1.));
#264=DIRECTION('',(1.,0.,0.));
#265=DIRECTION('',(0.,0.,1.));
#266=DIRECTION('',(-1.,0.,0.));
#267=DIRECTION('',(0.,0.,1.));
#268=DIRECTION('',(1.,0.,0.));
#269=DIRECTION('',(0.,0.,1.));
#270=DIRECTION('',(1.,0.,0.));
#271=DIRECTION('',(8.35050881792856E-16,0.,-1.));
#272=DIRECTION('',(1.,0.,0.));
#273=DIRECTION('',(0.,0.,1.));
#274=DIRECTION('',(-1.,0.,0.));
#275=DIRECTION('',(0.,0.,1.));
#276=DIRECTION('',(1.,0.,0.));
#277=DIRECTION('',(0.,0.,1.));
#278=DIRECTION('',(-1.,0.,0.));
#279=DIRECTION('',(0.,0.,1.));
#280=DIRECTION('',(1.,0.,0.));
#281=DIRECTION('',(-3.5582846146941E-17,0.,-1.));
#282=DIRECTION('',(1.,0.,0.));
#283=DIRECTION('',(0.,0.,-1.));
#284=DIRECTION('',(1.,0.,0.));
#285=DIRECTION('',(0.,0.,-1.));
#286=DIRECTION('',(1.,0.,0.));
#287=DIRECTION('',(0.,0.,-1.));
#288=DIRECTION('',(1.,0.,0.));
#289=DIRECTION('',(0.,0.,-1.));
#290=DIRECTION('',(-1.,0.,0.));
#291=DIRECTION('',(0.,0.,1.));
#292=DIRECTION('',(1.,0.,0.));
#293=DIRECTION('',(0.,0.,-1.));
#294=DIRECTION('',(1.,0.,0.));
#295=DIRECTION('',(0.,0.,-1.));
#296=DIRECTION('',(1.,0.,0.));
#297=DIRECTION('',(0.,0.,-1.));
#298=CARTESIAN_POINT('',(0.,0.,0.));
#299=CARTESIAN_POINT('',(94.5821795450956,0.,0.));
#300=CARTESIAN_POINT('',(94.5821795450956,0.,10.0000000000003));
#301=CARTESIAN_POINT('',(36.5358983848623,0.,0.));
#302=CARTESIAN_POINT('',(36.5358983848623,0.,10.));
#303=CARTESIAN_POINT('',(0.,0.,0.));
#304=CARTESIAN_POINT('',(98.5,0.,0.));
#305=CARTESIAN_POINT('',(98.5,0.,9.75));
#306=CARTESIAN_POINT('',(100.,0.,0.));
#307=CARTESIAN_POINT('',(100.,0.,8.25));
#308=CARTESIAN_POINT('',(98.5,0.,0.));
#309=CARTESIAN_POINT('',(96.,0.,0.));
#310=CARTESIAN_POINT('',(96.,0.,9.75));
#311=CARTESIAN_POINT('',(0.,0.,0.));
#312=CARTESIAN_POINT('',(96.,0.,0.));
#313=CARTESIAN_POINT('',(100.,0.,0.));
#314=CARTESIAN_POINT('',(0.500000000000001,0.,0.));
#315=CARTESIAN_POINT('',(0.500000000000001,0.,5.82744898015434));
#316=CARTESIAN_POINT('',(0.499999999999998,0.,0.));
#317=CARTESIAN_POINT('',(1.27208040263801,0.,0.));
#318=CARTESIAN_POINT('',(1.27208040263801,0.,6.62696164176962));
#319=CARTESIAN_POINT('',(1.30000000000001,0.,0.));
#320=CARTESIAN_POINT('',(11.9545013131663,0.,0.));
#321=CARTESIAN_POINT('',(11.9545013131663,0.,7.));
#322=CARTESIAN_POINT('',(1.27208040263801,0.,0.));
#323=CARTESIAN_POINT('',(30.,0.,0.));
#324=CARTESIAN_POINT('',(30.,0.,7.));
#325=CARTESIAN_POINT('',(0.,0.,0.));
#326=CARTESIAN_POINT('',(32.5,0.,0.));
#327=CARTESIAN_POINT('',(32.5,0.,7.6698729810778));
#328=CARTESIAN_POINT('',(30.,0.,0.));
#329=CARTESIAN_POINT('',(32.5,0.,0.));
#330=CARTESIAN_POINT('',(21.,0.,0.));
#331=CARTESIAN_POINT('',(21.,0.,-9.00000000000001));
#332=CARTESIAN_POINT('',(1.7430501486615E-14,0.,0.));
#333=CARTESIAN_POINT('',(1.7430501486615E-14,0.,-9.00000000000001));
#334=CARTESIAN_POINT('',(0.,0.,0.));
#335=CARTESIAN_POINT('',(21.,0.,0.));
#336=CARTESIAN_POINT('',(21.,0.,-6.00000000000001));
#337=CARTESIAN_POINT('',(21.,-9.00000000000001,0.));
#338=CARTESIAN_POINT('',(0.,0.,0.));
#339=CARTESIAN_POINT('',(0.,0.,-6.00000000000001));
#340=CARTESIAN_POINT('',(0.,0.,0.));
#341=CARTESIAN_POINT('',(8.71525074330748E-15,-6.00000000000001,0.));
#342=MECHANICAL_DESIGN_GEOMETRIC_PRESENTATION_REPRESENTATION('',(#33,#34),
#343);
#343=(
GEOMETRIC_REPRESENTATION_CONTEXT(3)
GLOBAL_UNCERTAINTY_ASSIGNED_CONTEXT((#344))
GLOBAL_UNIT_ASSIGNED_CONTEXT((#350,#346,#345))
REPRESENTATION_CONTEXT('ATM-C21-D18-W20-L100-Z01-H',
'TOP_LEVEL_ASSEMBLY_PART')
);
#344=UNCERTAINTY_MEASURE_WITH_UNIT(LENGTH_MEASURE(2.E-5),#350,
'DISTANCE_ACCURACY_VALUE','Maximum Tolerance applied to model');
#345=(
NAMED_UNIT(*)
SI_UNIT($,.STERADIAN.)
SOLID_ANGLE_UNIT()
);
#346=(
CONVERSION_BASED_UNIT('DEGREE',#348)
NAMED_UNIT(#347)
PLANE_ANGLE_UNIT()
);
#347=DIMENSIONAL_EXPONENTS(0.,0.,0.,0.,0.,0.,0.);
#348=PLANE_ANGLE_MEASURE_WITH_UNIT(PLANE_ANGLE_MEASURE(0.0174532925),#349);
#349=(
NAMED_UNIT(*)
PLANE_ANGLE_UNIT()
SI_UNIT($,.RADIAN.)
);
#350=(
LENGTH_UNIT()
NAMED_UNIT(*)
SI_UNIT(.MILLI.,.METRE.)
);
ENDSEC;
END-ISO-10303-21;
