ISO-10303-21;
HEADER;
/* Generated by software containing ST-Developer
 * from STEP Tools, Inc. (www.steptools.com) 
 */
/* OPTION: using custom schema-name function */

FILE_DESCRIPTION(
/* description */ (''),
/* implementation_level */ '2;1');

FILE_NAME(
/* name */ 'ATM-C30-D29-W25-L150-Z01-H.stp',
/* time_stamp */ '2023-09-30T02:48:13+03:00',
/* author */ (''),
/* organization */ (''),
/* preprocessor_version */ 'ST-DEVELOPER v19.4',
/* originating_system */ 'SIEMENS PLM Software NX2306.5001',
/* authorisation */ '');

FILE_SCHEMA (('AUTOMOTIVE_DESIGN { 1 0 10303 214 3 1 1 1 }'));
ENDSEC;

DATA;
#10=PROPERTY_DEFINITION_REPRESENTATION(#14,#12);
#11=PROPERTY_DEFINITION_REPRESENTATION(#15,#13);
#12=REPRESENTATION('',(#16),#323);
#13=REPRESENTATION('',(#17),#323);
#14=PROPERTY_DEFINITION('pmi validation property','',#21);
#15=PROPERTY_DEFINITION('pmi validation property','',#21);
#16=VALUE_REPRESENTATION_ITEM('number of annotations',COUNT_MEASURE(0.));
#17=VALUE_REPRESENTATION_ITEM('number of views',COUNT_MEASURE(0.));
#18=SHAPE_REPRESENTATION_RELATIONSHIP('None',
'relationship between ATM-C30-D29-W25-L150-Z01-H-LIGHT_objects-None an
d ATM-C30-D29-W25-L150-Z01-H-LIGHT_objects-None',#30,#19);
#19=ADVANCED_BREP_SHAPE_REPRESENTATION(
'ATM-C30-D29-W25-L150-Z01-H-LIGHT_objects-None',(#48,#49),#323);
#20=SHAPE_DEFINITION_REPRESENTATION(#21,#30);
#21=PRODUCT_DEFINITION_SHAPE('','',#22);
#22=PRODUCT_DEFINITION(' ','',#24,#23);
#23=PRODUCT_DEFINITION_CONTEXT('part definition',#29,'design');
#24=PRODUCT_DEFINITION_FORMATION_WITH_SPECIFIED_SOURCE(' ',' ',#26,
 .NOT_KNOWN.);
#25=PRODUCT_RELATED_PRODUCT_CATEGORY('part','',(#26));
#26=PRODUCT('ATM-C30-D29-W25-L150-Z01-H-LIGHT_objects',
'ATM-C30-D29-W25-L150-Z01-H-LIGHT_objects',' ',(#27));
#27=PRODUCT_CONTEXT(' ',#29,'mechanical');
#28=APPLICATION_PROTOCOL_DEFINITION('international standard',
'automotive_design',2010,#29);
#29=APPLICATION_CONTEXT(
'core data for automotive mechanical design processes');
#30=SHAPE_REPRESENTATION(
'ATM-C30-D29-W25-L150-Z01-H-LIGHT_objects-None',(#197),#323);
#31=DRAUGHTING_PRE_DEFINED_COLOUR('yellow');
#32=PRESENTATION_LAYER_ASSIGNMENT('1','Layer 1',(#48,#49));
#33=STYLED_ITEM('',(#35),#48);
#34=STYLED_ITEM('',(#36),#49);
#35=PRESENTATION_STYLE_ASSIGNMENT((#37));
#36=PRESENTATION_STYLE_ASSIGNMENT((#38));
#37=SURFACE_STYLE_USAGE(.BOTH.,#39);
#38=SURFACE_STYLE_USAGE(.BOTH.,#40);
#39=SURFACE_SIDE_STYLE('',(#41));
#40=SURFACE_SIDE_STYLE('',(#42));
#41=SURFACE_STYLE_FILL_AREA(#43);
#42=SURFACE_STYLE_FILL_AREA(#44);
#43=FILL_AREA_STYLE('',(#45));
#44=FILL_AREA_STYLE('',(#46));
#45=FILL_AREA_STYLE_COLOUR('',#47);
#46=FILL_AREA_STYLE_COLOUR('',#31);
#47=COLOUR_RGB('silver gray',0.6,0.6,0.6);
#48=MANIFOLD_SOLID_BREP('',#50);
#49=MANIFOLD_SOLID_BREP('',#51);
#50=CLOSED_SHELL('',(#63,#64,#65,#66,#67,#68,#69,#70,#71,#72));
#51=CLOSED_SHELL('',(#73,#74,#75,#76));
#52=PLANE('',#207);
#53=PLANE('',#209);
#54=PLANE('',#219);
#55=PLANE('',#223);
#56=FACE_OUTER_BOUND('',#114,.T.);
#57=FACE_OUTER_BOUND('',#115,.T.);
#58=CONICAL_SURFACE('',#206,12.25,9.99999999999997);
#59=CONICAL_SURFACE('',#213,10.6204003632431,1.50000000000002);
#60=CONICAL_SURFACE('',#216,11.2,29.9999999999996);
#61=TOROIDAL_SURFACE('',#203,10.75,1.5);
#62=TOROIDAL_SURFACE('',#211,9.82067450326266,0.8);
#63=ADVANCED_FACE('',(#82,#83),#77,.T.);
#64=ADVANCED_FACE('',(#84,#85),#61,.T.);
#65=ADVANCED_FACE('',(#86,#87),#78,.T.);
#66=ADVANCED_FACE('',(#88,#89),#58,.T.);
#67=ADVANCED_FACE('',(#56),#52,.F.);
#68=ADVANCED_FACE('',(#57),#53,.T.);
#69=ADVANCED_FACE('',(#90,#91),#62,.T.);
#70=ADVANCED_FACE('',(#92,#93),#59,.T.);
#71=ADVANCED_FACE('',(#94,#95),#79,.T.);
#72=ADVANCED_FACE('',(#96,#97),#60,.T.);
#73=ADVANCED_FACE('',(#98,#99),#54,.F.);
#74=ADVANCED_FACE('',(#100,#101),#80,.T.);
#75=ADVANCED_FACE('',(#102,#103),#55,.F.);
#76=ADVANCED_FACE('',(#104,#105),#81,.F.);
#77=CYLINDRICAL_SURFACE('',#200,12.5);
#78=CYLINDRICAL_SURFACE('',#205,12.25);
#79=CYLINDRICAL_SURFACE('',#215,11.2);
#80=CYLINDRICAL_SURFACE('',#221,14.5);
#81=CYLINDRICAL_SURFACE('',#224,9.49999999999999);
#82=FACE_BOUND('',#106,.T.);
#83=FACE_BOUND('',#107,.T.);
#84=FACE_BOUND('',#108,.T.);
#85=FACE_BOUND('',#109,.T.);
#86=FACE_BOUND('',#110,.T.);
#87=FACE_BOUND('',#111,.T.);
#88=FACE_BOUND('',#112,.T.);
#89=FACE_BOUND('',#113,.T.);
#90=FACE_BOUND('',#116,.T.);
#91=FACE_BOUND('',#117,.T.);
#92=FACE_BOUND('',#118,.T.);
#93=FACE_BOUND('',#119,.T.);
#94=FACE_BOUND('',#120,.T.);
#95=FACE_BOUND('',#121,.T.);
#96=FACE_BOUND('',#122,.T.);
#97=FACE_BOUND('',#123,.T.);
#98=FACE_BOUND('',#124,.T.);
#99=FACE_BOUND('',#125,.T.);
#100=FACE_BOUND('',#126,.T.);
#101=FACE_BOUND('',#127,.T.);
#102=FACE_BOUND('',#128,.T.);
#103=FACE_BOUND('',#129,.T.);
#104=FACE_BOUND('',#130,.T.);
#105=FACE_BOUND('',#131,.T.);
#106=EDGE_LOOP('',(#132));
#107=EDGE_LOOP('',(#133));
#108=EDGE_LOOP('',(#134));
#109=EDGE_LOOP('',(#135));
#110=EDGE_LOOP('',(#136));
#111=EDGE_LOOP('',(#137));
#112=EDGE_LOOP('',(#138));
#113=EDGE_LOOP('',(#139));
#114=EDGE_LOOP('',(#140));
#115=EDGE_LOOP('',(#141));
#116=EDGE_LOOP('',(#142));
#117=EDGE_LOOP('',(#143));
#118=EDGE_LOOP('',(#144));
#119=EDGE_LOOP('',(#145));
#120=EDGE_LOOP('',(#146));
#121=EDGE_LOOP('',(#147));
#122=EDGE_LOOP('',(#148));
#123=EDGE_LOOP('',(#149));
#124=EDGE_LOOP('',(#150));
#125=EDGE_LOOP('',(#151));
#126=EDGE_LOOP('',(#152));
#127=EDGE_LOOP('',(#153));
#128=EDGE_LOOP('',(#154));
#129=EDGE_LOOP('',(#155));
#130=EDGE_LOOP('',(#156));
#131=EDGE_LOOP('',(#157));
#132=ORIENTED_EDGE('',*,*,#171,.F.);
#133=ORIENTED_EDGE('',*,*,#172,.F.);
#134=ORIENTED_EDGE('',*,*,#173,.T.);
#135=ORIENTED_EDGE('',*,*,#174,.T.);
#136=ORIENTED_EDGE('',*,*,#175,.T.);
#137=ORIENTED_EDGE('',*,*,#173,.F.);
#138=ORIENTED_EDGE('',*,*,#171,.T.);
#139=ORIENTED_EDGE('',*,*,#175,.F.);
#140=ORIENTED_EDGE('',*,*,#174,.F.);
#141=ORIENTED_EDGE('',*,*,#176,.F.);
#142=ORIENTED_EDGE('',*,*,#177,.F.);
#143=ORIENTED_EDGE('',*,*,#176,.T.);
#144=ORIENTED_EDGE('',*,*,#178,.F.);
#145=ORIENTED_EDGE('',*,*,#177,.T.);
#146=ORIENTED_EDGE('',*,*,#179,.F.);
#147=ORIENTED_EDGE('',*,*,#178,.T.);
#148=ORIENTED_EDGE('',*,*,#172,.T.);
#149=ORIENTED_EDGE('',*,*,#179,.T.);
#150=ORIENTED_EDGE('',*,*,#180,.F.);
#151=ORIENTED_EDGE('',*,*,#181,.T.);
#152=ORIENTED_EDGE('',*,*,#182,.F.);
#153=ORIENTED_EDGE('',*,*,#180,.T.);
#154=ORIENTED_EDGE('',*,*,#183,.F.);
#155=ORIENTED_EDGE('',*,*,#182,.T.);
#156=ORIENTED_EDGE('',*,*,#181,.F.);
#157=ORIENTED_EDGE('',*,*,#183,.T.);
#158=VERTEX_POINT('',#283);
#159=VERTEX_POINT('',#285);
#160=VERTEX_POINT('',#288);
#161=VERTEX_POINT('',#290);
#162=VERTEX_POINT('',#293);
#163=VERTEX_POINT('',#298);
#164=VERTEX_POINT('',#301);
#165=VERTEX_POINT('',#304);
#166=VERTEX_POINT('',#307);
#167=VERTEX_POINT('',#311);
#168=VERTEX_POINT('',#313);
#169=VERTEX_POINT('',#316);
#170=VERTEX_POINT('',#319);
#171=EDGE_CURVE('',#158,#158,#184,.T.);
#172=EDGE_CURVE('',#159,#159,#185,.T.);
#173=EDGE_CURVE('',#160,#160,#186,.T.);
#174=EDGE_CURVE('',#161,#161,#187,.T.);
#175=EDGE_CURVE('',#162,#162,#188,.T.);
#176=EDGE_CURVE('',#163,#163,#189,.T.);
#177=EDGE_CURVE('',#164,#164,#190,.T.);
#178=EDGE_CURVE('',#165,#165,#191,.T.);
#179=EDGE_CURVE('',#166,#166,#192,.T.);
#180=EDGE_CURVE('',#167,#167,#193,.T.);
#181=EDGE_CURVE('',#168,#168,#194,.T.);
#182=EDGE_CURVE('',#169,#169,#195,.T.);
#183=EDGE_CURVE('',#170,#170,#196,.T.);
#184=CIRCLE('',#198,12.5);
#185=CIRCLE('',#199,12.5);
#186=CIRCLE('',#201,12.25);
#187=CIRCLE('',#202,10.75);
#188=CIRCLE('',#204,12.25);
#189=CIRCLE('',#208,9.82067450326266);
#190=CIRCLE('',#210,10.6204003632431);
#191=CIRCLE('',#212,11.2);
#192=CIRCLE('',#214,11.2);
#193=CIRCLE('',#217,14.5);
#194=CIRCLE('',#218,9.49999999999999);
#195=CIRCLE('',#220,14.5);
#196=CIRCLE('',#222,9.49999999999999);
#197=AXIS2_PLACEMENT_3D('',#281,#225,#226);
#198=AXIS2_PLACEMENT_3D('',#282,#227,#228);
#199=AXIS2_PLACEMENT_3D('',#284,#229,#230);
#200=AXIS2_PLACEMENT_3D('',#286,#231,#232);
#201=AXIS2_PLACEMENT_3D('',#287,#233,#234);
#202=AXIS2_PLACEMENT_3D('',#289,#235,#236);
#203=AXIS2_PLACEMENT_3D('',#291,#237,#238);
#204=AXIS2_PLACEMENT_3D('',#292,#239,#240);
#205=AXIS2_PLACEMENT_3D('',#294,#241,#242);
#206=AXIS2_PLACEMENT_3D('',#295,#243,#244);
#207=AXIS2_PLACEMENT_3D('',#296,#245,#246);
#208=AXIS2_PLACEMENT_3D('',#297,#247,#248);
#209=AXIS2_PLACEMENT_3D('',#299,#249,#250);
#210=AXIS2_PLACEMENT_3D('',#300,#251,#252);
#211=AXIS2_PLACEMENT_3D('',#302,#253,#254);
#212=AXIS2_PLACEMENT_3D('',#303,#255,#256);
#213=AXIS2_PLACEMENT_3D('',#305,#257,#258);
#214=AXIS2_PLACEMENT_3D('',#306,#259,#260);
#215=AXIS2_PLACEMENT_3D('',#308,#261,#262);
#216=AXIS2_PLACEMENT_3D('',#309,#263,#264);
#217=AXIS2_PLACEMENT_3D('',#310,#265,#266);
#218=AXIS2_PLACEMENT_3D('',#312,#267,#268);
#219=AXIS2_PLACEMENT_3D('',#314,#269,#270);
#220=AXIS2_PLACEMENT_3D('',#315,#271,#272);
#221=AXIS2_PLACEMENT_3D('',#317,#273,#274);
#222=AXIS2_PLACEMENT_3D('',#318,#275,#276);
#223=AXIS2_PLACEMENT_3D('',#320,#277,#278);
#224=AXIS2_PLACEMENT_3D('',#321,#279,#280);
#225=DIRECTION('',(0.,0.,1.));
#226=DIRECTION('',(1.,0.,0.));
#227=DIRECTION('',(1.,0.,0.));
#228=DIRECTION('',(0.,0.,1.));
#229=DIRECTION('',(-1.,0.,0.));
#230=DIRECTION('',(0.,0.,1.));
#231=DIRECTION('',(-1.,0.,0.));
#232=DIRECTION('',(0.,0.,1.));
#233=DIRECTION('',(1.,0.,0.));
#234=DIRECTION('',(0.,0.,1.));
#235=DIRECTION('',(-1.,0.,0.));
#236=DIRECTION('',(0.,0.,1.));
#237=DIRECTION('',(-1.,0.,0.));
#238=DIRECTION('',(0.,0.,1.));
#239=DIRECTION('',(1.,0.,0.));
#240=DIRECTION('',(0.,0.,1.));
#241=DIRECTION('',(-1.,0.,0.));
#242=DIRECTION('',(0.,0.,1.));
#243=DIRECTION('',(-1.,0.,0.));
#244=DIRECTION('',(1.47184324997431E-16,0.,1.));
#245=DIRECTION('',(-1.,0.,0.));
#246=DIRECTION('',(0.,0.,1.));
#247=DIRECTION('',(1.,0.,0.));
#248=DIRECTION('',(0.,0.,1.));
#249=DIRECTION('',(-1.,0.,0.));
#250=DIRECTION('',(0.,0.,1.));
#251=DIRECTION('',(1.,0.,0.));
#252=DIRECTION('',(0.,0.,1.));
#253=DIRECTION('',(-1.,0.,0.));
#254=DIRECTION('',(0.,0.,1.));
#255=DIRECTION('',(1.,0.,0.));
#256=DIRECTION('',(0.,0.,1.));
#257=DIRECTION('',(1.,0.,0.));
#258=DIRECTION('',(2.16803189521154E-15,0.,-1.));
#259=DIRECTION('',(1.,0.,0.));
#260=DIRECTION('',(0.,0.,1.));
#261=DIRECTION('',(-1.,0.,0.));
#262=DIRECTION('',(0.,0.,1.));
#263=DIRECTION('',(1.,0.,0.));
#264=DIRECTION('',(7.07388401686893E-17,0.,-1.));
#265=DIRECTION('',(1.,0.,0.));
#266=DIRECTION('',(0.,0.,-1.));
#267=DIRECTION('',(1.,0.,0.));
#268=DIRECTION('',(0.,0.,-1.));
#269=DIRECTION('',(1.,0.,0.));
#270=DIRECTION('',(0.,0.,-1.));
#271=DIRECTION('',(1.,0.,0.));
#272=DIRECTION('',(0.,0.,-1.));
#273=DIRECTION('',(1.,0.,0.));
#274=DIRECTION('',(0.,0.,-1.));
#275=DIRECTION('',(1.,0.,0.));
#276=DIRECTION('',(0.,0.,-1.));
#277=DIRECTION('',(-1.,0.,0.));
#278=DIRECTION('',(0.,0.,1.));
#279=DIRECTION('',(1.,0.,0.));
#280=DIRECTION('',(0.,0.,-1.));
#281=CARTESIAN_POINT('',(0.,0.,0.));
#282=CARTESIAN_POINT('',(144.582179545096,0.,0.));
#283=CARTESIAN_POINT('',(144.582179545096,0.,12.5));
#284=CARTESIAN_POINT('',(52.2516660498395,0.,0.));
#285=CARTESIAN_POINT('',(52.2516660498395,0.,12.5));
#286=CARTESIAN_POINT('',(0.,0.,0.));
#287=CARTESIAN_POINT('',(148.5,0.,0.));
#288=CARTESIAN_POINT('',(148.5,0.,12.25));
#289=CARTESIAN_POINT('',(150.,0.,0.));
#290=CARTESIAN_POINT('',(150.,0.,10.75));
#291=CARTESIAN_POINT('',(148.5,0.,0.));
#292=CARTESIAN_POINT('',(146.,0.,0.));
#293=CARTESIAN_POINT('',(146.,0.,12.25));
#294=CARTESIAN_POINT('',(0.,0.,0.));
#295=CARTESIAN_POINT('',(146.,0.,0.));
#296=CARTESIAN_POINT('',(150.,0.,0.));
#297=CARTESIAN_POINT('',(0.500000000000006,0.,0.));
#298=CARTESIAN_POINT('',(0.500000000000006,0.,9.82067450326266));
#299=CARTESIAN_POINT('',(0.5,0.,0.));
#300=CARTESIAN_POINT('',(1.27905844135371,0.,0.));
#301=CARTESIAN_POINT('',(1.27905844135371,0.,10.6204003632431));
#302=CARTESIAN_POINT('',(1.30000000000001,0.,0.));
#303=CARTESIAN_POINT('',(23.4130755782151,0.,0.));
#304=CARTESIAN_POINT('',(23.4130755782151,0.,11.2));
#305=CARTESIAN_POINT('',(1.27905844135371,0.,0.));
#306=CARTESIAN_POINT('',(50.,0.,0.));
#307=CARTESIAN_POINT('',(50.,0.,11.2));
#308=CARTESIAN_POINT('',(0.,0.,0.));
#309=CARTESIAN_POINT('',(50.,0.,0.));
#310=CARTESIAN_POINT('',(0.,0.,0.));
#311=CARTESIAN_POINT('',(0.,0.,-14.5));
#312=CARTESIAN_POINT('',(3.46944695195361E-15,0.,0.));
#313=CARTESIAN_POINT('',(3.46944695195361E-15,0.,-9.49999999999999));
#314=CARTESIAN_POINT('',(1.26330387451858E-15,-9.49999999999999,0.));
#315=CARTESIAN_POINT('',(30.,0.,0.));
#316=CARTESIAN_POINT('',(30.,0.,-14.5));
#317=CARTESIAN_POINT('',(23.4130755782151,0.,0.));
#318=CARTESIAN_POINT('',(30.,0.,0.));
#319=CARTESIAN_POINT('',(30.,0.,-9.49999999999999));
#320=CARTESIAN_POINT('',(30.,-14.5,0.));
#321=CARTESIAN_POINT('',(23.4130755782151,0.,0.));
#322=MECHANICAL_DESIGN_GEOMETRIC_PRESENTATION_REPRESENTATION('',(#33,#34),
#323);
#323=(
GEOMETRIC_REPRESENTATION_CONTEXT(3)
GLOBAL_UNCERTAINTY_ASSIGNED_CONTEXT((#324))
GLOBAL_UNIT_ASSIGNED_CONTEXT((#330,#326,#325))
REPRESENTATION_CONTEXT('ATM-C30-D29-W25-L150-Z01-H',
'TOP_LEVEL_ASSEMBLY_PART')
);
#324=UNCERTAINTY_MEASURE_WITH_UNIT(LENGTH_MEASURE(2.E-5),#330,
'DISTANCE_ACCURACY_VALUE','Maximum Tolerance applied to model');
#325=(
NAMED_UNIT(*)
SI_UNIT($,.STERADIAN.)
SOLID_ANGLE_UNIT()
);
#326=(
CONVERSION_BASED_UNIT('DEGREE',#328)
NAMED_UNIT(#327)
PLANE_ANGLE_UNIT()
);
#327=DIMENSIONAL_EXPONENTS(0.,0.,0.,0.,0.,0.,0.);
#328=PLANE_ANGLE_MEASURE_WITH_UNIT(PLANE_ANGLE_MEASURE(0.0174532925),#329);
#329=(
NAMED_UNIT(*)
PLANE_ANGLE_UNIT()
SI_UNIT($,.RADIAN.)
);
#330=(
LENGTH_UNIT()
NAMED_UNIT(*)
SI_UNIT(.MILLI.,.METRE.)
);
ENDSEC;
END-ISO-10303-21;
