ISO-10303-21;
HEADER;
/* Generated by software containing ST-Developer
 * from STEP Tools, Inc. (www.steptools.com) 
 */
/* OPTION: using custom schema-name function */

FILE_DESCRIPTION(
/* description */ (''),
/* implementation_level */ '2;1');

FILE_NAME(
/* name */ 'ATM-H23-D23-C25-L100-Z02-H.stp',
/* time_stamp */ '2023-09-30T02:04:36+03:00',
/* author */ (''),
/* organization */ (''),
/* preprocessor_version */ 'ST-DEVELOPER v19.4',
/* originating_system */ 'SIEMENS PLM Software NX2306.5001',
/* authorisation */ '');

FILE_SCHEMA (('AUTOMOTIVE_DESIGN { 1 0 10303 214 3 1 1 1 }'));
ENDSEC;

DATA;
#10=PROPERTY_DEFINITION_REPRESENTATION(#14,#12);
#11=PROPERTY_DEFINITION_REPRESENTATION(#15,#13);
#12=REPRESENTATION('',(#16),#463);
#13=REPRESENTATION('',(#17),#463);
#14=PROPERTY_DEFINITION('pmi validation property','',#21);
#15=PROPERTY_DEFINITION('pmi validation property','',#21);
#16=VALUE_REPRESENTATION_ITEM('number of annotations',COUNT_MEASURE(0.));
#17=VALUE_REPRESENTATION_ITEM('number of views',COUNT_MEASURE(0.));
#18=SHAPE_REPRESENTATION_RELATIONSHIP('None',
'relationship between ATM-H23-D23-C25-L100-Z02-H-LIGHT_x_t_objects-Non
e and ATM-H23-D23-C25-L100-Z02-H-LIGHT_x_t_objects-None',#30,#19);
#19=ADVANCED_BREP_SHAPE_REPRESENTATION(
'ATM-H23-D23-C25-L100-Z02-H-LIGHT_x_t_objects-None',(#64,#65),#463);
#20=SHAPE_DEFINITION_REPRESENTATION(#21,#30);
#21=PRODUCT_DEFINITION_SHAPE('','',#22);
#22=PRODUCT_DEFINITION(' ','',#24,#23);
#23=PRODUCT_DEFINITION_CONTEXT('part definition',#29,'design');
#24=PRODUCT_DEFINITION_FORMATION_WITH_SPECIFIED_SOURCE(' ',' ',#26,
 .NOT_KNOWN.);
#25=PRODUCT_RELATED_PRODUCT_CATEGORY('part','',(#26));
#26=PRODUCT('ATM-H23-D23-C25-L100-Z02-H-LIGHT_x_t_objects',
'ATM-H23-D23-C25-L100-Z02-H-LIGHT_x_t_objects',' ',(#27));
#27=PRODUCT_CONTEXT(' ',#29,'mechanical');
#28=APPLICATION_PROTOCOL_DEFINITION('international standard',
'automotive_design',2010,#29);
#29=APPLICATION_CONTEXT(
'core data for automotive mechanical design processes');
#30=SHAPE_REPRESENTATION(
'ATM-H23-D23-C25-L100-Z02-H-LIGHT_x_t_objects-None',(#276),#463);
#31=DRAUGHTING_PRE_DEFINED_COLOUR('yellow');
#32=LINE('',#430,#40);
#33=LINE('',#435,#41);
#34=LINE('',#445,#42);
#35=LINE('',#446,#43);
#36=LINE('',#451,#44);
#37=LINE('',#452,#45);
#38=LINE('',#454,#46);
#39=LINE('',#455,#47);
#40=VECTOR('',#358,1.);
#41=VECTOR('',#361,1.);
#42=VECTOR('',#374,1.);
#43=VECTOR('',#375,1.);
#44=VECTOR('',#380,1.);
#45=VECTOR('',#381,1.);
#46=VECTOR('',#384,1.);
#47=VECTOR('',#385,1.);
#48=PRESENTATION_LAYER_ASSIGNMENT('1','Layer 1',(#64,#65));
#49=STYLED_ITEM('',(#51),#64);
#50=STYLED_ITEM('',(#52),#65);
#51=PRESENTATION_STYLE_ASSIGNMENT((#53));
#52=PRESENTATION_STYLE_ASSIGNMENT((#54));
#53=SURFACE_STYLE_USAGE(.BOTH.,#55);
#54=SURFACE_STYLE_USAGE(.BOTH.,#56);
#55=SURFACE_SIDE_STYLE('',(#57));
#56=SURFACE_SIDE_STYLE('',(#58));
#57=SURFACE_STYLE_FILL_AREA(#59);
#58=SURFACE_STYLE_FILL_AREA(#60);
#59=FILL_AREA_STYLE('',(#61));
#60=FILL_AREA_STYLE('',(#62));
#61=FILL_AREA_STYLE_COLOUR('',#63);
#62=FILL_AREA_STYLE_COLOUR('',#31);
#63=COLOUR_RGB('smoke gray',0.694117647058824,0.694117647058824,0.694117647058824);
#64=MANIFOLD_SOLID_BREP('',#66);
#65=MANIFOLD_SOLID_BREP('',#67);
#66=CLOSED_SHELL('',(#99,#100,#101,#102,#103,#104,#105,#106,#107,#108,#109));
#67=CLOSED_SHELL('',(#110,#111,#112,#113,#114,#115,#116,#117));
#68=CYLINDRICAL_SURFACE('',#284,9.);
#69=CYLINDRICAL_SURFACE('',#290,12.5);
#70=CYLINDRICAL_SURFACE('',#294,12.25);
#71=CYLINDRICAL_SURFACE('',#305,7.);
#72=CYLINDRICAL_SURFACE('',#308,11.5);
#73=CYLINDRICAL_SURFACE('',#310,7.);
#74=CYLINDRICAL_SURFACE('',#313,11.5);
#75=CONICAL_SURFACE('',#282,9.,1.8);
#76=CONICAL_SURFACE('',#288,12.5,45.0000000000001);
#77=CONICAL_SURFACE('',#292,12.25,10.0000000000001);
#78=TOROIDAL_SURFACE('',#280,7.65381739028599,1.);
#79=TOROIDAL_SURFACE('',#286,13.,4.);
#80=TOROIDAL_SURFACE('',#296,11.25,1.);
#81=FACE_BOUND('',#135,.T.);
#82=FACE_BOUND('',#136,.T.);
#83=FACE_BOUND('',#137,.T.);
#84=FACE_BOUND('',#138,.T.);
#85=FACE_BOUND('',#139,.T.);
#86=FACE_BOUND('',#140,.T.);
#87=FACE_BOUND('',#141,.T.);
#88=FACE_BOUND('',#142,.T.);
#89=FACE_BOUND('',#143,.T.);
#90=FACE_BOUND('',#144,.T.);
#91=FACE_BOUND('',#145,.T.);
#92=FACE_BOUND('',#146,.T.);
#93=FACE_BOUND('',#147,.T.);
#94=FACE_BOUND('',#148,.T.);
#95=FACE_BOUND('',#149,.T.);
#96=FACE_BOUND('',#150,.T.);
#97=FACE_BOUND('',#151,.T.);
#98=FACE_BOUND('',#152,.T.);
#99=ADVANCED_FACE('',(#124),#118,.F.);
#100=ADVANCED_FACE('',(#81,#82),#78,.T.);
#101=ADVANCED_FACE('',(#83,#84),#75,.T.);
#102=ADVANCED_FACE('',(#85,#86),#68,.T.);
#103=ADVANCED_FACE('',(#87,#88),#79,.F.);
#104=ADVANCED_FACE('',(#89,#90),#76,.T.);
#105=ADVANCED_FACE('',(#91,#92),#69,.T.);
#106=ADVANCED_FACE('',(#93,#94),#77,.T.);
#107=ADVANCED_FACE('',(#95,#96),#70,.T.);
#108=ADVANCED_FACE('',(#97,#98),#80,.T.);
#109=ADVANCED_FACE('',(#125),#119,.F.);
#110=ADVANCED_FACE('',(#126),#120,.F.);
#111=ADVANCED_FACE('',(#127),#121,.F.);
#112=ADVANCED_FACE('',(#128),#71,.F.);
#113=ADVANCED_FACE('',(#129),#122,.F.);
#114=ADVANCED_FACE('',(#130),#72,.T.);
#115=ADVANCED_FACE('',(#131),#73,.F.);
#116=ADVANCED_FACE('',(#132),#123,.F.);
#117=ADVANCED_FACE('',(#133),#74,.T.);
#118=PLANE('',#278);
#119=PLANE('',#297);
#120=PLANE('',#300);
#121=PLANE('',#303);
#122=PLANE('',#307);
#123=PLANE('',#312);
#124=FACE_OUTER_BOUND('',#134,.T.);
#125=FACE_OUTER_BOUND('',#153,.T.);
#126=FACE_OUTER_BOUND('',#154,.T.);
#127=FACE_OUTER_BOUND('',#155,.T.);
#128=FACE_OUTER_BOUND('',#156,.T.);
#129=FACE_OUTER_BOUND('',#157,.T.);
#130=FACE_OUTER_BOUND('',#158,.T.);
#131=FACE_OUTER_BOUND('',#159,.T.);
#132=FACE_OUTER_BOUND('',#160,.T.);
#133=FACE_OUTER_BOUND('',#161,.T.);
#134=EDGE_LOOP('',(#162));
#135=EDGE_LOOP('',(#163));
#136=EDGE_LOOP('',(#164));
#137=EDGE_LOOP('',(#165));
#138=EDGE_LOOP('',(#166));
#139=EDGE_LOOP('',(#167));
#140=EDGE_LOOP('',(#168));
#141=EDGE_LOOP('',(#169));
#142=EDGE_LOOP('',(#170));
#143=EDGE_LOOP('',(#171));
#144=EDGE_LOOP('',(#172));
#145=EDGE_LOOP('',(#173));
#146=EDGE_LOOP('',(#174));
#147=EDGE_LOOP('',(#175));
#148=EDGE_LOOP('',(#176));
#149=EDGE_LOOP('',(#177));
#150=EDGE_LOOP('',(#178));
#151=EDGE_LOOP('',(#179));
#152=EDGE_LOOP('',(#180));
#153=EDGE_LOOP('',(#181));
#154=EDGE_LOOP('',(#182,#183,#184,#185));
#155=EDGE_LOOP('',(#186,#187,#188,#189));
#156=EDGE_LOOP('',(#190,#191,#192,#193));
#157=EDGE_LOOP('',(#194,#195,#196,#197));
#158=EDGE_LOOP('',(#198,#199,#200,#201));
#159=EDGE_LOOP('',(#202,#203,#204,#205));
#160=EDGE_LOOP('',(#206,#207,#208,#209));
#161=EDGE_LOOP('',(#210,#211,#212,#213));
#162=ORIENTED_EDGE('',*,*,#232,.T.);
#163=ORIENTED_EDGE('',*,*,#232,.F.);
#164=ORIENTED_EDGE('',*,*,#233,.T.);
#165=ORIENTED_EDGE('',*,*,#233,.F.);
#166=ORIENTED_EDGE('',*,*,#234,.T.);
#167=ORIENTED_EDGE('',*,*,#234,.F.);
#168=ORIENTED_EDGE('',*,*,#235,.T.);
#169=ORIENTED_EDGE('',*,*,#235,.F.);
#170=ORIENTED_EDGE('',*,*,#236,.T.);
#171=ORIENTED_EDGE('',*,*,#236,.F.);
#172=ORIENTED_EDGE('',*,*,#237,.T.);
#173=ORIENTED_EDGE('',*,*,#237,.F.);
#174=ORIENTED_EDGE('',*,*,#238,.T.);
#175=ORIENTED_EDGE('',*,*,#238,.F.);
#176=ORIENTED_EDGE('',*,*,#239,.T.);
#177=ORIENTED_EDGE('',*,*,#239,.F.);
#178=ORIENTED_EDGE('',*,*,#240,.T.);
#179=ORIENTED_EDGE('',*,*,#240,.F.);
#180=ORIENTED_EDGE('',*,*,#241,.T.);
#181=ORIENTED_EDGE('',*,*,#241,.F.);
#182=ORIENTED_EDGE('',*,*,#242,.T.);
#183=ORIENTED_EDGE('',*,*,#243,.T.);
#184=ORIENTED_EDGE('',*,*,#244,.T.);
#185=ORIENTED_EDGE('',*,*,#245,.F.);
#186=ORIENTED_EDGE('',*,*,#246,.F.);
#187=ORIENTED_EDGE('',*,*,#244,.F.);
#188=ORIENTED_EDGE('',*,*,#247,.T.);
#189=ORIENTED_EDGE('',*,*,#242,.F.);
#190=ORIENTED_EDGE('',*,*,#248,.F.);
#191=ORIENTED_EDGE('',*,*,#249,.T.);
#192=ORIENTED_EDGE('',*,*,#246,.T.);
#193=ORIENTED_EDGE('',*,*,#250,.T.);
#194=ORIENTED_EDGE('',*,*,#251,.F.);
#195=ORIENTED_EDGE('',*,*,#252,.F.);
#196=ORIENTED_EDGE('',*,*,#248,.T.);
#197=ORIENTED_EDGE('',*,*,#253,.F.);
#198=ORIENTED_EDGE('',*,*,#254,.F.);
#199=ORIENTED_EDGE('',*,*,#247,.F.);
#200=ORIENTED_EDGE('',*,*,#255,.F.);
#201=ORIENTED_EDGE('',*,*,#251,.T.);
#202=ORIENTED_EDGE('',*,*,#245,.T.);
#203=ORIENTED_EDGE('',*,*,#249,.F.);
#204=ORIENTED_EDGE('',*,*,#256,.F.);
#205=ORIENTED_EDGE('',*,*,#250,.F.);
#206=ORIENTED_EDGE('',*,*,#256,.T.);
#207=ORIENTED_EDGE('',*,*,#252,.T.);
#208=ORIENTED_EDGE('',*,*,#257,.F.);
#209=ORIENTED_EDGE('',*,*,#253,.T.);
#210=ORIENTED_EDGE('',*,*,#257,.T.);
#211=ORIENTED_EDGE('',*,*,#255,.T.);
#212=ORIENTED_EDGE('',*,*,#243,.F.);
#213=ORIENTED_EDGE('',*,*,#254,.T.);
#214=VERTEX_POINT('',#400);
#215=VERTEX_POINT('',#403);
#216=VERTEX_POINT('',#406);
#217=VERTEX_POINT('',#409);
#218=VERTEX_POINT('',#412);
#219=VERTEX_POINT('',#415);
#220=VERTEX_POINT('',#418);
#221=VERTEX_POINT('',#421);
#222=VERTEX_POINT('',#424);
#223=VERTEX_POINT('',#427);
#224=VERTEX_POINT('',#431);
#225=VERTEX_POINT('',#432);
#226=VERTEX_POINT('',#434);
#227=VERTEX_POINT('',#436);
#228=VERTEX_POINT('',#443);
#229=VERTEX_POINT('',#444);
#230=VERTEX_POINT('',#449);
#231=VERTEX_POINT('',#450);
#232=EDGE_CURVE('',#214,#214,#258,.T.);
#233=EDGE_CURVE('',#215,#215,#259,.T.);
#234=EDGE_CURVE('',#216,#216,#260,.T.);
#235=EDGE_CURVE('',#217,#217,#261,.T.);
#236=EDGE_CURVE('',#218,#218,#262,.T.);
#237=EDGE_CURVE('',#219,#219,#263,.T.);
#238=EDGE_CURVE('',#220,#220,#264,.T.);
#239=EDGE_CURVE('',#221,#221,#265,.T.);
#240=EDGE_CURVE('',#222,#222,#266,.T.);
#241=EDGE_CURVE('',#223,#223,#267,.T.);
#242=EDGE_CURVE('',#224,#225,#32,.T.);
#243=EDGE_CURVE('',#225,#226,#268,.T.);
#244=EDGE_CURVE('',#226,#227,#33,.T.);
#245=EDGE_CURVE('',#224,#227,#269,.T.);
#246=EDGE_CURVE('',#227,#224,#270,.T.);
#247=EDGE_CURVE('',#226,#225,#271,.T.);
#248=EDGE_CURVE('',#228,#229,#272,.T.);
#249=EDGE_CURVE('',#228,#227,#34,.T.);
#250=EDGE_CURVE('',#224,#229,#35,.T.);
#251=EDGE_CURVE('',#230,#231,#273,.T.);
#252=EDGE_CURVE('',#228,#230,#36,.T.);
#253=EDGE_CURVE('',#231,#229,#37,.T.);
#254=EDGE_CURVE('',#225,#231,#38,.T.);
#255=EDGE_CURVE('',#230,#226,#39,.T.);
#256=EDGE_CURVE('',#229,#228,#274,.T.);
#257=EDGE_CURVE('',#231,#230,#275,.T.);
#258=CIRCLE('',#277,7.65381739028599);
#259=CIRCLE('',#279,8.65332395065172);
#260=CIRCLE('',#281,9.);
#261=CIRCLE('',#283,9.);
#262=CIRCLE('',#285,10.1715728752538);
#263=CIRCLE('',#287,12.5);
#264=CIRCLE('',#289,12.5);
#265=CIRCLE('',#291,12.25);
#266=CIRCLE('',#293,12.25);
#267=CIRCLE('',#295,11.25);
#268=CIRCLE('',#298,11.5);
#269=CIRCLE('',#299,7.);
#270=CIRCLE('',#301,7.);
#271=CIRCLE('',#302,11.5);
#272=CIRCLE('',#304,7.);
#273=CIRCLE('',#306,11.5);
#274=CIRCLE('',#309,7.);
#275=CIRCLE('',#311,11.5);
#276=AXIS2_PLACEMENT_3D('',#398,#314,#315);
#277=AXIS2_PLACEMENT_3D('',#399,#316,#317);
#278=AXIS2_PLACEMENT_3D('',#401,#318,#319);
#279=AXIS2_PLACEMENT_3D('',#402,#320,#321);
#280=AXIS2_PLACEMENT_3D('',#404,#322,#323);
#281=AXIS2_PLACEMENT_3D('',#405,#324,#325);
#282=AXIS2_PLACEMENT_3D('',#407,#326,#327);
#283=AXIS2_PLACEMENT_3D('',#408,#328,#329);
#284=AXIS2_PLACEMENT_3D('',#410,#330,#331);
#285=AXIS2_PLACEMENT_3D('',#411,#332,#333);
#286=AXIS2_PLACEMENT_3D('',#413,#334,#335);
#287=AXIS2_PLACEMENT_3D('',#414,#336,#337);
#288=AXIS2_PLACEMENT_3D('',#416,#338,#339);
#289=AXIS2_PLACEMENT_3D('',#417,#340,#341);
#290=AXIS2_PLACEMENT_3D('',#419,#342,#343);
#291=AXIS2_PLACEMENT_3D('',#420,#344,#345);
#292=AXIS2_PLACEMENT_3D('',#422,#346,#347);
#293=AXIS2_PLACEMENT_3D('',#423,#348,#349);
#294=AXIS2_PLACEMENT_3D('',#425,#350,#351);
#295=AXIS2_PLACEMENT_3D('',#426,#352,#353);
#296=AXIS2_PLACEMENT_3D('',#428,#354,#355);
#297=AXIS2_PLACEMENT_3D('',#429,#356,#357);
#298=AXIS2_PLACEMENT_3D('',#433,#359,#360);
#299=AXIS2_PLACEMENT_3D('',#437,#362,#363);
#300=AXIS2_PLACEMENT_3D('',#438,#364,#365);
#301=AXIS2_PLACEMENT_3D('',#439,#366,#367);
#302=AXIS2_PLACEMENT_3D('',#440,#368,#369);
#303=AXIS2_PLACEMENT_3D('',#441,#370,#371);
#304=AXIS2_PLACEMENT_3D('',#442,#372,#373);
#305=AXIS2_PLACEMENT_3D('',#447,#376,#377);
#306=AXIS2_PLACEMENT_3D('',#448,#378,#379);
#307=AXIS2_PLACEMENT_3D('',#453,#382,#383);
#308=AXIS2_PLACEMENT_3D('',#456,#386,#387);
#309=AXIS2_PLACEMENT_3D('',#457,#388,#389);
#310=AXIS2_PLACEMENT_3D('',#458,#390,#391);
#311=AXIS2_PLACEMENT_3D('',#459,#392,#393);
#312=AXIS2_PLACEMENT_3D('',#460,#394,#395);
#313=AXIS2_PLACEMENT_3D('',#461,#396,#397);
#314=DIRECTION('',(0.,0.,1.));
#315=DIRECTION('',(1.,0.,0.));
#316=DIRECTION('',(-1.,0.,0.));
#317=DIRECTION('',(0.,0.,1.));
#318=DIRECTION('',(1.,0.,0.));
#319=DIRECTION('',(0.,0.,-1.));
#320=DIRECTION('',(-1.,0.,0.));
#321=DIRECTION('',(0.,0.,1.));
#322=DIRECTION('',(-1.,0.,0.));
#323=DIRECTION('',(0.,0.,1.));
#324=DIRECTION('',(-1.,0.,0.));
#325=DIRECTION('',(0.,0.,1.));
#326=DIRECTION('',(1.,0.,0.));
#327=DIRECTION('',(-1.11568083797378E-15,0.,-1.));
#328=DIRECTION('',(-1.,0.,0.));
#329=DIRECTION('',(0.,0.,1.));
#330=DIRECTION('',(-1.,0.,0.));
#331=DIRECTION('',(0.,0.,1.));
#332=DIRECTION('',(-1.,0.,0.));
#333=DIRECTION('',(0.,0.,1.));
#334=DIRECTION('',(-1.,0.,0.));
#335=DIRECTION('',(0.,0.,1.));
#336=DIRECTION('',(-1.,0.,0.));
#337=DIRECTION('',(0.,0.,1.));
#338=DIRECTION('',(1.,0.,0.));
#339=DIRECTION('',(9.59451996589639E-17,0.,-1.));
#340=DIRECTION('',(-1.,0.,0.));
#341=DIRECTION('',(0.,0.,1.));
#342=DIRECTION('',(-1.,0.,0.));
#343=DIRECTION('',(0.,0.,1.));
#344=DIRECTION('',(-1.,0.,0.));
#345=DIRECTION('',(0.,0.,1.));
#346=DIRECTION('',(-1.,0.,0.));
#347=DIRECTION('',(-1.4718432499743E-16,0.,1.));
#348=DIRECTION('',(-1.,0.,0.));
#349=DIRECTION('',(0.,0.,1.));
#350=DIRECTION('',(-1.,0.,0.));
#351=DIRECTION('',(0.,0.,1.));
#352=DIRECTION('',(-1.,0.,0.));
#353=DIRECTION('',(0.,0.,1.));
#354=DIRECTION('',(-1.,0.,0.));
#355=DIRECTION('',(0.,0.,1.));
#356=DIRECTION('',(-1.,0.,0.));
#357=DIRECTION('',(0.,0.,1.));
#358=DIRECTION('',(0.,-6.12323399573677E-17,1.));
#359=DIRECTION('',(1.,0.,0.));
#360=DIRECTION('',(0.,-6.12323399573677E-17,1.));
#361=DIRECTION('',(0.,1.,0.));
#362=DIRECTION('',(1.,0.,0.));
#363=DIRECTION('',(0.,-6.12323399573677E-17,1.));
#364=DIRECTION('',(-1.,0.,0.));
#365=DIRECTION('',(0.,0.,1.));
#366=DIRECTION('',(1.,0.,0.));
#367=DIRECTION('',(0.,-1.,0.));
#368=DIRECTION('',(1.,0.,0.));
#369=DIRECTION('',(0.,-1.,0.));
#370=DIRECTION('',(-1.,0.,0.));
#371=DIRECTION('',(0.,0.,1.));
#372=DIRECTION('',(1.,0.,0.));
#373=DIRECTION('',(-3.4074925420973E-16,-1.,0.));
#374=DIRECTION('',(1.,0.,0.));
#375=DIRECTION('',(-1.,0.,0.));
#376=DIRECTION('',(1.,0.,0.));
#377=DIRECTION('',(0.,0.,-1.));
#378=DIRECTION('',(1.,0.,0.));
#379=DIRECTION('',(-2.07412589518966E-16,-1.,0.));
#380=DIRECTION('',(0.,-1.,0.));
#381=DIRECTION('',(0.,6.12323399573677E-17,-1.));
#382=DIRECTION('',(1.,0.,0.));
#383=DIRECTION('',(0.,0.,-1.));
#384=DIRECTION('',(-1.,0.,0.));
#385=DIRECTION('',(1.,0.,0.));
#386=DIRECTION('',(1.,0.,0.));
#387=DIRECTION('',(0.,0.,-1.));
#388=DIRECTION('',(1.,0.,0.));
#389=DIRECTION('',(-3.4074925420973E-16,-6.12323399573677E-17,1.));
#390=DIRECTION('',(1.,0.,0.));
#391=DIRECTION('',(0.,0.,-1.));
#392=DIRECTION('',(1.,0.,0.));
#393=DIRECTION('',(-2.07412589518966E-16,-6.12323399573677E-17,1.));
#394=DIRECTION('',(1.,0.,0.));
#395=DIRECTION('',(0.,0.,-1.));
#396=DIRECTION('',(1.,0.,0.));
#397=DIRECTION('',(0.,0.,-1.));
#398=CARTESIAN_POINT('',(0.,0.,0.));
#399=CARTESIAN_POINT('',(0.5,0.,0.));
#400=CARTESIAN_POINT('',(0.5,0.,7.65381739028599));
#401=CARTESIAN_POINT('',(0.5,0.,0.));
#402=CARTESIAN_POINT('',(1.46858924092187,0.,0.));
#403=CARTESIAN_POINT('',(1.46858924092187,0.,8.65332395065172));
#404=CARTESIAN_POINT('',(1.5,0.,0.));
#405=CARTESIAN_POINT('',(12.5,0.,0.));
#406=CARTESIAN_POINT('',(12.5,0.,9.));
#407=CARTESIAN_POINT('',(12.5,0.,0.));
#408=CARTESIAN_POINT('',(30.,0.,0.));
#409=CARTESIAN_POINT('',(30.,0.,9.));
#410=CARTESIAN_POINT('',(0.,0.,0.));
#411=CARTESIAN_POINT('',(32.8284271247462,0.,0.));
#412=CARTESIAN_POINT('',(32.8284271247462,0.,10.1715728752538));
#413=CARTESIAN_POINT('',(30.,0.,0.));
#414=CARTESIAN_POINT('',(35.1568542494923,0.,0.));
#415=CARTESIAN_POINT('',(35.1568542494923,0.,12.5));
#416=CARTESIAN_POINT('',(35.1568542494923,0.,0.));
#417=CARTESIAN_POINT('',(94.5821795450956,0.,0.));
#418=CARTESIAN_POINT('',(94.5821795450956,0.,12.5));
#419=CARTESIAN_POINT('',(0.,0.,0.));
#420=CARTESIAN_POINT('',(96.,0.,0.));
#421=CARTESIAN_POINT('',(96.,0.,12.25));
#422=CARTESIAN_POINT('',(96.,0.,0.));
#423=CARTESIAN_POINT('',(99.,0.,0.));
#424=CARTESIAN_POINT('',(99.,0.,12.25));
#425=CARTESIAN_POINT('',(0.,0.,0.));
#426=CARTESIAN_POINT('',(100.,0.,0.));
#427=CARTESIAN_POINT('',(100.,0.,11.25));
#428=CARTESIAN_POINT('',(99.,0.,0.));
#429=CARTESIAN_POINT('',(100.,11.25,0.));
#430=CARTESIAN_POINT('',(27.0006828101504,-7.04171909509728E-16,11.5));
#431=CARTESIAN_POINT('',(27.0006828101504,1.28587913910472E-15,7.));
#432=CARTESIAN_POINT('',(27.0006828101504,2.11251572852918E-15,11.5));
#433=CARTESIAN_POINT('',(27.0006828101504,0.,0.));
#434=CARTESIAN_POINT('',(27.0006828101504,-11.5,0.));
#435=CARTESIAN_POINT('',(27.0006828101504,-11.5,0.));
#436=CARTESIAN_POINT('',(27.0006828101504,-7.,0.));
#437=CARTESIAN_POINT('',(27.0006828101504,0.,0.));
#438=CARTESIAN_POINT('',(27.0006828101504,-7.04171909509728E-16,11.5));
#439=CARTESIAN_POINT('',(27.0006828101504,0.,0.));
#440=CARTESIAN_POINT('',(27.0006828101504,0.,0.));
#441=CARTESIAN_POINT('',(27.0006828101504,-11.5,0.));
#442=CARTESIAN_POINT('',(0.00501370986480398,0.,0.));
#443=CARTESIAN_POINT('',(0.0050137098648016,-7.,0.));
#444=CARTESIAN_POINT('',(0.00501370986480398,1.28587913910472E-15,7.));
#445=CARTESIAN_POINT('',(0.0050137098648016,-7.,0.));
#446=CARTESIAN_POINT('',(0.0050137098648016,-4.28626379701574E-16,7.));
#447=CARTESIAN_POINT('',(32.8284271247462,0.,0.));
#448=CARTESIAN_POINT('',(0.00501370986480398,0.,0.));
#449=CARTESIAN_POINT('',(0.0050137098648016,-11.5,0.));
#450=CARTESIAN_POINT('',(0.00501370986480398,2.11251572852918E-15,11.5));
#451=CARTESIAN_POINT('',(0.0050137098648016,-11.5,0.));
#452=CARTESIAN_POINT('',(0.0050137098648016,-7.04171909509728E-16,11.5));
#453=CARTESIAN_POINT('',(0.0050137098648016,-11.5,0.));
#454=CARTESIAN_POINT('',(0.0050137098648016,-7.04171909509728E-16,11.5));
#455=CARTESIAN_POINT('',(0.0050137098648016,-11.5,0.));
#456=CARTESIAN_POINT('',(32.8284271247462,0.,0.));
#457=CARTESIAN_POINT('',(0.00501370986480398,0.,0.));
#458=CARTESIAN_POINT('',(32.8284271247462,0.,0.));
#459=CARTESIAN_POINT('',(0.00501370986480398,0.,0.));
#460=CARTESIAN_POINT('',(0.0050137098648016,-7.04171909509728E-16,11.5));
#461=CARTESIAN_POINT('',(32.8284271247462,0.,0.));
#462=MECHANICAL_DESIGN_GEOMETRIC_PRESENTATION_REPRESENTATION('',(#49,#50),
#463);
#463=(
GEOMETRIC_REPRESENTATION_CONTEXT(3)
GLOBAL_UNCERTAINTY_ASSIGNED_CONTEXT((#464))
GLOBAL_UNIT_ASSIGNED_CONTEXT((#470,#466,#465))
REPRESENTATION_CONTEXT('ATM-H23-D23-C25-L100-Z02-H',
'TOP_LEVEL_ASSEMBLY_PART')
);
#464=UNCERTAINTY_MEASURE_WITH_UNIT(LENGTH_MEASURE(2.E-5),#470,
'DISTANCE_ACCURACY_VALUE','Maximum Tolerance applied to model');
#465=(
NAMED_UNIT(*)
SI_UNIT($,.STERADIAN.)
SOLID_ANGLE_UNIT()
);
#466=(
CONVERSION_BASED_UNIT('DEGREE',#468)
NAMED_UNIT(#467)
PLANE_ANGLE_UNIT()
);
#467=DIMENSIONAL_EXPONENTS(0.,0.,0.,0.,0.,0.,0.);
#468=PLANE_ANGLE_MEASURE_WITH_UNIT(PLANE_ANGLE_MEASURE(0.0174532925),#469);
#469=(
NAMED_UNIT(*)
PLANE_ANGLE_UNIT()
SI_UNIT($,.RADIAN.)
);
#470=(
LENGTH_UNIT()
NAMED_UNIT(*)
SI_UNIT(.MILLI.,.METRE.)
);
ENDSEC;
END-ISO-10303-21;
