ISO-10303-21;
HEADER;
/* Generated by software containing ST-Developer
 * from STEP Tools, Inc. (www.steptools.com) 
 */
/* OPTION: using custom schema-name function */

FILE_DESCRIPTION(
/* description */ (''),
/* implementation_level */ '2;1');

FILE_NAME(
/* name */ 'ATSMR-RD0702-D17-W16-L90-Z02.stp',
/* time_stamp */ '2023-10-02T16:47:09+03:00',
/* author */ (''),
/* organization */ (''),
/* preprocessor_version */ 'ST-DEVELOPER v19.4',
/* originating_system */ 'SIEMENS PLM Software NX2306.5001',
/* authorisation */ '');

FILE_SCHEMA (('AUTOMOTIVE_DESIGN { 1 0 10303 214 3 1 1 1 }'));
ENDSEC;

DATA;
#10=PROPERTY_DEFINITION_REPRESENTATION(#14,#12);
#11=PROPERTY_DEFINITION_REPRESENTATION(#15,#13);
#12=REPRESENTATION('',(#16),#428);
#13=REPRESENTATION('',(#17),#428);
#14=PROPERTY_DEFINITION('pmi validation property','',#21);
#15=PROPERTY_DEFINITION('pmi validation property','',#21);
#16=VALUE_REPRESENTATION_ITEM('number of annotations',COUNT_MEASURE(0.));
#17=VALUE_REPRESENTATION_ITEM('number of views',COUNT_MEASURE(0.));
#18=SHAPE_REPRESENTATION_RELATIONSHIP('None',
'relationship between ATSMR-RD0702-D17-W16-L90-Z02-LIGHT_x_t_objects-N
one and ATSMR-RD0702-D17-W16-L90-Z02-LIGHT_x_t_objects-None',#30,#19);
#19=ADVANCED_BREP_SHAPE_REPRESENTATION(
'ATSMR-RD0702-D17-W16-L90-Z02-LIGHT_x_t_objects-None',(#50,#51),#428);
#20=SHAPE_DEFINITION_REPRESENTATION(#21,#30);
#21=PRODUCT_DEFINITION_SHAPE('','',#22);
#22=PRODUCT_DEFINITION(' ','',#24,#23);
#23=PRODUCT_DEFINITION_CONTEXT('part definition',#29,'design');
#24=PRODUCT_DEFINITION_FORMATION_WITH_SPECIFIED_SOURCE(' ',' ',#26,
 .NOT_KNOWN.);
#25=PRODUCT_RELATED_PRODUCT_CATEGORY('part','',(#26));
#26=PRODUCT('ATSMR-RD0702-D17-W16-L90-Z02-LIGHT_x_t_objects',
'ATSMR-RD0702-D17-W16-L90-Z02-LIGHT_x_t_objects',' ',(#27));
#27=PRODUCT_CONTEXT(' ',#29,'mechanical');
#28=APPLICATION_PROTOCOL_DEFINITION('international standard',
'automotive_design',2010,#29);
#29=APPLICATION_CONTEXT(
'core data for automotive mechanical design processes');
#30=SHAPE_REPRESENTATION(
'ATSMR-RD0702-D17-W16-L90-Z02-LIGHT_x_t_objects-None',(#188),#428);
#31=DRAUGHTING_PRE_DEFINED_COLOUR('yellow');
#32=(
BOUNDED_SURFACE()
B_SPLINE_SURFACE(3,3,((#350,#351,#352,#353,#354,#355,#356),(#357,#358,#359,
#360,#361,#362,#363),(#364,#365,#366,#367,#368,#369,#370),(#371,#372,#373,
#374,#375,#376,#377),(#378,#379,#380,#381,#382,#383,#384),(#385,#386,#387,
#388,#389,#390,#391),(#392,#393,#394,#395,#396,#397,#398)),
 .UNSPECIFIED.,.T.,.F.,.F.)
B_SPLINE_SURFACE_WITH_KNOTS((1,3,3,3,1),(4,3,4),(-0.5,0.,0.5,1.,1.5),(0.,
0.5,1.),.UNSPECIFIED.)
GEOMETRIC_REPRESENTATION_ITEM()
RATIONAL_B_SPLINE_SURFACE(((1.,0.557140458013153,0.557140458013153,1.,0.557140458013153,
0.557140458013153,1.),(0.333333333333334,0.185713486004384,0.185713486004384,
0.333333333333334,0.185713486004384,0.185713486004384,0.333333333333334),
(0.333333333333334,0.185713486004384,0.185713486004384,0.333333333333334,
0.185713486004384,0.185713486004384,0.333333333333334),(1.,0.557140458013153,
0.557140458013153,1.,0.557140458013153,0.557140458013153,1.),(0.333333333333334,
0.185713486004384,0.185713486004384,0.333333333333334,0.185713486004384,
0.185713486004384,0.333333333333334),(0.333333333333334,0.185713486004384,
0.185713486004384,0.333333333333334,0.185713486004384,0.185713486004384,
0.333333333333334),(1.,0.557140458013153,0.557140458013153,1.,0.557140458013153,
0.557140458013153,1.)))
REPRESENTATION_ITEM('')
SURFACE()
);
#33=(
BOUNDED_SURFACE()
B_SPLINE_SURFACE(3,3,((#399,#400,#401,#402),(#403,#404,#405,#406),(#407,
#408,#409,#410),(#411,#412,#413,#414),(#415,#416,#417,#418),(#419,#420,
#421,#422),(#423,#424,#425,#426)),.UNSPECIFIED.,.T.,.F.,.F.)
B_SPLINE_SURFACE_WITH_KNOTS((1,3,3,3,1),(4,4),(-0.5,0.,0.5,1.,1.5),(0.,
1.),.UNSPECIFIED.)
GEOMETRIC_REPRESENTATION_ITEM()
RATIONAL_B_SPLINE_SURFACE(((1.,0.849731112827656,0.849731112827656,1.),
(0.333333333333334,0.283243704275885,0.283243704275885,0.333333333333334),
(0.333333333333334,0.283243704275885,0.283243704275885,0.333333333333334),
(1.,0.849731112827656,0.849731112827656,1.),(0.333333333333334,0.283243704275885,
0.283243704275885,0.333333333333334),(0.333333333333334,0.283243704275885,
0.283243704275885,0.333333333333334),(1.,0.849731112827656,0.849731112827656,
1.)))
REPRESENTATION_ITEM('')
SURFACE()
);
#34=PRESENTATION_LAYER_ASSIGNMENT('1','Layer 1',(#50,#51));
#35=STYLED_ITEM('',(#37),#50);
#36=STYLED_ITEM('',(#38),#51);
#37=PRESENTATION_STYLE_ASSIGNMENT((#39));
#38=PRESENTATION_STYLE_ASSIGNMENT((#40));
#39=SURFACE_STYLE_USAGE(.BOTH.,#41);
#40=SURFACE_STYLE_USAGE(.BOTH.,#42);
#41=SURFACE_SIDE_STYLE('',(#43));
#42=SURFACE_SIDE_STYLE('',(#44));
#43=SURFACE_STYLE_FILL_AREA(#45);
#44=SURFACE_STYLE_FILL_AREA(#46);
#45=FILL_AREA_STYLE('',(#47));
#46=FILL_AREA_STYLE('',(#48));
#47=FILL_AREA_STYLE_COLOUR('',#49);
#48=FILL_AREA_STYLE_COLOUR('',#31);
#49=COLOUR_RGB('silver gray',0.6,0.6,0.6);
#50=MANIFOLD_SOLID_BREP('',#52);
#51=MANIFOLD_SOLID_BREP('',#53);
#52=CLOSED_SHELL('',(#67,#68,#69,#70,#71,#72,#73,#74,#75,#76,#77));
#53=CLOSED_SHELL('',(#78,#79));
#54=SURFACE_OF_REVOLUTION('',#56,#55);
#55=AXIS1_PLACEMENT('',#332,#235);
#56=B_SPLINE_CURVE_WITH_KNOTS('',3,(#276,#277,#278,#279,#280,#281,#282,
#283,#284,#285,#286,#287,#288,#289,#290,#291,#292,#293,#294,#295,#296,#297,
#298,#299,#300,#301,#302,#303,#304,#305,#306,#307,#308,#309,#310,#311,#312,
#313,#314,#315,#316,#317,#318,#319,#320,#321,#322,#323,#324,#325,#326,#327,
#328,#329,#330,#331),.UNSPECIFIED.,.T.,.F.,(2,2,2,2,2,2,2,2,2,2,2,2,2,2,
2,2,2,2,2,2,2,2,2,2,2,2,2,2,2,2),(-0.0625,0.,0.0625,0.09375,0.125,0.15625,
0.1875,0.21875,0.25,0.28125,0.3125,0.375,0.40625,0.4375,0.46875,0.5,0.53125,
0.5625,0.625,0.65625,0.6875,0.71875,0.75,0.78125,0.8125,0.84375,0.875,0.9375,
1.,1.0625),.UNSPECIFIED.);
#57=PLANE('',#196);
#58=PLANE('',#198);
#59=PLANE('',#201);
#60=FACE_OUTER_BOUND('',#110,.T.);
#61=FACE_OUTER_BOUND('',#111,.T.);
#62=TOROIDAL_SURFACE('',#195,6.75,1.);
#63=TOROIDAL_SURFACE('',#205,10.,5.);
#64=CYLINDRICAL_SURFACE('',#193,7.75);
#65=CYLINDRICAL_SURFACE('',#203,5.);
#66=CYLINDRICAL_SURFACE('',#208,8.);
#67=ADVANCED_FACE('',(#82,#83),#80,.T.);
#68=ADVANCED_FACE('',(#84,#85),#64,.T.);
#69=ADVANCED_FACE('',(#86,#87),#62,.T.);
#70=ADVANCED_FACE('',(#60),#57,.F.);
#71=ADVANCED_FACE('',(#61),#58,.F.);
#72=ADVANCED_FACE('',(#88,#89),#54,.T.);
#73=ADVANCED_FACE('',(#90,#91),#59,.F.);
#74=ADVANCED_FACE('',(#92,#93),#65,.T.);
#75=ADVANCED_FACE('',(#94,#95),#63,.F.);
#76=ADVANCED_FACE('',(#96,#97),#81,.T.);
#77=ADVANCED_FACE('',(#98,#99),#66,.T.);
#78=ADVANCED_FACE('',(#100,#101),#32,.F.);
#79=ADVANCED_FACE('',(#102,#103),#33,.F.);
#80=CONICAL_SURFACE('',#191,7.75,10.0000000000001);
#81=CONICAL_SURFACE('',#207,8.,25.0000000000001);
#82=FACE_BOUND('',#104,.T.);
#83=FACE_BOUND('',#105,.T.);
#84=FACE_BOUND('',#106,.T.);
#85=FACE_BOUND('',#107,.T.);
#86=FACE_BOUND('',#108,.T.);
#87=FACE_BOUND('',#109,.T.);
#88=FACE_BOUND('',#112,.T.);
#89=FACE_BOUND('',#113,.T.);
#90=FACE_BOUND('',#114,.T.);
#91=FACE_BOUND('',#115,.T.);
#92=FACE_BOUND('',#116,.T.);
#93=FACE_BOUND('',#117,.T.);
#94=FACE_BOUND('',#118,.T.);
#95=FACE_BOUND('',#119,.T.);
#96=FACE_BOUND('',#120,.T.);
#97=FACE_BOUND('',#121,.T.);
#98=FACE_BOUND('',#122,.T.);
#99=FACE_BOUND('',#123,.T.);
#100=FACE_BOUND('',#124,.T.);
#101=FACE_BOUND('',#125,.T.);
#102=FACE_BOUND('',#126,.T.);
#103=FACE_BOUND('',#127,.T.);
#104=EDGE_LOOP('',(#128));
#105=EDGE_LOOP('',(#129));
#106=EDGE_LOOP('',(#130));
#107=EDGE_LOOP('',(#131));
#108=EDGE_LOOP('',(#132));
#109=EDGE_LOOP('',(#133));
#110=EDGE_LOOP('',(#134));
#111=EDGE_LOOP('',(#135));
#112=EDGE_LOOP('',(#136));
#113=EDGE_LOOP('',(#137));
#114=EDGE_LOOP('',(#138));
#115=EDGE_LOOP('',(#139));
#116=EDGE_LOOP('',(#140));
#117=EDGE_LOOP('',(#141));
#118=EDGE_LOOP('',(#142));
#119=EDGE_LOOP('',(#143));
#120=EDGE_LOOP('',(#144));
#121=EDGE_LOOP('',(#145));
#122=EDGE_LOOP('',(#146));
#123=EDGE_LOOP('',(#147));
#124=EDGE_LOOP('',(#148));
#125=EDGE_LOOP('',(#149));
#126=EDGE_LOOP('',(#150));
#127=EDGE_LOOP('',(#151));
#128=ORIENTED_EDGE('',*,*,#164,.F.);
#129=ORIENTED_EDGE('',*,*,#165,.T.);
#130=ORIENTED_EDGE('',*,*,#165,.F.);
#131=ORIENTED_EDGE('',*,*,#166,.T.);
#132=ORIENTED_EDGE('',*,*,#166,.F.);
#133=ORIENTED_EDGE('',*,*,#167,.T.);
#134=ORIENTED_EDGE('',*,*,#167,.F.);
#135=ORIENTED_EDGE('',*,*,#168,.T.);
#136=ORIENTED_EDGE('',*,*,#168,.F.);
#137=ORIENTED_EDGE('',*,*,#169,.T.);
#138=ORIENTED_EDGE('',*,*,#169,.F.);
#139=ORIENTED_EDGE('',*,*,#170,.T.);
#140=ORIENTED_EDGE('',*,*,#170,.F.);
#141=ORIENTED_EDGE('',*,*,#171,.T.);
#142=ORIENTED_EDGE('',*,*,#171,.F.);
#143=ORIENTED_EDGE('',*,*,#172,.T.);
#144=ORIENTED_EDGE('',*,*,#172,.F.);
#145=ORIENTED_EDGE('',*,*,#173,.T.);
#146=ORIENTED_EDGE('',*,*,#173,.F.);
#147=ORIENTED_EDGE('',*,*,#164,.T.);
#148=ORIENTED_EDGE('',*,*,#174,.T.);
#149=ORIENTED_EDGE('',*,*,#175,.T.);
#150=ORIENTED_EDGE('',*,*,#175,.F.);
#151=ORIENTED_EDGE('',*,*,#174,.F.);
#152=VERTEX_POINT('',#260);
#153=VERTEX_POINT('',#262);
#154=VERTEX_POINT('',#265);
#155=VERTEX_POINT('',#268);
#156=VERTEX_POINT('',#272);
#157=VERTEX_POINT('',#275);
#158=VERTEX_POINT('',#334);
#159=VERTEX_POINT('',#337);
#160=VERTEX_POINT('',#340);
#161=VERTEX_POINT('',#343);
#162=VERTEX_POINT('',#347);
#163=VERTEX_POINT('',#349);
#164=EDGE_CURVE('',#152,#152,#176,.T.);
#165=EDGE_CURVE('',#153,#153,#177,.T.);
#166=EDGE_CURVE('',#154,#154,#178,.T.);
#167=EDGE_CURVE('',#155,#155,#179,.T.);
#168=EDGE_CURVE('',#156,#156,#180,.T.);
#169=EDGE_CURVE('',#157,#157,#181,.T.);
#170=EDGE_CURVE('',#158,#158,#182,.T.);
#171=EDGE_CURVE('',#159,#159,#183,.T.);
#172=EDGE_CURVE('',#160,#160,#184,.T.);
#173=EDGE_CURVE('',#161,#161,#185,.T.);
#174=EDGE_CURVE('',#162,#162,#186,.T.);
#175=EDGE_CURVE('',#163,#163,#187,.T.);
#176=CIRCLE('',#189,8.);
#177=CIRCLE('',#190,7.75);
#178=CIRCLE('',#192,7.75);
#179=CIRCLE('',#194,6.75);
#180=CIRCLE('',#197,5.13050326597856);
#181=CIRCLE('',#199,5.13101421093573);
#182=CIRCLE('',#200,5.);
#183=CIRCLE('',#202,5.);
#184=CIRCLE('',#204,5.46846106481675);
#185=CIRCLE('',#206,8.);
#186=CIRCLE('',#209,3.5);
#187=CIRCLE('',#210,3.5);
#188=AXIS2_PLACEMENT_3D('',#258,#211,#212);
#189=AXIS2_PLACEMENT_3D('',#259,#213,#214);
#190=AXIS2_PLACEMENT_3D('',#261,#215,#216);
#191=AXIS2_PLACEMENT_3D('',#263,#217,#218);
#192=AXIS2_PLACEMENT_3D('',#264,#219,#220);
#193=AXIS2_PLACEMENT_3D('',#266,#221,#222);
#194=AXIS2_PLACEMENT_3D('',#267,#223,#224);
#195=AXIS2_PLACEMENT_3D('',#269,#225,#226);
#196=AXIS2_PLACEMENT_3D('',#270,#227,#228);
#197=AXIS2_PLACEMENT_3D('',#271,#229,#230);
#198=AXIS2_PLACEMENT_3D('',#273,#231,#232);
#199=AXIS2_PLACEMENT_3D('',#274,#233,#234);
#200=AXIS2_PLACEMENT_3D('',#333,#236,#237);
#201=AXIS2_PLACEMENT_3D('',#335,#238,#239);
#202=AXIS2_PLACEMENT_3D('',#336,#240,#241);
#203=AXIS2_PLACEMENT_3D('',#338,#242,#243);
#204=AXIS2_PLACEMENT_3D('',#339,#244,#245);
#205=AXIS2_PLACEMENT_3D('',#341,#246,#247);
#206=AXIS2_PLACEMENT_3D('',#342,#248,#249);
#207=AXIS2_PLACEMENT_3D('',#344,#250,#251);
#208=AXIS2_PLACEMENT_3D('',#345,#252,#253);
#209=AXIS2_PLACEMENT_3D('',#346,#254,#255);
#210=AXIS2_PLACEMENT_3D('',#348,#256,#257);
#211=DIRECTION('',(0.,0.,1.));
#212=DIRECTION('',(1.,0.,0.));
#213=DIRECTION('',(-1.,0.,0.));
#214=DIRECTION('',(0.,0.,1.));
#215=DIRECTION('',(-1.,0.,0.));
#216=DIRECTION('',(0.,0.,1.));
#217=DIRECTION('',(-1.,0.,0.));
#218=DIRECTION('',(-1.50782436287279E-16,0.,1.));
#219=DIRECTION('',(-1.,0.,0.));
#220=DIRECTION('',(0.,0.,1.));
#221=DIRECTION('',(-1.,0.,0.));
#222=DIRECTION('',(0.,0.,1.));
#223=DIRECTION('',(-1.,0.,0.));
#224=DIRECTION('',(0.,0.,1.));
#225=DIRECTION('',(-1.,0.,0.));
#226=DIRECTION('',(0.,0.,1.));
#227=DIRECTION('',(-1.,0.,0.));
#228=DIRECTION('',(0.,0.,1.));
#229=DIRECTION('',(-1.,0.,0.));
#230=DIRECTION('',(0.,0.,1.));
#231=DIRECTION('',(1.,0.,0.));
#232=DIRECTION('',(0.,0.,-1.));
#233=DIRECTION('',(-1.,0.,0.));
#234=DIRECTION('',(0.,0.,1.));
#235=DIRECTION('',(-1.,0.,0.));
#236=DIRECTION('',(-1.,0.,0.));
#237=DIRECTION('',(0.,0.,1.));
#238=DIRECTION('',(-1.,0.,0.));
#239=DIRECTION('',(0.,0.,1.));
#240=DIRECTION('',(-1.,0.,0.));
#241=DIRECTION('',(0.,0.,1.));
#242=DIRECTION('',(-1.,0.,0.));
#243=DIRECTION('',(0.,0.,1.));
#244=DIRECTION('',(-1.,0.,0.));
#245=DIRECTION('',(0.,0.,1.));
#246=DIRECTION('',(-1.,0.,0.));
#247=DIRECTION('',(0.,0.,1.));
#248=DIRECTION('',(-1.,0.,0.));
#249=DIRECTION('',(0.,0.,1.));
#250=DIRECTION('',(1.,0.,0.));
#251=DIRECTION('',(1.31665690109429E-16,0.,-1.));
#252=DIRECTION('',(-1.,0.,0.));
#253=DIRECTION('',(0.,0.,1.));
#254=DIRECTION('',(0.,0.979795897113271,0.2));
#255=DIRECTION('',(1.,0.,0.));
#256=DIRECTION('',(0.,0.,-1.));
#257=DIRECTION('',(1.,0.,0.));
#258=CARTESIAN_POINT('',(0.,0.,0.));
#259=CARTESIAN_POINT('',(84.5821795450956,0.,0.));
#260=CARTESIAN_POINT('',(84.5821795450956,0.,8.));
#261=CARTESIAN_POINT('',(86.,0.,0.));
#262=CARTESIAN_POINT('',(86.,0.,7.75));
#263=CARTESIAN_POINT('',(86.,0.,0.));
#264=CARTESIAN_POINT('',(89.,0.,0.));
#265=CARTESIAN_POINT('',(89.,0.,7.75));
#266=CARTESIAN_POINT('',(0.,0.,0.));
#267=CARTESIAN_POINT('',(90.,0.,0.));
#268=CARTESIAN_POINT('',(90.,0.,6.75));
#269=CARTESIAN_POINT('',(89.,0.,0.));
#270=CARTESIAN_POINT('',(90.,0.,0.));
#271=CARTESIAN_POINT('',(0.737722621653083,0.,0.));
#272=CARTESIAN_POINT('',(0.737722621653083,0.,5.13050326597856));
#273=CARTESIAN_POINT('',(0.737722621653083,5.13050326597856,0.));
#274=CARTESIAN_POINT('',(6.26227035544914,0.,0.));
#275=CARTESIAN_POINT('',(6.26227035544914,0.,5.13101421093573));
#276=CARTESIAN_POINT('',(3.14420408265747,2.57897123570723,0.));
#277=CARTESIAN_POINT('',(3.85579591734253,2.57897123570724,0.));
#278=CARTESIAN_POINT('',(4.21172148363452,2.6368226583497,0.));
#279=CARTESIAN_POINT('',(4.71045071220147,2.81306079132699,0.));
#280=CARTESIAN_POINT('',(4.87301019934308,2.88773826217066,0.));
#281=CARTESIAN_POINT('',(5.17860757402775,3.06717497451339,0.));
#282=CARTESIAN_POINT('',(5.32086604633576,3.17105039289832,0.));
#283=CARTESIAN_POINT('',(5.58307245157211,3.40876757219423,0.));
#284=CARTESIAN_POINT('',(5.70242504953545,3.54283327459978,0.));
#285=CARTESIAN_POINT('',(5.90663475540621,3.829373515495,0.));
#286=CARTESIAN_POINT('',(5.99364977586318,3.98428683797793,0.));
#287=CARTESIAN_POINT('',(6.13301195395797,4.31156736659905,0.));
#288=CARTESIAN_POINT('',(6.18396535281658,4.47994969239735,0.));
#289=CARTESIAN_POINT('',(6.2502593582473,4.82573190297049,0.));
#290=CARTESIAN_POINT('',(6.26529337247146,5.00511337925159,0.));
#291=CARTESIAN_POINT('',(6.25824191650452,5.35763342548786,0.));
#292=CARTESIAN_POINT('',(6.23678897195319,5.53204595143129,0.));
#293=CARTESIAN_POINT('',(6.15842754808429,5.87721711761532,0.));
#294=CARTESIAN_POINT('',(6.10126816428457,6.04691276212621,0.));
#295=CARTESIAN_POINT('',(5.88469615598307,6.52764796654219,0.));
#296=CARTESIAN_POINT('',(5.67395344132635,6.82250396847394,0.));
#297=CARTESIAN_POINT('',(5.29115936032218,7.1850110234411,0.));
#298=CARTESIAN_POINT('',(5.15043064140504,7.29483193256014,0.));
#299=CARTESIAN_POINT('',(4.85132545908258,7.48501379799391,0.));
#300=CARTESIAN_POINT('',(4.69461309091897,7.56474348496738,0.));
#301=CARTESIAN_POINT('',(4.36723636812965,7.69426898072489,0.));
#302=CARTESIAN_POINT('',(4.19473794713034,7.74422738255989,0.));
#303=CARTESIAN_POINT('',(3.84799563499184,7.80981351776299,0.));
#304=CARTESIAN_POINT('',(3.67299858166912,7.82611237404459,0.));
#305=CARTESIAN_POINT('',(3.31974618093954,7.8256557278216,0.));
#306=CARTESIAN_POINT('',(3.14117065213585,7.80841163628007,0.));
#307=CARTESIAN_POINT('',(2.79558508494312,7.74171010071888,0.));
#308=CARTESIAN_POINT('',(2.6266536968953,7.69238172951846,0.));
#309=CARTESIAN_POINT('',(2.13180479959022,7.49496973543103,0.));
#310=CARTESIAN_POINT('',(1.83107306998207,7.30250483080541,0.));
#311=CARTESIAN_POINT('',(1.44553260425268,6.93475092760083,0.));
#312=CARTESIAN_POINT('',(1.33047344482023,6.80147756444226,0.));
#313=CARTESIAN_POINT('',(1.1269425800007,6.51380855981682,0.));
#314=CARTESIAN_POINT('',(1.03792917451454,6.35771023989147,0.));
#315=CARTESIAN_POINT('',(0.894350922442188,6.03524932118496,0.));
#316=CARTESIAN_POINT('',(0.838855270886036,5.86816762868938,0.));
#317=CARTESIAN_POINT('',(0.761605343791984,5.52188720519501,0.));
#318=CARTESIAN_POINT('',(0.740652526966969,5.34462748586572,0.));
#319=CARTESIAN_POINT('',(0.735364267561566,4.99254092002394,0.));
#320=CARTESIAN_POINT('',(0.751064032108734,4.81424938407416,0.));
#321=CARTESIAN_POINT('',(0.819538580163107,4.4665925693476,0.));
#322=CARTESIAN_POINT('',(0.871594918874649,4.29848708470591,0.));
#323=CARTESIAN_POINT('',(1.01181935030319,3.97387407419175,0.));
#324=CARTESIAN_POINT('',(1.10055930948875,3.81769478842096,0.));
#325=CARTESIAN_POINT('',(1.30590536827774,3.53285353890921,0.));
#326=CARTESIAN_POINT('',(1.42332893391495,3.40199205768416,0.));
#327=CARTESIAN_POINT('',(1.82069294575452,3.04474464114859,0.));
#328=CARTESIAN_POINT('',(2.1254109174575,2.87034020161479,0.));
#329=CARTESIAN_POINT('',(2.79677738306488,2.63455377546454,0.));
#330=CARTESIAN_POINT('',(3.14420408265747,2.57897123570723,0.));
#331=CARTESIAN_POINT('',(3.85579591734253,2.57897123570724,0.));
#332=CARTESIAN_POINT('',(0.,0.,0.));
#333=CARTESIAN_POINT('',(6.26227035544914,0.,0.));
#334=CARTESIAN_POINT('',(6.26227035544914,0.,5.));
#335=CARTESIAN_POINT('',(6.26227035544914,5.1310142109359,0.));
#336=CARTESIAN_POINT('',(10.8915266867853,0.,0.));
#337=CARTESIAN_POINT('',(10.8915266867853,0.,5.));
#338=CARTESIAN_POINT('',(0.,0.,0.));
#339=CARTESIAN_POINT('',(13.0046179954888,0.,0.));
#340=CARTESIAN_POINT('',(13.0046179954888,0.,5.46846106481675));
#341=CARTESIAN_POINT('',(10.8915266867853,0.,0.));
#342=CARTESIAN_POINT('',(18.4335207615286,0.,0.));
#343=CARTESIAN_POINT('',(18.4335207615286,0.,8.));
#344=CARTESIAN_POINT('',(18.4335207615286,0.,0.));
#345=CARTESIAN_POINT('',(0.,0.,0.));
#346=CARTESIAN_POINT('',(3.5,-0.00839840288672958,5.04114360345361));
#347=CARTESIAN_POINT('',(7.,-0.00839840288672958,5.04114360345361));
#348=CARTESIAN_POINT('',(3.5,-4.9409715,1.));
#349=CARTESIAN_POINT('',(7.,-4.9409715,1.));
#350=CARTESIAN_POINT('',(7.,-4.9409715,1.));
#351=CARTESIAN_POINT('',(7.,-6.06811413410832,-4.56917963156415));
#352=CARTESIAN_POINT('',(7.,-1.20053486232897,-7.50054182672149));
#353=CARTESIAN_POINT('',(7.,3.19480453468342,-3.89954142803721));
#354=CARTESIAN_POINT('',(7.,7.59014393169581,-0.298541029352928));
#355=CARTESIAN_POINT('',(7.,5.67368947722829,5.05060980140565));
#356=CARTESIAN_POINT('',(7.,-0.00839840288672849,5.04114360345361));
#357=CARTESIAN_POINT('',(7.,2.0590285,1.));
#358=CARTESIAN_POINT('',(7.00000000000001,0.931885865891678,3.32081880719411));
#359=CARTESIAN_POINT('',(7.00000000000001,-1.63263838668963,3.03821340849689));
#360=CARTESIAN_POINT('',(7.,-2.22737215000696,0.527647296198517));
#361=CARTESIAN_POINT('',(7.00000000000001,-2.8221059133243,-1.98291881609985));
#362=CARTESIAN_POINT('',(7.00000000000001,-0.656898621297168,-3.3859611661389));
#363=CARTESIAN_POINT('',(7.,1.39160159711327,-1.81742767633929));
#364=CARTESIAN_POINT('',(1.29093362839735E-15,2.0590285,1.));
#365=CARTESIAN_POINT('',(1.29093362839735E-15,0.931885865891678,3.32081880719411));
#366=CARTESIAN_POINT('',(1.29093362839735E-15,-1.63263838668963,3.03821340849689));
#367=CARTESIAN_POINT('',(1.29093362839735E-15,-2.22737215000696,0.527647296198517));
#368=CARTESIAN_POINT('',(1.29093362839735E-15,-2.8221059133243,-1.98291881609985));
#369=CARTESIAN_POINT('',(1.29093362839735E-15,-0.656898621297168,-3.3859611661389));
#370=CARTESIAN_POINT('',(1.29093362839735E-15,1.39160159711327,-1.81742767633929));
#371=CARTESIAN_POINT('',(4.33680868994202E-16,-4.9409715,1.));
#372=CARTESIAN_POINT('',(4.33680868994201E-16,-6.06811413410832,-4.56917963156415));
#373=CARTESIAN_POINT('',(4.33680868994201E-16,-1.20053486232897,-7.50054182672149));
#374=CARTESIAN_POINT('',(4.33680868994202E-16,3.19480453468342,-3.89954142803721));
#375=CARTESIAN_POINT('',(4.33680868994201E-16,7.59014393169581,-0.298541029352928));
#376=CARTESIAN_POINT('',(4.33680868994201E-16,5.67368947722829,5.05060980140565));
#377=CARTESIAN_POINT('',(4.33680868994202E-16,-0.00839840288672849,5.04114360345361));
#378=CARTESIAN_POINT('',(-4.23571890408945E-16,-11.9409715,1.));
#379=CARTESIAN_POINT('',(-4.23571890408946E-16,-13.0681141341083,-12.4591780703224));
#380=CARTESIAN_POINT('',(-4.23571890408946E-16,-0.768431337968321,-18.0392970619399));
#381=CARTESIAN_POINT('',(-4.23571890408945E-16,8.6169812193738,-8.32673015227294));
#382=CARTESIAN_POINT('',(-4.23571890408946E-16,18.0023937767159,1.38583675739399));
#383=CARTESIAN_POINT('',(-4.23571890408946E-16,12.0042775757538,13.4871807689502));
#384=CARTESIAN_POINT('',(-4.23571890408945E-16,-1.40839840288673,11.8997148832465));
#385=CARTESIAN_POINT('',(7.,-11.9409715,1.));
#386=CARTESIAN_POINT('',(7.00000000000001,-13.0681141341083,-12.4591780703224));
#387=CARTESIAN_POINT('',(7.00000000000001,-0.768431337968321,-18.0392970619399));
#388=CARTESIAN_POINT('',(7.,8.6169812193738,-8.32673015227294));
#389=CARTESIAN_POINT('',(7.00000000000001,18.0023937767159,1.38583675739399));
#390=CARTESIAN_POINT('',(7.00000000000001,12.0042775757538,13.4871807689502));
#391=CARTESIAN_POINT('',(7.,-1.40839840288673,11.8997148832465));
#392=CARTESIAN_POINT('',(7.,-4.9409715,1.));
#393=CARTESIAN_POINT('',(7.,-6.06811413410832,-4.56917963156415));
#394=CARTESIAN_POINT('',(7.,-1.20053486232897,-7.50054182672149));
#395=CARTESIAN_POINT('',(7.,3.19480453468342,-3.89954142803721));
#396=CARTESIAN_POINT('',(7.,7.59014393169581,-0.298541029352928));
#397=CARTESIAN_POINT('',(7.,5.67368947722829,5.05060980140565));
#398=CARTESIAN_POINT('',(7.,-0.00839840288672849,5.04114360345361));
#399=CARTESIAN_POINT('',(7.,-0.00839840288672958,5.04114360345361));
#400=CARTESIAN_POINT('',(7.,-2.50981648808993,5.03697631156109));
#401=CARTESIAN_POINT('',(7.,-4.44477097845772,3.45171263522554));
#402=CARTESIAN_POINT('',(7.,-4.9409715,1.));
#403=CARTESIAN_POINT('',(7.,1.39160159711327,-1.81742767633929));
#404=CARTESIAN_POINT('',(6.99999999999999,2.2934101579782,-1.12691423807262));
#405=CARTESIAN_POINT('',(6.99999999999999,2.55522902154228,-0.0216910155704159));
#406=CARTESIAN_POINT('',(7.,2.0590285,1.));
#407=CARTESIAN_POINT('',(1.29093362839735E-15,1.39160159711327,-1.81742767633929));
#408=CARTESIAN_POINT('',(1.29093362839735E-15,2.2934101579782,-1.12691423807262));
#409=CARTESIAN_POINT('',(1.29093362839735E-15,2.55522902154228,-0.0216910155704159));
#410=CARTESIAN_POINT('',(1.29093362839735E-15,2.0590285,1.));
#411=CARTESIAN_POINT('',(4.33680868994202E-16,-0.00839840288672958,5.04114360345361));
#412=CARTESIAN_POINT('',(4.33680868994202E-16,-2.50981648808993,5.03697631156109));
#413=CARTESIAN_POINT('',(4.33680868994202E-16,-4.44477097845772,3.45171263522554));
#414=CARTESIAN_POINT('',(4.33680868994202E-16,-4.9409715,1.));
#415=CARTESIAN_POINT('',(-4.23571890408945E-16,-1.40839840288673,11.8997148832465));
#416=CARTESIAN_POINT('',(-4.23571890408945E-16,-7.31304313415806,11.2008668611948));
#417=CARTESIAN_POINT('',(-4.23571890408945E-16,-11.4447709784577,6.92511628602148));
#418=CARTESIAN_POINT('',(-4.23571890408945E-16,-11.9409715,0.999999999999999));
#419=CARTESIAN_POINT('',(7.,-1.40839840288673,11.8997148832465));
#420=CARTESIAN_POINT('',(6.99999999999999,-7.31304313415806,11.2008668611948));
#421=CARTESIAN_POINT('',(6.99999999999999,-11.4447709784577,6.92511628602148));
#422=CARTESIAN_POINT('',(7.,-11.9409715,0.999999999999999));
#423=CARTESIAN_POINT('',(7.,-0.00839840288672958,5.04114360345361));
#424=CARTESIAN_POINT('',(7.,-2.50981648808993,5.03697631156109));
#425=CARTESIAN_POINT('',(7.,-4.44477097845772,3.45171263522554));
#426=CARTESIAN_POINT('',(7.,-4.9409715,1.));
#427=MECHANICAL_DESIGN_GEOMETRIC_PRESENTATION_REPRESENTATION('',(#35,#36),
#428);
#428=(
GEOMETRIC_REPRESENTATION_CONTEXT(3)
GLOBAL_UNCERTAINTY_ASSIGNED_CONTEXT((#429))
GLOBAL_UNIT_ASSIGNED_CONTEXT((#435,#431,#430))
REPRESENTATION_CONTEXT('ATSMR-RD0702-D17-W16-L90-Z02',
'TOP_LEVEL_ASSEMBLY_PART')
);
#429=UNCERTAINTY_MEASURE_WITH_UNIT(LENGTH_MEASURE(2.E-5),#435,
'DISTANCE_ACCURACY_VALUE','Maximum Tolerance applied to model');
#430=(
NAMED_UNIT(*)
SI_UNIT($,.STERADIAN.)
SOLID_ANGLE_UNIT()
);
#431=(
CONVERSION_BASED_UNIT('DEGREE',#433)
NAMED_UNIT(#432)
PLANE_ANGLE_UNIT()
);
#432=DIMENSIONAL_EXPONENTS(0.,0.,0.,0.,0.,0.,0.);
#433=PLANE_ANGLE_MEASURE_WITH_UNIT(PLANE_ANGLE_MEASURE(0.0174532925),#434);
#434=(
NAMED_UNIT(*)
PLANE_ANGLE_UNIT()
SI_UNIT($,.RADIAN.)
);
#435=(
LENGTH_UNIT()
NAMED_UNIT(*)
SI_UNIT(.MILLI.,.METRE.)
);
ENDSEC;
END-ISO-10303-21;
