ISO-10303-21;
HEADER;
/* Generated by software containing ST-Developer
 * from STEP Tools, Inc. (www.steptools.com) 
 */
/* OPTION: using custom schema-name function */

FILE_DESCRIPTION(
/* description */ (''),
/* implementation_level */ '2;1');

FILE_NAME(
/* name */ 'ATSMR-RD12T3-D80-W32-L165-Z06-H.stp',
/* time_stamp */ '2023-10-04T09:02:19+03:00',
/* author */ (''),
/* organization */ (''),
/* preprocessor_version */ 'ST-DEVELOPER v19.4',
/* originating_system */ 'SIEMENS PLM Software NX2306.5001',
/* authorisation */ '');

FILE_SCHEMA (('AUTOMOTIVE_DESIGN { 1 0 10303 214 3 1 1 1 }'));
ENDSEC;

DATA;
#10=PROPERTY_DEFINITION_REPRESENTATION(#14,#12);
#11=PROPERTY_DEFINITION_REPRESENTATION(#15,#13);
#12=REPRESENTATION('',(#16),#483);
#13=REPRESENTATION('',(#17),#483);
#14=PROPERTY_DEFINITION('pmi validation property','',#21);
#15=PROPERTY_DEFINITION('pmi validation property','',#21);
#16=VALUE_REPRESENTATION_ITEM('number of annotations',COUNT_MEASURE(0.));
#17=VALUE_REPRESENTATION_ITEM('number of views',COUNT_MEASURE(0.));
#18=SHAPE_REPRESENTATION_RELATIONSHIP('None',
'relationship between ATSMR-RD12T3-D80-W32-L165-Z06-H-LIGHT_x_t_object
s-None and ATSMR-RD12T3-D80-W32-L165-Z06-H-LIGHT_x_t_objects-None',#30,
#19);
#19=ADVANCED_BREP_SHAPE_REPRESENTATION(
'ATSMR-RD12T3-D80-W32-L165-Z06-H-LIGHT_x_t_objects-None',(#62,#63),#483);
#20=SHAPE_DEFINITION_REPRESENTATION(#21,#30);
#21=PRODUCT_DEFINITION_SHAPE('','',#22);
#22=PRODUCT_DEFINITION(' ','',#24,#23);
#23=PRODUCT_DEFINITION_CONTEXT('part definition',#29,'design');
#24=PRODUCT_DEFINITION_FORMATION_WITH_SPECIFIED_SOURCE(' ',' ',#26,
 .NOT_KNOWN.);
#25=PRODUCT_RELATED_PRODUCT_CATEGORY('part','',(#26));
#26=PRODUCT('ATSMR-RD12T3-D80-W32-L165-Z06-H-LIGHT_x_t_objects',
'ATSMR-RD12T3-D80-W32-L165-Z06-H-LIGHT_x_t_objects',' ',(#27));
#27=PRODUCT_CONTEXT(' ',#29,'mechanical');
#28=APPLICATION_PROTOCOL_DEFINITION('international standard',
'automotive_design',2010,#29);
#29=APPLICATION_CONTEXT(
'core data for automotive mechanical design processes');
#30=SHAPE_REPRESENTATION(
'ATSMR-RD12T3-D80-W32-L165-Z06-H-LIGHT_x_t_objects-None',(#285),#483);
#31=COLOUR_RGB('silver gray',0.6,0.6,0.6);
#32=FACE_OUTER_BOUND('',#172,.T.);
#33=FACE_OUTER_BOUND('',#173,.T.);
#34=PLANE('',#302);
#35=PLANE('',#310);
#36=PLANE('',#314);
#37=PLANE('',#321);
#38=PLANE('',#323);
#39=CONICAL_SURFACE('',#294,16.,24.999999999999);
#40=CONICAL_SURFACE('',#306,24.0380626643584,80.0000000000003);
#41=CONICAL_SURFACE('',#318,24.827680971718,80.);
#42=CONICAL_SURFACE('',#328,15.75,10.0000000000001);
#43=CYLINDRICAL_SURFACE('',#292,16.);
#44=CYLINDRICAL_SURFACE('',#298,15.75);
#45=CYLINDRICAL_SURFACE('',#327,15.75);
#46=PRESENTATION_LAYER_ASSIGNMENT('1','Layer 1',(#62,#63));
#47=STYLED_ITEM('',(#49),#62);
#48=STYLED_ITEM('',(#50),#63);
#49=PRESENTATION_STYLE_ASSIGNMENT((#51));
#50=PRESENTATION_STYLE_ASSIGNMENT((#52));
#51=SURFACE_STYLE_USAGE(.BOTH.,#53);
#52=SURFACE_STYLE_USAGE(.BOTH.,#54);
#53=SURFACE_SIDE_STYLE('',(#55));
#54=SURFACE_SIDE_STYLE('',(#56));
#55=SURFACE_STYLE_FILL_AREA(#57);
#56=SURFACE_STYLE_FILL_AREA(#58);
#57=FILL_AREA_STYLE('',(#59));
#58=FILL_AREA_STYLE('',(#60));
#59=FILL_AREA_STYLE_COLOUR('',#61);
#60=FILL_AREA_STYLE_COLOUR('',#31);
#61=DRAUGHTING_PRE_DEFINED_COLOUR('yellow');
#62=MANIFOLD_SOLID_BREP('',#64);
#63=MANIFOLD_SOLID_BREP('',#65);
#64=CLOSED_SHELL('',(#66,#67));
#65=CLOSED_SHELL('',(#68,#69,#70,#71,#72,#73,#74,#75,#76,#77,#78,#79,#80,
#81,#82,#83,#84,#85,#86,#87));
#66=ADVANCED_FACE('',(#98,#99),#88,.T.);
#67=ADVANCED_FACE('',(#100,#101),#89,.T.);
#68=ADVANCED_FACE('',(#102,#103),#43,.T.);
#69=ADVANCED_FACE('',(#104,#105),#39,.T.);
#70=ADVANCED_FACE('',(#106,#107),#90,.F.);
#71=ADVANCED_FACE('',(#108,#109),#44,.T.);
#72=ADVANCED_FACE('',(#110,#111),#91,.F.);
#73=ADVANCED_FACE('',(#112,#113),#34,.F.);
#74=ADVANCED_FACE('',(#114,#115),#92,.F.);
#75=ADVANCED_FACE('',(#116,#117),#40,.F.);
#76=ADVANCED_FACE('',(#118,#119),#93,.T.);
#77=ADVANCED_FACE('',(#120,#121),#35,.F.);
#78=ADVANCED_FACE('',(#122,#123),#94,.T.);
#79=ADVANCED_FACE('',(#124,#125),#36,.F.);
#80=ADVANCED_FACE('',(#126,#127),#95,.T.);
#81=ADVANCED_FACE('',(#128,#129),#41,.F.);
#82=ADVANCED_FACE('',(#130,#131),#96,.F.);
#83=ADVANCED_FACE('',(#32),#37,.F.);
#84=ADVANCED_FACE('',(#33),#38,.F.);
#85=ADVANCED_FACE('',(#132,#133),#97,.T.);
#86=ADVANCED_FACE('',(#134,#135),#45,.T.);
#87=ADVANCED_FACE('',(#136,#137),#42,.T.);
#88=TOROIDAL_SURFACE('',#288,34.,6.);
#89=TOROIDAL_SURFACE('',#289,34.,6.);
#90=TOROIDAL_SURFACE('',#296,16.55,0.8);
#91=TOROIDAL_SURFACE('',#300,16.55,0.8);
#92=TOROIDAL_SURFACE('',#304,23.6907663090245,2.);
#93=TOROIDAL_SURFACE('',#308,25.1749773270519,2.);
#94=TOROIDAL_SURFACE('',#312,34.2309928431728,4.83624169968288);
#95=TOROIDAL_SURFACE('',#316,25.1749773270519,2.);
#96=TOROIDAL_SURFACE('',#320,23.6907663090246,2.);
#97=TOROIDAL_SURFACE('',#325,13.75,2.);
#98=FACE_BOUND('',#138,.T.);
#99=FACE_BOUND('',#139,.T.);
#100=FACE_BOUND('',#140,.T.);
#101=FACE_BOUND('',#141,.T.);
#102=FACE_BOUND('',#142,.T.);
#103=FACE_BOUND('',#143,.T.);
#104=FACE_BOUND('',#144,.T.);
#105=FACE_BOUND('',#145,.T.);
#106=FACE_BOUND('',#146,.T.);
#107=FACE_BOUND('',#147,.T.);
#108=FACE_BOUND('',#148,.T.);
#109=FACE_BOUND('',#149,.T.);
#110=FACE_BOUND('',#150,.T.);
#111=FACE_BOUND('',#151,.T.);
#112=FACE_BOUND('',#152,.T.);
#113=FACE_BOUND('',#153,.T.);
#114=FACE_BOUND('',#154,.T.);
#115=FACE_BOUND('',#155,.T.);
#116=FACE_BOUND('',#156,.T.);
#117=FACE_BOUND('',#157,.T.);
#118=FACE_BOUND('',#158,.T.);
#119=FACE_BOUND('',#159,.T.);
#120=FACE_BOUND('',#160,.T.);
#121=FACE_BOUND('',#161,.T.);
#122=FACE_BOUND('',#162,.T.);
#123=FACE_BOUND('',#163,.T.);
#124=FACE_BOUND('',#164,.T.);
#125=FACE_BOUND('',#165,.T.);
#126=FACE_BOUND('',#166,.T.);
#127=FACE_BOUND('',#167,.T.);
#128=FACE_BOUND('',#168,.T.);
#129=FACE_BOUND('',#169,.T.);
#130=FACE_BOUND('',#170,.T.);
#131=FACE_BOUND('',#171,.T.);
#132=FACE_BOUND('',#174,.T.);
#133=FACE_BOUND('',#175,.T.);
#134=FACE_BOUND('',#176,.T.);
#135=FACE_BOUND('',#177,.T.);
#136=FACE_BOUND('',#178,.T.);
#137=FACE_BOUND('',#179,.T.);
#138=EDGE_LOOP('',(#180));
#139=EDGE_LOOP('',(#181));
#140=EDGE_LOOP('',(#182));
#141=EDGE_LOOP('',(#183));
#142=EDGE_LOOP('',(#184));
#143=EDGE_LOOP('',(#185));
#144=EDGE_LOOP('',(#186));
#145=EDGE_LOOP('',(#187));
#146=EDGE_LOOP('',(#188));
#147=EDGE_LOOP('',(#189));
#148=EDGE_LOOP('',(#190));
#149=EDGE_LOOP('',(#191));
#150=EDGE_LOOP('',(#192));
#151=EDGE_LOOP('',(#193));
#152=EDGE_LOOP('',(#194));
#153=EDGE_LOOP('',(#195));
#154=EDGE_LOOP('',(#196));
#155=EDGE_LOOP('',(#197));
#156=EDGE_LOOP('',(#198));
#157=EDGE_LOOP('',(#199));
#158=EDGE_LOOP('',(#200));
#159=EDGE_LOOP('',(#201));
#160=EDGE_LOOP('',(#202));
#161=EDGE_LOOP('',(#203));
#162=EDGE_LOOP('',(#204));
#163=EDGE_LOOP('',(#205));
#164=EDGE_LOOP('',(#206));
#165=EDGE_LOOP('',(#207));
#166=EDGE_LOOP('',(#208));
#167=EDGE_LOOP('',(#209));
#168=EDGE_LOOP('',(#210));
#169=EDGE_LOOP('',(#211));
#170=EDGE_LOOP('',(#212));
#171=EDGE_LOOP('',(#213));
#172=EDGE_LOOP('',(#214));
#173=EDGE_LOOP('',(#215));
#174=EDGE_LOOP('',(#216));
#175=EDGE_LOOP('',(#217));
#176=EDGE_LOOP('',(#218));
#177=EDGE_LOOP('',(#219));
#178=EDGE_LOOP('',(#220));
#179=EDGE_LOOP('',(#221));
#180=ORIENTED_EDGE('',*,*,#243,.F.);
#181=ORIENTED_EDGE('',*,*,#244,.F.);
#182=ORIENTED_EDGE('',*,*,#244,.T.);
#183=ORIENTED_EDGE('',*,*,#243,.T.);
#184=ORIENTED_EDGE('',*,*,#245,.F.);
#185=ORIENTED_EDGE('',*,*,#246,.T.);
#186=ORIENTED_EDGE('',*,*,#247,.F.);
#187=ORIENTED_EDGE('',*,*,#245,.T.);
#188=ORIENTED_EDGE('',*,*,#248,.F.);
#189=ORIENTED_EDGE('',*,*,#247,.T.);
#190=ORIENTED_EDGE('',*,*,#249,.F.);
#191=ORIENTED_EDGE('',*,*,#248,.T.);
#192=ORIENTED_EDGE('',*,*,#250,.F.);
#193=ORIENTED_EDGE('',*,*,#249,.T.);
#194=ORIENTED_EDGE('',*,*,#251,.F.);
#195=ORIENTED_EDGE('',*,*,#250,.T.);
#196=ORIENTED_EDGE('',*,*,#252,.F.);
#197=ORIENTED_EDGE('',*,*,#251,.T.);
#198=ORIENTED_EDGE('',*,*,#253,.F.);
#199=ORIENTED_EDGE('',*,*,#252,.T.);
#200=ORIENTED_EDGE('',*,*,#254,.F.);
#201=ORIENTED_EDGE('',*,*,#253,.T.);
#202=ORIENTED_EDGE('',*,*,#255,.F.);
#203=ORIENTED_EDGE('',*,*,#254,.T.);
#204=ORIENTED_EDGE('',*,*,#256,.F.);
#205=ORIENTED_EDGE('',*,*,#255,.T.);
#206=ORIENTED_EDGE('',*,*,#257,.F.);
#207=ORIENTED_EDGE('',*,*,#256,.T.);
#208=ORIENTED_EDGE('',*,*,#258,.F.);
#209=ORIENTED_EDGE('',*,*,#257,.T.);
#210=ORIENTED_EDGE('',*,*,#259,.F.);
#211=ORIENTED_EDGE('',*,*,#258,.T.);
#212=ORIENTED_EDGE('',*,*,#260,.F.);
#213=ORIENTED_EDGE('',*,*,#259,.T.);
#214=ORIENTED_EDGE('',*,*,#260,.T.);
#215=ORIENTED_EDGE('',*,*,#261,.F.);
#216=ORIENTED_EDGE('',*,*,#262,.F.);
#217=ORIENTED_EDGE('',*,*,#261,.T.);
#218=ORIENTED_EDGE('',*,*,#263,.F.);
#219=ORIENTED_EDGE('',*,*,#262,.T.);
#220=ORIENTED_EDGE('',*,*,#246,.F.);
#221=ORIENTED_EDGE('',*,*,#263,.T.);
#222=VERTEX_POINT('',#419);
#223=VERTEX_POINT('',#421);
#224=VERTEX_POINT('',#425);
#225=VERTEX_POINT('',#427);
#226=VERTEX_POINT('',#430);
#227=VERTEX_POINT('',#433);
#228=VERTEX_POINT('',#436);
#229=VERTEX_POINT('',#439);
#230=VERTEX_POINT('',#442);
#231=VERTEX_POINT('',#445);
#232=VERTEX_POINT('',#448);
#233=VERTEX_POINT('',#451);
#234=VERTEX_POINT('',#454);
#235=VERTEX_POINT('',#457);
#236=VERTEX_POINT('',#460);
#237=VERTEX_POINT('',#463);
#238=VERTEX_POINT('',#466);
#239=VERTEX_POINT('',#469);
#240=VERTEX_POINT('',#473);
#241=VERTEX_POINT('',#476);
#242=VERTEX_POINT('',#479);
#243=EDGE_CURVE('',#222,#222,#264,.T.);
#244=EDGE_CURVE('',#223,#223,#265,.T.);
#245=EDGE_CURVE('',#224,#224,#266,.T.);
#246=EDGE_CURVE('',#225,#225,#267,.T.);
#247=EDGE_CURVE('',#226,#226,#268,.T.);
#248=EDGE_CURVE('',#227,#227,#269,.T.);
#249=EDGE_CURVE('',#228,#228,#270,.T.);
#250=EDGE_CURVE('',#229,#229,#271,.T.);
#251=EDGE_CURVE('',#230,#230,#272,.T.);
#252=EDGE_CURVE('',#231,#231,#273,.T.);
#253=EDGE_CURVE('',#232,#232,#274,.T.);
#254=EDGE_CURVE('',#233,#233,#275,.T.);
#255=EDGE_CURVE('',#234,#234,#276,.T.);
#256=EDGE_CURVE('',#235,#235,#277,.T.);
#257=EDGE_CURVE('',#236,#236,#278,.T.);
#258=EDGE_CURVE('',#237,#237,#279,.T.);
#259=EDGE_CURVE('',#238,#238,#280,.T.);
#260=EDGE_CURVE('',#239,#239,#281,.T.);
#261=EDGE_CURVE('',#240,#240,#282,.T.);
#262=EDGE_CURVE('',#241,#241,#283,.T.);
#263=EDGE_CURVE('',#242,#242,#284,.T.);
#264=CIRCLE('',#286,6.);
#265=CIRCLE('',#287,6.);
#266=CIRCLE('',#290,16.);
#267=CIRCLE('',#291,16.);
#268=CIRCLE('',#293,15.8249537703707);
#269=CIRCLE('',#295,15.75);
#270=CIRCLE('',#297,15.75);
#271=CIRCLE('',#299,16.55);
#272=CIRCLE('',#301,23.6907663090245);
#273=CIRCLE('',#303,24.0380626643584);
#274=CIRCLE('',#305,24.827680971718);
#275=CIRCLE('',#307,25.1749773270519);
#276=CIRCLE('',#309,34.2309928431728);
#277=CIRCLE('',#311,34.2309928431728);
#278=CIRCLE('',#313,25.1749773270519);
#279=CIRCLE('',#315,24.827680971718);
#280=CIRCLE('',#317,24.0380626643585);
#281=CIRCLE('',#319,23.6907663090246);
#282=CIRCLE('',#322,13.75);
#283=CIRCLE('',#324,15.75);
#284=CIRCLE('',#326,15.75);
#285=AXIS2_PLACEMENT_3D('',#417,#329,#330);
#286=AXIS2_PLACEMENT_3D('',#418,#331,#332);
#287=AXIS2_PLACEMENT_3D('',#420,#333,#334);
#288=AXIS2_PLACEMENT_3D('',#422,#335,#336);
#289=AXIS2_PLACEMENT_3D('',#423,#337,#338);
#290=AXIS2_PLACEMENT_3D('',#424,#339,#340);
#291=AXIS2_PLACEMENT_3D('',#426,#341,#342);
#292=AXIS2_PLACEMENT_3D('',#428,#343,#344);
#293=AXIS2_PLACEMENT_3D('',#429,#345,#346);
#294=AXIS2_PLACEMENT_3D('',#431,#347,#348);
#295=AXIS2_PLACEMENT_3D('',#432,#349,#350);
#296=AXIS2_PLACEMENT_3D('',#434,#351,#352);
#297=AXIS2_PLACEMENT_3D('',#435,#353,#354);
#298=AXIS2_PLACEMENT_3D('',#437,#355,#356);
#299=AXIS2_PLACEMENT_3D('',#438,#357,#358);
#300=AXIS2_PLACEMENT_3D('',#440,#359,#360);
#301=AXIS2_PLACEMENT_3D('',#441,#361,#362);
#302=AXIS2_PLACEMENT_3D('',#443,#363,#364);
#303=AXIS2_PLACEMENT_3D('',#444,#365,#366);
#304=AXIS2_PLACEMENT_3D('',#446,#367,#368);
#305=AXIS2_PLACEMENT_3D('',#447,#369,#370);
#306=AXIS2_PLACEMENT_3D('',#449,#371,#372);
#307=AXIS2_PLACEMENT_3D('',#450,#373,#374);
#308=AXIS2_PLACEMENT_3D('',#452,#375,#376);
#309=AXIS2_PLACEMENT_3D('',#453,#377,#378);
#310=AXIS2_PLACEMENT_3D('',#455,#379,#380);
#311=AXIS2_PLACEMENT_3D('',#456,#381,#382);
#312=AXIS2_PLACEMENT_3D('',#458,#383,#384);
#313=AXIS2_PLACEMENT_3D('',#459,#385,#386);
#314=AXIS2_PLACEMENT_3D('',#461,#387,#388);
#315=AXIS2_PLACEMENT_3D('',#462,#389,#390);
#316=AXIS2_PLACEMENT_3D('',#464,#391,#392);
#317=AXIS2_PLACEMENT_3D('',#465,#393,#394);
#318=AXIS2_PLACEMENT_3D('',#467,#395,#396);
#319=AXIS2_PLACEMENT_3D('',#468,#397,#398);
#320=AXIS2_PLACEMENT_3D('',#470,#399,#400);
#321=AXIS2_PLACEMENT_3D('',#471,#401,#402);
#322=AXIS2_PLACEMENT_3D('',#472,#403,#404);
#323=AXIS2_PLACEMENT_3D('',#474,#405,#406);
#324=AXIS2_PLACEMENT_3D('',#475,#407,#408);
#325=AXIS2_PLACEMENT_3D('',#477,#409,#410);
#326=AXIS2_PLACEMENT_3D('',#478,#411,#412);
#327=AXIS2_PLACEMENT_3D('',#480,#413,#414);
#328=AXIS2_PLACEMENT_3D('',#481,#415,#416);
#329=DIRECTION('',(0.,0.,1.));
#330=DIRECTION('',(1.,0.,0.));
#331=DIRECTION('',(0.,-1.,-6.12323399573677E-17));
#332=DIRECTION('',(1.,0.,0.));
#333=DIRECTION('',(0.,0.,1.));
#334=DIRECTION('',(1.,0.,0.));
#335=DIRECTION('',(1.,0.,0.));
#336=DIRECTION('',(0.,0.,-1.));
#337=DIRECTION('',(1.,0.,0.));
#338=DIRECTION('',(0.,0.,-1.));
#339=DIRECTION('',(-1.,0.,0.));
#340=DIRECTION('',(0.,0.,1.));
#341=DIRECTION('',(-1.,0.,0.));
#342=DIRECTION('',(0.,0.,1.));
#343=DIRECTION('',(-1.,0.,0.));
#344=DIRECTION('',(0.,0.,1.));
#345=DIRECTION('',(-1.,0.,0.));
#346=DIRECTION('',(0.,0.,1.));
#347=DIRECTION('',(1.,0.,0.));
#348=DIRECTION('',(0.,0.,-1.));
#349=DIRECTION('',(-1.,0.,0.));
#350=DIRECTION('',(0.,0.,1.));
#351=DIRECTION('',(-1.,0.,0.));
#352=DIRECTION('',(0.,0.,1.));
#353=DIRECTION('',(-1.,0.,0.));
#354=DIRECTION('',(0.,0.,1.));
#355=DIRECTION('',(-1.,0.,0.));
#356=DIRECTION('',(0.,0.,1.));
#357=DIRECTION('',(-1.,0.,0.));
#358=DIRECTION('',(0.,0.,1.));
#359=DIRECTION('',(-1.,0.,0.));
#360=DIRECTION('',(0.,0.,1.));
#361=DIRECTION('',(-1.,0.,0.));
#362=DIRECTION('',(0.,0.,1.));
#363=DIRECTION('',(-1.,0.,0.));
#364=DIRECTION('',(0.,0.,1.));
#365=DIRECTION('',(-1.,0.,0.));
#366=DIRECTION('',(0.,0.,1.));
#367=DIRECTION('',(-1.,0.,0.));
#368=DIRECTION('',(0.,0.,1.));
#369=DIRECTION('',(-1.,0.,0.));
#370=DIRECTION('',(0.,0.,1.));
#371=DIRECTION('',(1.,0.,0.));
#372=DIRECTION('',(-4.56881310926912E-18,0.,-1.));
#373=DIRECTION('',(-1.,0.,0.));
#374=DIRECTION('',(0.,0.,1.));
#375=DIRECTION('',(-1.,0.,0.));
#376=DIRECTION('',(0.,0.,1.));
#377=DIRECTION('',(-1.,0.,0.));
#378=DIRECTION('',(0.,0.,1.));
#379=DIRECTION('',(-1.,0.,0.));
#380=DIRECTION('',(0.,0.,1.));
#381=DIRECTION('',(-1.,0.,0.));
#382=DIRECTION('',(0.,0.,1.));
#383=DIRECTION('',(-1.,0.,0.));
#384=DIRECTION('',(0.,0.,1.));
#385=DIRECTION('',(-1.,0.,0.));
#386=DIRECTION('',(0.,0.,1.));
#387=DIRECTION('',(1.,0.,0.));
#388=DIRECTION('',(0.,0.,-1.));
#389=DIRECTION('',(-1.,0.,0.));
#390=DIRECTION('',(0.,0.,1.));
#391=DIRECTION('',(-1.,0.,0.));
#392=DIRECTION('',(0.,0.,1.));
#393=DIRECTION('',(-1.,0.,0.));
#394=DIRECTION('',(0.,0.,1.));
#395=DIRECTION('',(-1.,0.,0.));
#396=DIRECTION('',(8.37499622934319E-18,0.,1.));
#397=DIRECTION('',(-1.,0.,0.));
#398=DIRECTION('',(0.,0.,1.));
#399=DIRECTION('',(-1.,0.,0.));
#400=DIRECTION('',(0.,0.,1.));
#401=DIRECTION('',(1.,0.,0.));
#402=DIRECTION('',(0.,0.,-1.));
#403=DIRECTION('',(-1.,0.,0.));
#404=DIRECTION('',(0.,0.,1.));
#405=DIRECTION('',(-1.,0.,0.));
#406=DIRECTION('',(0.,0.,1.));
#407=DIRECTION('',(-1.,0.,0.));
#408=DIRECTION('',(0.,0.,1.));
#409=DIRECTION('',(-1.,0.,0.));
#410=DIRECTION('',(0.,0.,1.));
#411=DIRECTION('',(-1.,0.,0.));
#412=DIRECTION('',(0.,0.,1.));
#413=DIRECTION('',(-1.,0.,0.));
#414=DIRECTION('',(0.,0.,1.));
#415=DIRECTION('',(-1.,0.,0.));
#416=DIRECTION('',(1.44502352719487E-16,0.,1.));
#417=CARTESIAN_POINT('',(0.,0.,0.));
#418=CARTESIAN_POINT('',(6.,-2.0818995585505E-15,34.));
#419=CARTESIAN_POINT('',(12.,-2.0818995585505E-15,34.));
#420=CARTESIAN_POINT('',(6.,-34.,0.));
#421=CARTESIAN_POINT('',(12.,-34.,0.));
#422=CARTESIAN_POINT('',(6.,0.,0.));
#423=CARTESIAN_POINT('',(6.,0.,0.));
#424=CARTESIAN_POINT('',(30.5361267301274,0.,0.));
#425=CARTESIAN_POINT('',(30.5361267301274,0.,16.));
#426=CARTESIAN_POINT('',(159.582179545096,0.,0.));
#427=CARTESIAN_POINT('',(159.582179545096,0.,16.));
#428=CARTESIAN_POINT('',(0.,0.,0.));
#429=CARTESIAN_POINT('',(30.1607388792782,0.,0.));
#430=CARTESIAN_POINT('',(30.1607388792782,0.,15.8249537703707));
#431=CARTESIAN_POINT('',(30.5361267301274,0.,0.));
#432=CARTESIAN_POINT('',(29.8226442698857,0.,0.));
#433=CARTESIAN_POINT('',(29.8226442698857,0.,15.75));
#434=CARTESIAN_POINT('',(29.8226442698857,0.,0.));
#435=CARTESIAN_POINT('',(11.4362416933154,0.,0.));
#436=CARTESIAN_POINT('',(11.4362416933154,0.,15.75));
#437=CARTESIAN_POINT('',(0.,0.,0.));
#438=CARTESIAN_POINT('',(10.6362416933154,0.,0.));
#439=CARTESIAN_POINT('',(10.6362416933154,0.,16.55));
#440=CARTESIAN_POINT('',(11.4362416933154,0.,0.));
#441=CARTESIAN_POINT('',(10.6362416933154,0.,0.));
#442=CARTESIAN_POINT('',(10.6362416933154,0.,23.6907663090245));
#443=CARTESIAN_POINT('',(10.6362416933154,23.6907663090245,0.));
#444=CARTESIAN_POINT('',(10.666626187291,0.,0.));
#445=CARTESIAN_POINT('',(10.666626187291,0.,24.0380626643584));
#446=CARTESIAN_POINT('',(12.6362416933154,0.,0.));
#447=CARTESIAN_POINT('',(10.8058571993398,0.,0.));
#448=CARTESIAN_POINT('',(10.8058571993398,0.,24.827680971718));
#449=CARTESIAN_POINT('',(10.666626187291,0.,0.));
#450=CARTESIAN_POINT('',(10.8362416933154,0.,0.));
#451=CARTESIAN_POINT('',(10.8362416933154,0.,25.1749773270519));
#452=CARTESIAN_POINT('',(8.83624169331541,0.,0.));
#453=CARTESIAN_POINT('',(10.8362416933154,0.,0.));
#454=CARTESIAN_POINT('',(10.8362416933154,0.,34.2309928431728));
#455=CARTESIAN_POINT('',(10.8362416933154,25.1749773270519,0.));
#456=CARTESIAN_POINT('',(1.16375829394966,0.,0.));
#457=CARTESIAN_POINT('',(1.16375829394966,0.,34.2309928431728));
#458=CARTESIAN_POINT('',(5.99999999363254,0.,0.));
#459=CARTESIAN_POINT('',(1.16375829394966,0.,0.));
#460=CARTESIAN_POINT('',(1.16375829394966,0.,25.1749773270519));
#461=CARTESIAN_POINT('',(1.16375829394966,34.2309928431728,0.));
#462=CARTESIAN_POINT('',(1.19414278792524,0.,0.));
#463=CARTESIAN_POINT('',(1.19414278792524,0.,24.827680971718));
#464=CARTESIAN_POINT('',(3.16375829394965,0.,0.));
#465=CARTESIAN_POINT('',(1.33337379997407,0.,0.));
#466=CARTESIAN_POINT('',(1.33337379997407,0.,24.0380626643585));
#467=CARTESIAN_POINT('',(1.19414278792524,0.,0.));
#468=CARTESIAN_POINT('',(1.36375829394966,0.,0.));
#469=CARTESIAN_POINT('',(1.36375829394966,0.,23.6907663090246));
#470=CARTESIAN_POINT('',(-0.636241706050343,0.,0.));
#471=CARTESIAN_POINT('',(1.36375829394966,23.6907663090246,0.));
#472=CARTESIAN_POINT('',(165.,0.,0.));
#473=CARTESIAN_POINT('',(165.,0.,13.75));
#474=CARTESIAN_POINT('',(165.,0.,0.));
#475=CARTESIAN_POINT('',(163.,0.,0.));
#476=CARTESIAN_POINT('',(163.,0.,15.75));
#477=CARTESIAN_POINT('',(163.,0.,0.));
#478=CARTESIAN_POINT('',(161.,0.,0.));
#479=CARTESIAN_POINT('',(161.,0.,15.75));
#480=CARTESIAN_POINT('',(0.,0.,0.));
#481=CARTESIAN_POINT('',(161.,0.,0.));
#482=MECHANICAL_DESIGN_GEOMETRIC_PRESENTATION_REPRESENTATION('',(#47,#48),
#483);
#483=(
GEOMETRIC_REPRESENTATION_CONTEXT(3)
GLOBAL_UNCERTAINTY_ASSIGNED_CONTEXT((#484))
GLOBAL_UNIT_ASSIGNED_CONTEXT((#490,#486,#485))
REPRESENTATION_CONTEXT('ATSMR-RD12T3-D80-W32-L165-Z06-H',
'TOP_LEVEL_ASSEMBLY_PART')
);
#484=UNCERTAINTY_MEASURE_WITH_UNIT(LENGTH_MEASURE(2.E-5),#490,
'DISTANCE_ACCURACY_VALUE','Maximum Tolerance applied to model');
#485=(
NAMED_UNIT(*)
SI_UNIT($,.STERADIAN.)
SOLID_ANGLE_UNIT()
);
#486=(
CONVERSION_BASED_UNIT('DEGREE',#488)
NAMED_UNIT(#487)
PLANE_ANGLE_UNIT()
);
#487=DIMENSIONAL_EXPONENTS(0.,0.,0.,0.,0.,0.,0.);
#488=PLANE_ANGLE_MEASURE_WITH_UNIT(PLANE_ANGLE_MEASURE(0.0174532925),#489);
#489=(
NAMED_UNIT(*)
PLANE_ANGLE_UNIT()
SI_UNIT($,.RADIAN.)
);
#490=(
LENGTH_UNIT()
NAMED_UNIT(*)
SI_UNIT(.MILLI.,.METRE.)
);
ENDSEC;
END-ISO-10303-21;
