ISO-10303-21;
HEADER;
/* Generated by software containing ST-Developer
 * from STEP Tools, Inc. (www.steptools.com) 
 */
/* OPTION: using custom schema-name function */

FILE_DESCRIPTION(
/* description */ (''),
/* implementation_level */ '2;1');

FILE_NAME(
/* name */ 'ATSMR-RD1604-D34-W32-L110-Z02.stp',
/* time_stamp */ '2023-10-02T16:38:22+03:00',
/* author */ (''),
/* organization */ (''),
/* preprocessor_version */ 'ST-DEVELOPER v19.4',
/* originating_system */ 'SIEMENS PLM Software NX2306.5001',
/* authorisation */ '');

FILE_SCHEMA (('AUTOMOTIVE_DESIGN { 1 0 10303 214 3 1 1 1 }'));
ENDSEC;

DATA;
#10=PROPERTY_DEFINITION_REPRESENTATION(#14,#12);
#11=PROPERTY_DEFINITION_REPRESENTATION(#15,#13);
#12=REPRESENTATION('',(#16),#436);
#13=REPRESENTATION('',(#17),#436);
#14=PROPERTY_DEFINITION('pmi validation property','',#21);
#15=PROPERTY_DEFINITION('pmi validation property','',#21);
#16=VALUE_REPRESENTATION_ITEM('number of annotations',COUNT_MEASURE(0.));
#17=VALUE_REPRESENTATION_ITEM('number of views',COUNT_MEASURE(0.));
#18=SHAPE_REPRESENTATION_RELATIONSHIP('None',
'relationship between ATSMR-RD1604-D34-W32-L110-Z02-LIGHT_x_t_objects-
None and ATSMR-RD1604-D34-W32-L110-Z02-LIGHT_x_t_objects-None',#30,#19);
#19=ADVANCED_BREP_SHAPE_REPRESENTATION(
'ATSMR-RD1604-D34-W32-L110-Z02-LIGHT_x_t_objects-None',(#50,#51),#436);
#20=SHAPE_DEFINITION_REPRESENTATION(#21,#30);
#21=PRODUCT_DEFINITION_SHAPE('','',#22);
#22=PRODUCT_DEFINITION(' ','',#24,#23);
#23=PRODUCT_DEFINITION_CONTEXT('part definition',#29,'design');
#24=PRODUCT_DEFINITION_FORMATION_WITH_SPECIFIED_SOURCE(' ',' ',#26,
 .NOT_KNOWN.);
#25=PRODUCT_RELATED_PRODUCT_CATEGORY('part','',(#26));
#26=PRODUCT('ATSMR-RD1604-D34-W32-L110-Z02-LIGHT_x_t_objects',
'ATSMR-RD1604-D34-W32-L110-Z02-LIGHT_x_t_objects',' ',(#27));
#27=PRODUCT_CONTEXT(' ',#29,'mechanical');
#28=APPLICATION_PROTOCOL_DEFINITION('international standard',
'automotive_design',2010,#29);
#29=APPLICATION_CONTEXT(
'core data for automotive mechanical design processes');
#30=SHAPE_REPRESENTATION(
'ATSMR-RD1604-D34-W32-L110-Z02-LIGHT_x_t_objects-None',(#177),#436);
#31=DRAUGHTING_PRE_DEFINED_COLOUR('yellow');
#32=(
BOUNDED_SURFACE()
B_SPLINE_SURFACE(3,3,((#358,#359,#360,#361,#362,#363,#364),(#365,#366,#367,
#368,#369,#370,#371),(#372,#373,#374,#375,#376,#377,#378),(#379,#380,#381,
#382,#383,#384,#385),(#386,#387,#388,#389,#390,#391,#392),(#393,#394,#395,
#396,#397,#398,#399),(#400,#401,#402,#403,#404,#405,#406)),
 .UNSPECIFIED.,.T.,.F.,.F.)
B_SPLINE_SURFACE_WITH_KNOTS((1,3,3,3,1),(4,3,4),(-0.5,0.,0.5,1.,1.5),(0.,
0.5,1.),.UNSPECIFIED.)
GEOMETRIC_REPRESENTATION_ITEM()
RATIONAL_B_SPLINE_SURFACE(((1.,0.54084463164429,0.54084463164429,1.,0.54084463164429,
0.54084463164429,1.),(0.333333333333334,0.18028154388143,0.18028154388143,
0.333333333333334,0.18028154388143,0.18028154388143,0.333333333333334),
(0.333333333333334,0.18028154388143,0.18028154388143,0.333333333333334,
0.18028154388143,0.18028154388143,0.333333333333334),(1.,0.54084463164429,
0.54084463164429,1.,0.54084463164429,0.54084463164429,1.),(0.333333333333334,
0.18028154388143,0.18028154388143,0.333333333333334,0.18028154388143,0.18028154388143,
0.333333333333334),(0.333333333333334,0.18028154388143,0.18028154388143,
0.333333333333334,0.18028154388143,0.18028154388143,0.333333333333334),
(1.,0.54084463164429,0.54084463164429,1.,0.54084463164429,0.54084463164429,
1.)))
REPRESENTATION_ITEM('')
SURFACE()
);
#33=(
BOUNDED_SURFACE()
B_SPLINE_SURFACE(3,3,((#407,#408,#409,#410),(#411,#412,#413,#414),(#415,
#416,#417,#418),(#419,#420,#421,#422),(#423,#424,#425,#426),(#427,#428,
#429,#430),(#431,#432,#433,#434)),.UNSPECIFIED.,.T.,.F.,.F.)
B_SPLINE_SURFACE_WITH_KNOTS((1,3,3,3,1),(4,4),(-0.5,0.,0.5,1.,1.5),(0.,
1.),.UNSPECIFIED.)
GEOMETRIC_REPRESENTATION_ITEM()
RATIONAL_B_SPLINE_SURFACE(((1.,0.870817183219903,0.870817183219903,1.),
(0.333333333333334,0.290272394406634,0.290272394406634,0.333333333333334),
(0.333333333333334,0.290272394406634,0.290272394406634,0.333333333333334),
(1.,0.870817183219903,0.870817183219903,1.),(0.333333333333334,0.290272394406634,
0.290272394406634,0.333333333333334),(0.333333333333334,0.290272394406634,
0.290272394406634,0.333333333333334),(1.,0.870817183219903,0.870817183219903,
1.)))
REPRESENTATION_ITEM('')
SURFACE()
);
#34=PRESENTATION_LAYER_ASSIGNMENT('1','Layer 1',(#50,#51));
#35=STYLED_ITEM('',(#37),#50);
#36=STYLED_ITEM('',(#38),#51);
#37=PRESENTATION_STYLE_ASSIGNMENT((#39));
#38=PRESENTATION_STYLE_ASSIGNMENT((#40));
#39=SURFACE_STYLE_USAGE(.BOTH.,#41);
#40=SURFACE_STYLE_USAGE(.BOTH.,#42);
#41=SURFACE_SIDE_STYLE('',(#43));
#42=SURFACE_SIDE_STYLE('',(#44));
#43=SURFACE_STYLE_FILL_AREA(#45);
#44=SURFACE_STYLE_FILL_AREA(#46);
#45=FILL_AREA_STYLE('',(#47));
#46=FILL_AREA_STYLE('',(#48));
#47=FILL_AREA_STYLE_COLOUR('',#49);
#48=FILL_AREA_STYLE_COLOUR('',#31);
#49=COLOUR_RGB('silver gray',0.6,0.6,0.6);
#50=MANIFOLD_SOLID_BREP('',#52);
#51=MANIFOLD_SOLID_BREP('',#53);
#52=CLOSED_SHELL('',(#65,#66,#67,#68,#69,#70,#71,#72,#73,#74));
#53=CLOSED_SHELL('',(#75,#76));
#54=PLANE('',#188);
#55=PLANE('',#190);
#56=FACE_OUTER_BOUND('',#110,.T.);
#57=FACE_OUTER_BOUND('',#111,.T.);
#58=SURFACE_OF_REVOLUTION('',#60,#59);
#59=AXIS1_PLACEMENT('',#342,#220);
#60=B_SPLINE_CURVE_WITH_KNOTS('',3,(#258,#259,#260,#261,#262,#263,#264,
#265,#266,#267,#268,#269,#270,#271,#272,#273,#274,#275,#276,#277,#278,#279,
#280,#281,#282,#283,#284,#285,#286,#287,#288,#289,#290,#291,#292,#293,#294,
#295,#296,#297,#298,#299,#300,#301,#302,#303,#304,#305,#306,#307,#308,#309,
#310,#311,#312,#313,#314,#315,#316,#317,#318,#319,#320,#321,#322,#323,#324,
#325,#326,#327,#328,#329,#330,#331,#332,#333,#334,#335,#336,#337,#338,#339,
#340,#341),.UNSPECIFIED.,.T.,.F.,(2,2,2,2,2,2,2,2,2,2,2,2,2,2,2,2,2,2,2,
2,2,2,2,2,2,2,2,2,2,2,2,2,2,2,2,2,2,2,2,2,2,2,2,2),(-0.03125,0.,0.03125,
0.0625,0.09375,0.125,0.15625,0.1875,0.203125,0.21875,0.234375,0.25,0.28125,
0.3125,0.34375,0.359375,0.375,0.40625,0.4375,0.453125,0.46875,0.5,0.53125,
0.5625,0.578125,0.59375,0.625,0.65625,0.671875,0.6875,0.71875,0.75,0.78125,
0.8125,0.828125,0.84375,0.875,0.890625,0.90625,0.921875,0.9375,0.96875,
1.,1.03125),.UNSPECIFIED.);
#61=TOROIDAL_SURFACE('',#184,20.,10.);
#62=TOROIDAL_SURFACE('',#192,14.25,1.5);
#63=CONICAL_SURFACE('',#182,16.,30.);
#64=CONICAL_SURFACE('',#195,15.75,9.99999999999998);
#65=ADVANCED_FACE('',(#80,#81),#77,.T.);
#66=ADVANCED_FACE('',(#82,#83),#63,.T.);
#67=ADVANCED_FACE('',(#84,#85),#61,.F.);
#68=ADVANCED_FACE('',(#86,#87),#78,.T.);
#69=ADVANCED_FACE('',(#88,#89),#58,.T.);
#70=ADVANCED_FACE('',(#56),#54,.F.);
#71=ADVANCED_FACE('',(#57),#55,.F.);
#72=ADVANCED_FACE('',(#90,#91),#62,.T.);
#73=ADVANCED_FACE('',(#92,#93),#79,.T.);
#74=ADVANCED_FACE('',(#94,#95),#64,.T.);
#75=ADVANCED_FACE('',(#96,#97),#32,.F.);
#76=ADVANCED_FACE('',(#98,#99),#33,.F.);
#77=CYLINDRICAL_SURFACE('',#180,16.);
#78=CYLINDRICAL_SURFACE('',#186,10.0000000000002);
#79=CYLINDRICAL_SURFACE('',#194,15.75);
#80=FACE_BOUND('',#100,.T.);
#81=FACE_BOUND('',#101,.T.);
#82=FACE_BOUND('',#102,.T.);
#83=FACE_BOUND('',#103,.T.);
#84=FACE_BOUND('',#104,.T.);
#85=FACE_BOUND('',#105,.T.);
#86=FACE_BOUND('',#106,.T.);
#87=FACE_BOUND('',#107,.T.);
#88=FACE_BOUND('',#108,.T.);
#89=FACE_BOUND('',#109,.T.);
#90=FACE_BOUND('',#112,.T.);
#91=FACE_BOUND('',#113,.T.);
#92=FACE_BOUND('',#114,.T.);
#93=FACE_BOUND('',#115,.T.);
#94=FACE_BOUND('',#116,.T.);
#95=FACE_BOUND('',#117,.T.);
#96=FACE_BOUND('',#118,.T.);
#97=FACE_BOUND('',#119,.T.);
#98=FACE_BOUND('',#120,.T.);
#99=FACE_BOUND('',#121,.T.);
#100=EDGE_LOOP('',(#122));
#101=EDGE_LOOP('',(#123));
#102=EDGE_LOOP('',(#124));
#103=EDGE_LOOP('',(#125));
#104=EDGE_LOOP('',(#126));
#105=EDGE_LOOP('',(#127));
#106=EDGE_LOOP('',(#128));
#107=EDGE_LOOP('',(#129));
#108=EDGE_LOOP('',(#130));
#109=EDGE_LOOP('',(#131));
#110=EDGE_LOOP('',(#132));
#111=EDGE_LOOP('',(#133));
#112=EDGE_LOOP('',(#134));
#113=EDGE_LOOP('',(#135));
#114=EDGE_LOOP('',(#136));
#115=EDGE_LOOP('',(#137));
#116=EDGE_LOOP('',(#138));
#117=EDGE_LOOP('',(#139));
#118=EDGE_LOOP('',(#140));
#119=EDGE_LOOP('',(#141));
#120=EDGE_LOOP('',(#142));
#121=EDGE_LOOP('',(#143));
#122=ORIENTED_EDGE('',*,*,#155,.F.);
#123=ORIENTED_EDGE('',*,*,#156,.T.);
#124=ORIENTED_EDGE('',*,*,#157,.F.);
#125=ORIENTED_EDGE('',*,*,#155,.T.);
#126=ORIENTED_EDGE('',*,*,#158,.F.);
#127=ORIENTED_EDGE('',*,*,#157,.T.);
#128=ORIENTED_EDGE('',*,*,#159,.F.);
#129=ORIENTED_EDGE('',*,*,#158,.T.);
#130=ORIENTED_EDGE('',*,*,#160,.F.);
#131=ORIENTED_EDGE('',*,*,#159,.T.);
#132=ORIENTED_EDGE('',*,*,#160,.T.);
#133=ORIENTED_EDGE('',*,*,#161,.F.);
#134=ORIENTED_EDGE('',*,*,#162,.F.);
#135=ORIENTED_EDGE('',*,*,#161,.T.);
#136=ORIENTED_EDGE('',*,*,#163,.F.);
#137=ORIENTED_EDGE('',*,*,#162,.T.);
#138=ORIENTED_EDGE('',*,*,#156,.F.);
#139=ORIENTED_EDGE('',*,*,#163,.T.);
#140=ORIENTED_EDGE('',*,*,#164,.T.);
#141=ORIENTED_EDGE('',*,*,#165,.T.);
#142=ORIENTED_EDGE('',*,*,#165,.F.);
#143=ORIENTED_EDGE('',*,*,#164,.F.);
#144=VERTEX_POINT('',#243);
#145=VERTEX_POINT('',#245);
#146=VERTEX_POINT('',#248);
#147=VERTEX_POINT('',#251);
#148=VERTEX_POINT('',#254);
#149=VERTEX_POINT('',#257);
#150=VERTEX_POINT('',#345);
#151=VERTEX_POINT('',#348);
#152=VERTEX_POINT('',#351);
#153=VERTEX_POINT('',#355);
#154=VERTEX_POINT('',#357);
#155=EDGE_CURVE('',#144,#144,#166,.T.);
#156=EDGE_CURVE('',#145,#145,#167,.T.);
#157=EDGE_CURVE('',#146,#146,#168,.T.);
#158=EDGE_CURVE('',#147,#147,#169,.T.);
#159=EDGE_CURVE('',#148,#148,#170,.T.);
#160=EDGE_CURVE('',#149,#149,#171,.T.);
#161=EDGE_CURVE('',#150,#150,#172,.T.);
#162=EDGE_CURVE('',#151,#151,#173,.T.);
#163=EDGE_CURVE('',#152,#152,#174,.T.);
#164=EDGE_CURVE('',#153,#153,#175,.T.);
#165=EDGE_CURVE('',#154,#154,#176,.T.);
#166=CIRCLE('',#178,16.);
#167=CIRCLE('',#179,16.);
#168=CIRCLE('',#181,11.3397459621556);
#169=CIRCLE('',#183,10.);
#170=CIRCLE('',#185,10.0000000000003);
#171=CIRCLE('',#187,8.90791912677918);
#172=CIRCLE('',#189,14.25);
#173=CIRCLE('',#191,15.75);
#174=CIRCLE('',#193,15.75);
#175=CIRCLE('',#196,8.);
#176=CIRCLE('',#197,8.);
#177=AXIS2_PLACEMENT_3D('',#241,#198,#199);
#178=AXIS2_PLACEMENT_3D('',#242,#200,#201);
#179=AXIS2_PLACEMENT_3D('',#244,#202,#203);
#180=AXIS2_PLACEMENT_3D('',#246,#204,#205);
#181=AXIS2_PLACEMENT_3D('',#247,#206,#207);
#182=AXIS2_PLACEMENT_3D('',#249,#208,#209);
#183=AXIS2_PLACEMENT_3D('',#250,#210,#211);
#184=AXIS2_PLACEMENT_3D('',#252,#212,#213);
#185=AXIS2_PLACEMENT_3D('',#253,#214,#215);
#186=AXIS2_PLACEMENT_3D('',#255,#216,#217);
#187=AXIS2_PLACEMENT_3D('',#256,#218,#219);
#188=AXIS2_PLACEMENT_3D('',#343,#221,#222);
#189=AXIS2_PLACEMENT_3D('',#344,#223,#224);
#190=AXIS2_PLACEMENT_3D('',#346,#225,#226);
#191=AXIS2_PLACEMENT_3D('',#347,#227,#228);
#192=AXIS2_PLACEMENT_3D('',#349,#229,#230);
#193=AXIS2_PLACEMENT_3D('',#350,#231,#232);
#194=AXIS2_PLACEMENT_3D('',#352,#233,#234);
#195=AXIS2_PLACEMENT_3D('',#353,#235,#236);
#196=AXIS2_PLACEMENT_3D('',#354,#237,#238);
#197=AXIS2_PLACEMENT_3D('',#356,#239,#240);
#198=DIRECTION('',(0.,0.,1.));
#199=DIRECTION('',(1.,0.,0.));
#200=DIRECTION('',(-1.,0.,0.));
#201=DIRECTION('',(0.,0.,1.));
#202=DIRECTION('',(-1.,0.,0.));
#203=DIRECTION('',(0.,0.,1.));
#204=DIRECTION('',(-1.,0.,0.));
#205=DIRECTION('',(0.,0.,1.));
#206=DIRECTION('',(-1.,0.,0.));
#207=DIRECTION('',(0.,0.,1.));
#208=DIRECTION('',(1.,0.,0.));
#209=DIRECTION('',(-1.40333174468108E-16,0.,-1.));
#210=DIRECTION('',(-1.,0.,0.));
#211=DIRECTION('',(0.,0.,1.));
#212=DIRECTION('',(-1.,0.,0.));
#213=DIRECTION('',(0.,0.,1.));
#214=DIRECTION('',(-1.,0.,0.));
#215=DIRECTION('',(0.,0.,1.));
#216=DIRECTION('',(-1.,0.,0.));
#217=DIRECTION('',(0.,0.,1.));
#218=DIRECTION('',(-1.,0.,0.));
#219=DIRECTION('',(0.,0.,1.));
#220=DIRECTION('',(-1.,0.,0.));
#221=DIRECTION('',(1.,0.,0.));
#222=DIRECTION('',(0.,0.,-1.));
#223=DIRECTION('',(-1.,0.,0.));
#224=DIRECTION('',(0.,0.,1.));
#225=DIRECTION('',(-1.,0.,0.));
#226=DIRECTION('',(0.,0.,1.));
#227=DIRECTION('',(-1.,0.,0.));
#228=DIRECTION('',(0.,0.,1.));
#229=DIRECTION('',(-1.,0.,0.));
#230=DIRECTION('',(0.,0.,1.));
#231=DIRECTION('',(-1.,0.,0.));
#232=DIRECTION('',(0.,0.,1.));
#233=DIRECTION('',(-1.,0.,0.));
#234=DIRECTION('',(0.,0.,1.));
#235=DIRECTION('',(-1.,0.,0.));
#236=DIRECTION('',(-7.22511763597442E-17,0.,1.));
#237=DIRECTION('',(0.,0.953939201416946,0.3));
#238=DIRECTION('',(1.,0.,0.));
#239=DIRECTION('',(0.,0.,-1.));
#240=DIRECTION('',(1.,0.,0.));
#241=CARTESIAN_POINT('',(0.,0.,0.));
#242=CARTESIAN_POINT('',(40.3923048454132,0.,0.));
#243=CARTESIAN_POINT('',(40.3923048454132,0.,16.));
#244=CARTESIAN_POINT('',(104.582179545096,0.,0.));
#245=CARTESIAN_POINT('',(104.582179545096,0.,16.));
#246=CARTESIAN_POINT('',(0.,0.,0.));
#247=CARTESIAN_POINT('',(32.3205080756888,0.,0.));
#248=CARTESIAN_POINT('',(32.3205080756888,0.,11.3397459621556));
#249=CARTESIAN_POINT('',(40.3923048454132,0.,0.));
#250=CARTESIAN_POINT('',(27.3205080756887,0.,0.));
#251=CARTESIAN_POINT('',(27.3205080756887,0.,10.));
#252=CARTESIAN_POINT('',(27.3205080756887,0.,0.));
#253=CARTESIAN_POINT('',(14.5308289338386,0.,0.));
#254=CARTESIAN_POINT('',(14.5308289338386,0.,10.0000000000003));
#255=CARTESIAN_POINT('',(0.,0.,0.));
#256=CARTESIAN_POINT('',(1.37543074263308,0.,0.));
#257=CARTESIAN_POINT('',(1.37543074263308,0.,8.90791912677918));
#258=CARTESIAN_POINT('',(7.57101672376221,2.74662703330339,0.));
#259=CARTESIAN_POINT('',(8.42898327623779,2.74662703330339,0.));
#260=CARTESIAN_POINT('',(8.8564471045893,2.77810843317131,0.));
#261=CARTESIAN_POINT('',(9.7024545597304,2.90890658995177,0.));
#262=CARTESIAN_POINT('',(10.1225653289067,3.00933353369286,0.));
#263=CARTESIAN_POINT('',(10.9284863257041,3.28484903581323,0.));
#264=CARTESIAN_POINT('',(11.3192798028368,3.46140068635556,0.));
#265=CARTESIAN_POINT('',(12.0595122938593,3.89728747623774,0.));
#266=CARTESIAN_POINT('',(12.4004345358684,4.1510231416317,0.));
#267=CARTESIAN_POINT('',(13.0237949018038,4.73019684689765,0.));
#268=CARTESIAN_POINT('',(13.3079631010055,5.05948033889014,0.));
#269=CARTESIAN_POINT('',(13.7905880351045,5.75944137989875,0.));
#270=CARTESIAN_POINT('',(13.9929427750398,6.13259476558915,0.));
#271=CARTESIAN_POINT('',(14.2381854891316,6.7269965873441,0.));
#272=CARTESIAN_POINT('',(14.3098140617076,6.93061301245123,0.));
#273=CARTESIAN_POINT('',(14.430278490708,7.33952623308341,0.));
#274=CARTESIAN_POINT('',(14.4796429263877,7.54602916401817,0.));
#275=CARTESIAN_POINT('',(14.5572198445734,7.96301777881444,0.));
#276=CARTESIAN_POINT('',(14.5854308082781,8.17350374865472,0.));
#277=CARTESIAN_POINT('',(14.6205810854968,8.59848097930575,0.));
#278=CARTESIAN_POINT('',(14.6274604095398,8.81423973146818,0.));
#279=CARTESIAN_POINT('',(14.6153942490502,9.45675044549051,0.));
#280=CARTESIAN_POINT('',(14.5647449046382,9.87823827001763,0.));
#281=CARTESIAN_POINT('',(14.3815085784301,10.7080350212006,0.));
#282=CARTESIAN_POINT('',(14.2466022308291,11.1203575022551,0.));
#283=CARTESIAN_POINT('',(13.9036201987305,11.8998780117196,0.));
#284=CARTESIAN_POINT('',(13.6958558764354,12.2697546988228,0.));
#285=CARTESIAN_POINT('',(13.3298696396268,12.7947828621412,0.));
#286=CARTESIAN_POINT('',(13.1979404559792,12.9656777441173,0.));
#287=CARTESIAN_POINT('',(12.9200834129058,13.2913852511586,0.));
#288=CARTESIAN_POINT('',(12.7741699011289,13.4464272135411,0.));
#289=CARTESIAN_POINT('',(12.3160432604979,13.8887539282851,0.));
#290=CARTESIAN_POINT('',(11.9836351834319,14.1534532922566,0.));
#291=CARTESIAN_POINT('',(11.2631853925314,14.6206331285849,0.));
#292=CARTESIAN_POINT('',(10.8833175348973,14.8173553136103,0.));
#293=CARTESIAN_POINT('',(10.2929991219676,15.0551141505701,0.));
#294=CARTESIAN_POINT('',(10.0923692966657,15.1250142154097,0.));
#295=CARTESIAN_POINT('',(9.6832758926829,15.2458182955908,0.));
#296=CARTESIAN_POINT('',(9.47364207755349,15.2969134679862,0.));
#297=CARTESIAN_POINT('',(8.84284930484689,15.418652387562,0.));
#298=CARTESIAN_POINT('',(8.42010482628603,15.4585864534481,0.));
#299=CARTESIAN_POINT('',(7.57028984598057,15.4579743620689,0.));
#300=CARTESIAN_POINT('',(7.13882319267666,15.4161505229095,0.));
#301=CARTESIAN_POINT('',(6.30259447002675,15.2526531913047,0.));
#302=CARTESIAN_POINT('',(5.89581805253925,15.1318834558706,0.));
#303=CARTESIAN_POINT('',(5.30274114664825,14.8919191483492,0.));
#304=CARTESIAN_POINT('',(5.10688863691769,14.8014904226402,0.));
#305=CARTESIAN_POINT('',(4.72712492000407,14.6032468966317,0.));
#306=CARTESIAN_POINT('',(4.54328176907277,14.495631174405,0.));
#307=CARTESIAN_POINT('',(4.00943100243793,14.1479174218359,0.));
#308=CARTESIAN_POINT('',(3.67693404992878,13.8831891442919,0.));
#309=CARTESIAN_POINT('',(3.06045155580416,13.2854971358037,0.));
#310=CARTESIAN_POINT('',(2.78374342557006,12.9590429678081,0.));
#311=CARTESIAN_POINT('',(2.42050512989198,12.4360171711296,0.));
#312=CARTESIAN_POINT('',(2.30776406583408,12.2557308551804,0.));
#313=CARTESIAN_POINT('',(2.09931425362495,11.8830159643357,0.));
#314=CARTESIAN_POINT('',(2.00321331984154,11.6895459166003,0.));
#315=CARTESIAN_POINT('',(1.74635457643703,11.1013333126516,0.));
#316=CARTESIAN_POINT('',(1.61530455049195,10.6972537385982,0.));
#317=CARTESIAN_POINT('',(1.43323256149858,9.86532294111817,0.));
#318=CARTESIAN_POINT('',(1.38291027407558,9.43433877097888,0.));
#319=CARTESIAN_POINT('',(1.36953903776286,8.5834025169068,0.));
#320=CARTESIAN_POINT('',(1.40502284748551,8.15953483164364,0.));
#321=CARTESIAN_POINT('',(1.56455484159347,7.31516071432675,0.));
#322=CARTESIAN_POINT('',(1.68701942068998,6.90509351459813,0.));
#323=CARTESIAN_POINT('',(1.93204041673273,6.31611022439989,0.));
#324=CARTESIAN_POINT('',(2.02410046902173,6.12371859588018,0.));
#325=CARTESIAN_POINT('',(2.22986570976781,5.74713820822432,0.));
#326=CARTESIAN_POINT('',(2.34329459623117,5.56377593093989,0.));
#327=CARTESIAN_POINT('',(2.70835798139506,5.03907441039838,0.));
#328=CARTESIAN_POINT('',(2.9867454849056,4.71864141762207,0.));
#329=CARTESIAN_POINT('',(3.45827071626762,4.28324017868144,0.));
#330=CARTESIAN_POINT('',(3.62511592445923,4.14543747191075,0.));
#331=CARTESIAN_POINT('',(3.96878743722465,3.89183395211293,0.));
#332=CARTESIAN_POINT('',(4.14650945406438,3.77510635461009,0.));
#333=CARTESIAN_POINT('',(4.51324650597593,3.56097882959832,0.));
#334=CARTESIAN_POINT('',(4.70226454455274,3.46358404250023,0.));
#335=CARTESIAN_POINT('',(5.09127599856877,3.28757850439575,0.));
#336=CARTESIAN_POINT('',(5.29242217073657,3.20864091084268,0.));
#337=CARTESIAN_POINT('',(5.89994852447905,3.00312152595046,0.));
#338=CARTESIAN_POINT('',(6.31197506237228,2.90617916233949,0.));
#339=CARTESIAN_POINT('',(7.14752149699447,2.77800243560237,0.));
#340=CARTESIAN_POINT('',(7.57101672376221,2.74662703330339,0.));
#341=CARTESIAN_POINT('',(8.42898327623779,2.74662703330339,0.));
#342=CARTESIAN_POINT('',(0.,0.,0.));
#343=CARTESIAN_POINT('',(1.37543050889384,8.90791912677918,0.));
#344=CARTESIAN_POINT('',(110.,0.,0.));
#345=CARTESIAN_POINT('',(110.,0.,14.25));
#346=CARTESIAN_POINT('',(110.,0.,0.));
#347=CARTESIAN_POINT('',(108.5,0.,0.));
#348=CARTESIAN_POINT('',(108.5,0.,15.75));
#349=CARTESIAN_POINT('',(108.5,0.,0.));
#350=CARTESIAN_POINT('',(106.,0.,0.));
#351=CARTESIAN_POINT('',(106.,0.,15.75));
#352=CARTESIAN_POINT('',(0.,0.,0.));
#353=CARTESIAN_POINT('',(106.,0.,0.));
#354=CARTESIAN_POINT('',(8.,0.241857235250837,9.23094300715969));
#355=CARTESIAN_POINT('',(16.,0.241857235250837,9.23094300715969));
#356=CARTESIAN_POINT('',(8.,-8.73320123,3.));
#357=CARTESIAN_POINT('',(16.,-8.73320123,3.));
#358=CARTESIAN_POINT('',(16.,-8.73320123,3.));
#359=CARTESIAN_POINT('',(16.,-12.2474175574815,-7.23011945121591));
#360=CARTESIAN_POINT('',(16.,-3.61936407447486,-13.7540564126573));
#361=CARTESIAN_POINT('',(16.,5.26610799347191,-7.58530884834394));
#362=CARTESIAN_POINT('',(16.,14.1515800614187,-1.41656128403062));
#363=CARTESIAN_POINT('',(16.,11.0550341131882,8.94763012548035));
#364=CARTESIAN_POINT('',(16.,0.241857235250835,9.23094300715969));
#365=CARTESIAN_POINT('',(16.,7.26679876999999,3.));
#366=CARTESIAN_POINT('',(16.,3.75258244251848,11.5123676286856));
#367=CARTESIAN_POINT('',(16.,-5.43077158191147,10.8223474085342));
#368=CARTESIAN_POINT('',(16.,-7.63350440380578,1.88041880461545));
#369=CARTESIAN_POINT('',(16.,-9.83623722570008,-7.06150979930333));
#370=CARTESIAN_POINT('',(16.,-2.02415904438046,-11.9381432211612));
#371=CARTESIAN_POINT('',(16.,5.04185723525083,-6.03208421551144));
#372=CARTESIAN_POINT('',(2.24711402658958E-16,7.26679877000001,3.));
#373=CARTESIAN_POINT('',(2.24711402658958E-16,3.75258244251848,11.5123676286856));
#374=CARTESIAN_POINT('',(2.24711402658958E-16,-5.43077158191147,10.8223474085342));
#375=CARTESIAN_POINT('',(2.24711402658958E-16,-7.63350440380578,1.88041880461545));
#376=CARTESIAN_POINT('',(2.24711402658958E-16,-9.83623722570008,-7.06150979930333));
#377=CARTESIAN_POINT('',(2.24711402658958E-16,-2.02415904438046,-11.9381432211612));
#378=CARTESIAN_POINT('',(2.24711402658958E-16,5.04185723525083,-6.03208421551144));
#379=CARTESIAN_POINT('',(-1.7347234759768E-15,-8.73320123,3.));
#380=CARTESIAN_POINT('',(-1.73472347597681E-15,-12.2474175574815,-7.23011945121591));
#381=CARTESIAN_POINT('',(-1.73472347597681E-15,-3.61936407447486,-13.7540564126573));
#382=CARTESIAN_POINT('',(-1.7347234759768E-15,5.26610799347191,-7.58530884834393));
#383=CARTESIAN_POINT('',(-1.73472347597681E-15,14.1515800614187,-1.41656128403062));
#384=CARTESIAN_POINT('',(-1.73472347597681E-15,11.0550341131882,8.94763012548035));
#385=CARTESIAN_POINT('',(-1.7347234759768E-15,0.241857235250836,9.23094300715969));
#386=CARTESIAN_POINT('',(-3.69415835461257E-15,-24.73320123,3.));
#387=CARTESIAN_POINT('',(-3.69415835461257E-15,-28.2474175574815,-25.9726065311174));
#388=CARTESIAN_POINT('',(-3.69415835461257E-15,-1.80795656703826,-38.3304602338487));
#389=CARTESIAN_POINT('',(-3.69415835461257E-15,18.1657203907496,-17.0510365013033));
#390=CARTESIAN_POINT('',(-3.69415835461257E-15,38.1393973485375,4.22838723124209));
#391=CARTESIAN_POINT('',(-3.69415835461257E-15,24.1342272707568,29.833403472122));
#392=CARTESIAN_POINT('',(-3.69415835461257E-15,-4.55814276474916,24.4939702298308));
#393=CARTESIAN_POINT('',(16.,-24.73320123,3.));
#394=CARTESIAN_POINT('',(16.,-28.2474175574815,-25.9726065311174));
#395=CARTESIAN_POINT('',(16.,-1.80795656703826,-38.3304602338487));
#396=CARTESIAN_POINT('',(16.,18.1657203907496,-17.0510365013033));
#397=CARTESIAN_POINT('',(16.,38.1393973485375,4.22838723124209));
#398=CARTESIAN_POINT('',(16.,24.1342272707568,29.833403472122));
#399=CARTESIAN_POINT('',(16.,-4.55814276474916,24.4939702298308));
#400=CARTESIAN_POINT('',(16.,-8.73320123,3.));
#401=CARTESIAN_POINT('',(16.,-12.2474175574815,-7.23011945121591));
#402=CARTESIAN_POINT('',(16.,-3.61936407447486,-13.7540564126573));
#403=CARTESIAN_POINT('',(16.,5.26610799347191,-7.58530884834394));
#404=CARTESIAN_POINT('',(16.,14.1515800614187,-1.41656128403062));
#405=CARTESIAN_POINT('',(16.,11.0550341131882,8.94763012548035));
#406=CARTESIAN_POINT('',(16.,0.241857235250835,9.23094300715969));
#407=CARTESIAN_POINT('',(16.,0.241857235250837,9.23094300715969));
#408=CARTESIAN_POINT('',(16.,-3.93896635251795,9.34048354199183));
#409=CARTESIAN_POINT('',(16.,-7.37445914334881,6.95538935413166));
#410=CARTESIAN_POINT('',(16.,-8.73320123,3.));
#411=CARTESIAN_POINT('',(16.,5.04185723525083,-6.03208421551144));
#412=CARTESIAN_POINT('',(16.,7.77387279986408,-3.7485563420374));
#413=CARTESIAN_POINT('',(16.,8.62554085665119,-0.291235108008034));
#414=CARTESIAN_POINT('',(16.,7.26679876999999,3.));
#415=CARTESIAN_POINT('',(2.24711402658958E-16,5.04185723525083,-6.03208421551144));
#416=CARTESIAN_POINT('',(2.24711402658958E-16,7.77387279986408,-3.7485563420374));
#417=CARTESIAN_POINT('',(2.24711402658958E-16,8.62554085665119,-0.291235108008034));
#418=CARTESIAN_POINT('',(2.24711402658958E-16,7.26679877000001,3.));
#419=CARTESIAN_POINT('',(-1.7347234759768E-15,0.241857235250838,9.23094300715969));
#420=CARTESIAN_POINT('',(-1.73472347597681E-15,-3.93896635251795,9.34048354199182));
#421=CARTESIAN_POINT('',(-1.73472347597681E-15,-7.37445914334881,6.95538935413165));
#422=CARTESIAN_POINT('',(-1.7347234759768E-15,-8.73320123,3.));
#423=CARTESIAN_POINT('',(-3.69415835461257E-15,-4.55814276474916,24.4939702298308));
#424=CARTESIAN_POINT('',(-3.69415835461257E-15,-15.6518055049,22.4295234260211));
#425=CARTESIAN_POINT('',(-3.69415835461257E-15,-23.3744591433488,14.2020138162713));
#426=CARTESIAN_POINT('',(-3.69415835461257E-15,-24.73320123,3.));
#427=CARTESIAN_POINT('',(16.,-4.55814276474916,24.4939702298308));
#428=CARTESIAN_POINT('',(16.,-15.6518055049,22.4295234260211));
#429=CARTESIAN_POINT('',(16.,-23.3744591433488,14.2020138162713));
#430=CARTESIAN_POINT('',(16.,-24.73320123,3.));
#431=CARTESIAN_POINT('',(16.,0.241857235250837,9.23094300715969));
#432=CARTESIAN_POINT('',(16.,-3.93896635251795,9.34048354199183));
#433=CARTESIAN_POINT('',(16.,-7.37445914334881,6.95538935413166));
#434=CARTESIAN_POINT('',(16.,-8.73320123,3.));
#435=MECHANICAL_DESIGN_GEOMETRIC_PRESENTATION_REPRESENTATION('',(#35,#36),
#436);
#436=(
GEOMETRIC_REPRESENTATION_CONTEXT(3)
GLOBAL_UNCERTAINTY_ASSIGNED_CONTEXT((#437))
GLOBAL_UNIT_ASSIGNED_CONTEXT((#443,#439,#438))
REPRESENTATION_CONTEXT('ATSMR-RD1604-D34-W32-L110-Z02',
'TOP_LEVEL_ASSEMBLY_PART')
);
#437=UNCERTAINTY_MEASURE_WITH_UNIT(LENGTH_MEASURE(2.E-5),#443,
'DISTANCE_ACCURACY_VALUE','Maximum Tolerance applied to model');
#438=(
NAMED_UNIT(*)
SI_UNIT($,.STERADIAN.)
SOLID_ANGLE_UNIT()
);
#439=(
CONVERSION_BASED_UNIT('DEGREE',#441)
NAMED_UNIT(#440)
PLANE_ANGLE_UNIT()
);
#440=DIMENSIONAL_EXPONENTS(0.,0.,0.,0.,0.,0.,0.);
#441=PLANE_ANGLE_MEASURE_WITH_UNIT(PLANE_ANGLE_MEASURE(0.0174532925),#442);
#442=(
NAMED_UNIT(*)
PLANE_ANGLE_UNIT()
SI_UNIT($,.RADIAN.)
);
#443=(
LENGTH_UNIT()
NAMED_UNIT(*)
SI_UNIT(.MILLI.,.METRE.)
);
ENDSEC;
END-ISO-10303-21;
