ISO-10303-21;
HEADER;
/* Generated by software containing ST-Developer
 * from STEP Tools, Inc. (www.steptools.com) 
 */
/* OPTION: using custom schema-name function */

FILE_DESCRIPTION(
/* description */ (''),
/* implementation_level */ '2;1');

FILE_NAME(
/* name */ 'ATUM 12.5XD3 KDR 0402-LIGHT.stp',
/* time_stamp */ '2023-09-27T16:52:03+03:00',
/* author */ (''),
/* organization */ (''),
/* preprocessor_version */ 'ST-DEVELOPER v19.4',
/* originating_system */ 'SIEMENS PLM Software NX2306.5001',
/* authorisation */ '');

FILE_SCHEMA (('AUTOMOTIVE_DESIGN { 1 0 10303 214 3 1 1 1 }'));
ENDSEC;

DATA;
#10=CONSTRUCTIVE_GEOMETRY_REPRESENTATION_RELATIONSHIP(
'supplemental geometry','',#32,#11);
#11=CONSTRUCTIVE_GEOMETRY_REPRESENTATION('supplemental geometry',(#404),
#696);
#12=PROPERTY_DEFINITION_REPRESENTATION(#16,#14);
#13=PROPERTY_DEFINITION_REPRESENTATION(#17,#15);
#14=REPRESENTATION('',(#18),#696);
#15=REPRESENTATION('',(#19),#696);
#16=PROPERTY_DEFINITION('pmi validation property','',#23);
#17=PROPERTY_DEFINITION('pmi validation property','',#23);
#18=VALUE_REPRESENTATION_ITEM('number of annotations',COUNT_MEASURE(0.));
#19=VALUE_REPRESENTATION_ITEM('number of views',COUNT_MEASURE(0.));
#20=SHAPE_REPRESENTATION_RELATIONSHIP('None',
'relationship between ATUM 12.5XD3 KDR 0402-LIGHT_objects-None and ATU
M 12.5XD3 KDR 0402-LIGHT_objects-None',#32,#21);
#21=ADVANCED_BREP_SHAPE_REPRESENTATION(
'ATUM 12.5XD3 KDR 0402-LIGHT_objects-None',(#73,#74),#696);
#22=SHAPE_DEFINITION_REPRESENTATION(#23,#32);
#23=PRODUCT_DEFINITION_SHAPE('','',#24);
#24=PRODUCT_DEFINITION(' ','',#26,#25);
#25=PRODUCT_DEFINITION_CONTEXT('part definition',#31,'design');
#26=PRODUCT_DEFINITION_FORMATION_WITH_SPECIFIED_SOURCE(' ',' ',#28,
 .NOT_KNOWN.);
#27=PRODUCT_RELATED_PRODUCT_CATEGORY('part','',(#28));
#28=PRODUCT('ATUM 12.5XD3 KDR 0402-LIGHT_objects',
'ATUM 12.5XD3 KDR 0402-LIGHT_objects',' ',(#29));
#29=PRODUCT_CONTEXT(' ',#31,'mechanical');
#30=APPLICATION_PROTOCOL_DEFINITION('international standard',
'automotive_design',2010,#31);
#31=APPLICATION_CONTEXT(
'core data for automotive mechanical design processes');
#32=SHAPE_REPRESENTATION('ATUM 12.5XD3 KDR 0402-LIGHT_objects-None',(#403),
#696);
#33=DRAUGHTING_PRE_DEFINED_COLOUR('yellow');
#34=B_SPLINE_CURVE_WITH_KNOTS('',3,(#655,#656,#657,#658,#659,#660,#661),
 .UNSPECIFIED.,.F.,.F.,(4,1,1,1,4),(0.,0.25,0.5,0.75,1.),.UNSPECIFIED.);
#35=B_SPLINE_CURVE_WITH_KNOTS('',3,(#671,#672,#673,#674,#675,#676,#677),
 .UNSPECIFIED.,.F.,.F.,(4,1,1,1,4),(0.,0.25,0.5,0.75,1.),.UNSPECIFIED.);
#36=B_SPLINE_CURVE_WITH_KNOTS('',3,(#685,#686,#687,#688,#689,#690,#691),
 .UNSPECIFIED.,.F.,.F.,(4,1,1,1,4),(0.,0.25,0.5,0.75,1.),.UNSPECIFIED.);
#37=SURFACE_OF_REVOLUTION('',#53,#45);
#38=SURFACE_OF_REVOLUTION('',#34,#46);
#39=SURFACE_OF_REVOLUTION('',#54,#47);
#40=SURFACE_OF_REVOLUTION('',#55,#48);
#41=SURFACE_OF_REVOLUTION('',#35,#49);
#42=SURFACE_OF_REVOLUTION('',#56,#50);
#43=SURFACE_OF_REVOLUTION('',#36,#51);
#44=SURFACE_OF_REVOLUTION('',#57,#52);
#45=AXIS1_PLACEMENT('',#652,#556);
#46=AXIS1_PLACEMENT('',#662,#559);
#47=AXIS1_PLACEMENT('',#666,#563);
#48=AXIS1_PLACEMENT('',#670,#567);
#49=AXIS1_PLACEMENT('',#678,#568);
#50=AXIS1_PLACEMENT('',#682,#572);
#51=AXIS1_PLACEMENT('',#692,#575);
#52=AXIS1_PLACEMENT('',#694,#577);
#53=LINE('',#651,#58);
#54=LINE('',#665,#59);
#55=LINE('',#669,#60);
#56=LINE('',#681,#61);
#57=LINE('',#693,#62);
#58=VECTOR('',#555,3.91469825324187);
#59=VECTOR('',#562,2.04105527760176);
#60=VECTOR('',#566,3.91469825324187);
#61=VECTOR('',#571,1.87087484275491);
#62=VECTOR('',#576,1.8708748427549);
#63=SURFACE_STYLE_USAGE(.BOTH.,#65);
#64=SURFACE_STYLE_USAGE(.BOTH.,#66);
#65=SURFACE_SIDE_STYLE('',(#67));
#66=SURFACE_SIDE_STYLE('',(#68));
#67=SURFACE_STYLE_FILL_AREA(#69);
#68=SURFACE_STYLE_FILL_AREA(#70);
#69=FILL_AREA_STYLE('',(#71));
#70=FILL_AREA_STYLE('',(#72));
#71=FILL_AREA_STYLE_COLOUR('',#401);
#72=FILL_AREA_STYLE_COLOUR('',#33);
#73=MANIFOLD_SOLID_BREP('',#75);
#74=MANIFOLD_SOLID_BREP('',#76);
#75=CLOSED_SHELL('',(#96,#97,#98,#99,#100,#101,#102,#103,#104,#105,#106,
#107,#108,#109,#110,#111,#112,#113,#114,#115,#116));
#76=CLOSED_SHELL('',(#117,#118,#119,#120,#121,#122,#123,#124,#125,#126));
#77=FACE_OUTER_BOUND('',#213,.T.);
#78=FACE_OUTER_BOUND('',#228,.T.);
#79=FACE_OUTER_BOUND('',#229,.T.);
#80=FACE_OUTER_BOUND('',#230,.T.);
#81=PLANE('',#427);
#82=PLANE('',#430);
#83=PLANE('',#445);
#84=PLANE('',#447);
#85=PLANE('',#449);
#86=CONICAL_SURFACE('',#413,9.81030737921407,20.0000000000125);
#87=CONICAL_SURFACE('',#417,10.,14.9999999999998);
#88=CONICAL_SURFACE('',#425,10.205669240384,81.9999999999995);
#89=CONICAL_SURFACE('',#436,12.1332672964727,28.6271834773738);
#90=CONICAL_SURFACE('',#442,5.94999999999998,2.99999999999998);
#91=CYLINDRICAL_SURFACE('',#409,9.75);
#92=CYLINDRICAL_SURFACE('',#415,10.);
#93=CYLINDRICAL_SURFACE('',#421,9.75);
#94=CYLINDRICAL_SURFACE('',#432,12.5);
#95=CYLINDRICAL_SURFACE('',#440,5.94999999999998);
#96=ADVANCED_FACE('',(#135,#136),#127,.T.);
#97=ADVANCED_FACE('',(#137,#138),#91,.T.);
#98=ADVANCED_FACE('',(#139,#140),#128,.F.);
#99=ADVANCED_FACE('',(#141,#142),#86,.T.);
#100=ADVANCED_FACE('',(#143,#144),#92,.T.);
#101=ADVANCED_FACE('',(#145,#146),#87,.T.);
#102=ADVANCED_FACE('',(#147,#148),#129,.F.);
#103=ADVANCED_FACE('',(#149,#150),#93,.T.);
#104=ADVANCED_FACE('',(#151,#152),#130,.F.);
#105=ADVANCED_FACE('',(#153,#154),#88,.F.);
#106=ADVANCED_FACE('',(#155,#156),#81,.F.);
#107=ADVANCED_FACE('',(#157,#158),#131,.T.);
#108=ADVANCED_FACE('',(#77),#82,.F.);
#109=ADVANCED_FACE('',(#159,#160),#94,.T.);
#110=ADVANCED_FACE('',(#161,#162),#132,.T.);
#111=ADVANCED_FACE('',(#163,#164),#89,.T.);
#112=ADVANCED_FACE('',(#165,#166),#133,.F.);
#113=ADVANCED_FACE('',(#167,#168),#95,.T.);
#114=ADVANCED_FACE('',(#169,#170),#90,.T.);
#115=ADVANCED_FACE('',(#171,#172),#134,.T.);
#116=ADVANCED_FACE('',(#78),#83,.F.);
#117=ADVANCED_FACE('',(#79),#84,.F.);
#118=ADVANCED_FACE('',(#80),#85,.T.);
#119=ADVANCED_FACE('',(#173,#174),#37,.F.);
#120=ADVANCED_FACE('',(#175,#176),#38,.F.);
#121=ADVANCED_FACE('',(#177,#178),#39,.F.);
#122=ADVANCED_FACE('',(#179,#180),#40,.F.);
#123=ADVANCED_FACE('',(#181,#182),#41,.F.);
#124=ADVANCED_FACE('',(#183,#184),#42,.F.);
#125=ADVANCED_FACE('',(#185,#186),#43,.F.);
#126=ADVANCED_FACE('',(#187,#188),#44,.F.);
#127=TOROIDAL_SURFACE('',#407,8.75000000000004,0.999999999999972);
#128=TOROIDAL_SURFACE('',#411,10.75,1.00000000000011);
#129=TOROIDAL_SURFACE('',#419,10.15,0.4);
#130=TOROIDAL_SURFACE('',#423,10.15,0.400000000000007);
#131=TOROIDAL_SURFACE('',#429,11.8,0.799999999999997);
#132=TOROIDAL_SURFACE('',#434,9.5,3.);
#133=TOROIDAL_SURFACE('',#438,10.95,5.);
#134=TOROIDAL_SURFACE('',#444,5.02259937512952,0.800000000000001);
#135=FACE_BOUND('',#189,.T.);
#136=FACE_BOUND('',#190,.T.);
#137=FACE_BOUND('',#191,.T.);
#138=FACE_BOUND('',#192,.T.);
#139=FACE_BOUND('',#193,.T.);
#140=FACE_BOUND('',#194,.T.);
#141=FACE_BOUND('',#195,.T.);
#142=FACE_BOUND('',#196,.T.);
#143=FACE_BOUND('',#197,.T.);
#144=FACE_BOUND('',#198,.T.);
#145=FACE_BOUND('',#199,.T.);
#146=FACE_BOUND('',#200,.T.);
#147=FACE_BOUND('',#201,.T.);
#148=FACE_BOUND('',#202,.T.);
#149=FACE_BOUND('',#203,.T.);
#150=FACE_BOUND('',#204,.T.);
#151=FACE_BOUND('',#205,.T.);
#152=FACE_BOUND('',#206,.T.);
#153=FACE_BOUND('',#207,.T.);
#154=FACE_BOUND('',#208,.T.);
#155=FACE_BOUND('',#209,.T.);
#156=FACE_BOUND('',#210,.T.);
#157=FACE_BOUND('',#211,.T.);
#158=FACE_BOUND('',#212,.T.);
#159=FACE_BOUND('',#214,.T.);
#160=FACE_BOUND('',#215,.T.);
#161=FACE_BOUND('',#216,.T.);
#162=FACE_BOUND('',#217,.T.);
#163=FACE_BOUND('',#218,.T.);
#164=FACE_BOUND('',#219,.T.);
#165=FACE_BOUND('',#220,.T.);
#166=FACE_BOUND('',#221,.T.);
#167=FACE_BOUND('',#222,.T.);
#168=FACE_BOUND('',#223,.T.);
#169=FACE_BOUND('',#224,.T.);
#170=FACE_BOUND('',#225,.T.);
#171=FACE_BOUND('',#226,.T.);
#172=FACE_BOUND('',#227,.T.);
#173=FACE_BOUND('',#231,.T.);
#174=FACE_BOUND('',#232,.T.);
#175=FACE_BOUND('',#233,.T.);
#176=FACE_BOUND('',#234,.T.);
#177=FACE_BOUND('',#235,.T.);
#178=FACE_BOUND('',#236,.T.);
#179=FACE_BOUND('',#237,.T.);
#180=FACE_BOUND('',#238,.T.);
#181=FACE_BOUND('',#239,.T.);
#182=FACE_BOUND('',#240,.T.);
#183=FACE_BOUND('',#241,.T.);
#184=FACE_BOUND('',#242,.T.);
#185=FACE_BOUND('',#243,.T.);
#186=FACE_BOUND('',#244,.T.);
#187=FACE_BOUND('',#245,.T.);
#188=FACE_BOUND('',#246,.T.);
#189=EDGE_LOOP('',(#247));
#190=EDGE_LOOP('',(#248));
#191=EDGE_LOOP('',(#249));
#192=EDGE_LOOP('',(#250));
#193=EDGE_LOOP('',(#251));
#194=EDGE_LOOP('',(#252));
#195=EDGE_LOOP('',(#253));
#196=EDGE_LOOP('',(#254));
#197=EDGE_LOOP('',(#255));
#198=EDGE_LOOP('',(#256));
#199=EDGE_LOOP('',(#257));
#200=EDGE_LOOP('',(#258));
#201=EDGE_LOOP('',(#259));
#202=EDGE_LOOP('',(#260));
#203=EDGE_LOOP('',(#261));
#204=EDGE_LOOP('',(#262));
#205=EDGE_LOOP('',(#263));
#206=EDGE_LOOP('',(#264));
#207=EDGE_LOOP('',(#265));
#208=EDGE_LOOP('',(#266));
#209=EDGE_LOOP('',(#267));
#210=EDGE_LOOP('',(#268));
#211=EDGE_LOOP('',(#269));
#212=EDGE_LOOP('',(#270));
#213=EDGE_LOOP('',(#271));
#214=EDGE_LOOP('',(#272));
#215=EDGE_LOOP('',(#273));
#216=EDGE_LOOP('',(#274));
#217=EDGE_LOOP('',(#275));
#218=EDGE_LOOP('',(#276));
#219=EDGE_LOOP('',(#277));
#220=EDGE_LOOP('',(#278));
#221=EDGE_LOOP('',(#279));
#222=EDGE_LOOP('',(#280));
#223=EDGE_LOOP('',(#281));
#224=EDGE_LOOP('',(#282));
#225=EDGE_LOOP('',(#283));
#226=EDGE_LOOP('',(#284));
#227=EDGE_LOOP('',(#285));
#228=EDGE_LOOP('',(#286));
#229=EDGE_LOOP('',(#287));
#230=EDGE_LOOP('',(#288));
#231=EDGE_LOOP('',(#289));
#232=EDGE_LOOP('',(#290));
#233=EDGE_LOOP('',(#291));
#234=EDGE_LOOP('',(#292));
#235=EDGE_LOOP('',(#293));
#236=EDGE_LOOP('',(#294));
#237=EDGE_LOOP('',(#295));
#238=EDGE_LOOP('',(#296));
#239=EDGE_LOOP('',(#297));
#240=EDGE_LOOP('',(#298));
#241=EDGE_LOOP('',(#299));
#242=EDGE_LOOP('',(#300));
#243=EDGE_LOOP('',(#301));
#244=EDGE_LOOP('',(#302));
#245=EDGE_LOOP('',(#303));
#246=EDGE_LOOP('',(#304));
#247=ORIENTED_EDGE('',*,*,#334,.T.);
#248=ORIENTED_EDGE('',*,*,#335,.T.);
#249=ORIENTED_EDGE('',*,*,#336,.T.);
#250=ORIENTED_EDGE('',*,*,#334,.F.);
#251=ORIENTED_EDGE('',*,*,#337,.T.);
#252=ORIENTED_EDGE('',*,*,#336,.F.);
#253=ORIENTED_EDGE('',*,*,#338,.T.);
#254=ORIENTED_EDGE('',*,*,#337,.F.);
#255=ORIENTED_EDGE('',*,*,#339,.T.);
#256=ORIENTED_EDGE('',*,*,#338,.F.);
#257=ORIENTED_EDGE('',*,*,#340,.T.);
#258=ORIENTED_EDGE('',*,*,#339,.F.);
#259=ORIENTED_EDGE('',*,*,#341,.T.);
#260=ORIENTED_EDGE('',*,*,#340,.F.);
#261=ORIENTED_EDGE('',*,*,#342,.T.);
#262=ORIENTED_EDGE('',*,*,#341,.F.);
#263=ORIENTED_EDGE('',*,*,#343,.T.);
#264=ORIENTED_EDGE('',*,*,#342,.F.);
#265=ORIENTED_EDGE('',*,*,#344,.T.);
#266=ORIENTED_EDGE('',*,*,#343,.F.);
#267=ORIENTED_EDGE('',*,*,#345,.T.);
#268=ORIENTED_EDGE('',*,*,#344,.F.);
#269=ORIENTED_EDGE('',*,*,#346,.T.);
#270=ORIENTED_EDGE('',*,*,#345,.F.);
#271=ORIENTED_EDGE('',*,*,#335,.F.);
#272=ORIENTED_EDGE('',*,*,#347,.T.);
#273=ORIENTED_EDGE('',*,*,#346,.F.);
#274=ORIENTED_EDGE('',*,*,#348,.T.);
#275=ORIENTED_EDGE('',*,*,#347,.F.);
#276=ORIENTED_EDGE('',*,*,#349,.T.);
#277=ORIENTED_EDGE('',*,*,#348,.F.);
#278=ORIENTED_EDGE('',*,*,#350,.T.);
#279=ORIENTED_EDGE('',*,*,#349,.F.);
#280=ORIENTED_EDGE('',*,*,#351,.T.);
#281=ORIENTED_EDGE('',*,*,#350,.F.);
#282=ORIENTED_EDGE('',*,*,#352,.T.);
#283=ORIENTED_EDGE('',*,*,#351,.F.);
#284=ORIENTED_EDGE('',*,*,#353,.T.);
#285=ORIENTED_EDGE('',*,*,#352,.F.);
#286=ORIENTED_EDGE('',*,*,#353,.F.);
#287=ORIENTED_EDGE('',*,*,#354,.F.);
#288=ORIENTED_EDGE('',*,*,#355,.T.);
#289=ORIENTED_EDGE('',*,*,#356,.T.);
#290=ORIENTED_EDGE('',*,*,#357,.F.);
#291=ORIENTED_EDGE('',*,*,#358,.T.);
#292=ORIENTED_EDGE('',*,*,#356,.F.);
#293=ORIENTED_EDGE('',*,*,#359,.F.);
#294=ORIENTED_EDGE('',*,*,#358,.F.);
#295=ORIENTED_EDGE('',*,*,#360,.T.);
#296=ORIENTED_EDGE('',*,*,#355,.F.);
#297=ORIENTED_EDGE('',*,*,#357,.T.);
#298=ORIENTED_EDGE('',*,*,#360,.F.);
#299=ORIENTED_EDGE('',*,*,#354,.T.);
#300=ORIENTED_EDGE('',*,*,#361,.F.);
#301=ORIENTED_EDGE('',*,*,#359,.T.);
#302=ORIENTED_EDGE('',*,*,#362,.T.);
#303=ORIENTED_EDGE('',*,*,#361,.T.);
#304=ORIENTED_EDGE('',*,*,#362,.F.);
#305=VERTEX_POINT('',#581);
#306=VERTEX_POINT('',#583);
#307=VERTEX_POINT('',#586);
#308=VERTEX_POINT('',#589);
#309=VERTEX_POINT('',#592);
#310=VERTEX_POINT('',#595);
#311=VERTEX_POINT('',#598);
#312=VERTEX_POINT('',#601);
#313=VERTEX_POINT('',#604);
#314=VERTEX_POINT('',#607);
#315=VERTEX_POINT('',#610);
#316=VERTEX_POINT('',#613);
#317=VERTEX_POINT('',#616);
#318=VERTEX_POINT('',#620);
#319=VERTEX_POINT('',#623);
#320=VERTEX_POINT('',#626);
#321=VERTEX_POINT('',#629);
#322=VERTEX_POINT('',#632);
#323=VERTEX_POINT('',#635);
#324=VERTEX_POINT('',#638);
#325=VERTEX_POINT('',#642);
#326=VERTEX_POINT('',#645);
#327=VERTEX_POINT('',#648);
#328=VERTEX_POINT('',#650);
#329=VERTEX_POINT('',#654);
#330=VERTEX_POINT('',#664);
#331=VERTEX_POINT('',#668);
#332=VERTEX_POINT('',#680);
#333=VERTEX_POINT('',#684);
#334=EDGE_CURVE('',#305,#305,#363,.T.);
#335=EDGE_CURVE('',#306,#306,#364,.T.);
#336=EDGE_CURVE('',#307,#307,#365,.T.);
#337=EDGE_CURVE('',#308,#308,#366,.T.);
#338=EDGE_CURVE('',#309,#309,#367,.T.);
#339=EDGE_CURVE('',#310,#310,#368,.T.);
#340=EDGE_CURVE('',#311,#311,#369,.T.);
#341=EDGE_CURVE('',#312,#312,#370,.T.);
#342=EDGE_CURVE('',#313,#313,#371,.T.);
#343=EDGE_CURVE('',#314,#314,#372,.T.);
#344=EDGE_CURVE('',#315,#315,#373,.T.);
#345=EDGE_CURVE('',#316,#316,#374,.T.);
#346=EDGE_CURVE('',#317,#317,#375,.T.);
#347=EDGE_CURVE('',#318,#318,#376,.T.);
#348=EDGE_CURVE('',#319,#319,#377,.T.);
#349=EDGE_CURVE('',#320,#320,#378,.T.);
#350=EDGE_CURVE('',#321,#321,#379,.T.);
#351=EDGE_CURVE('',#322,#322,#380,.T.);
#352=EDGE_CURVE('',#323,#323,#381,.T.);
#353=EDGE_CURVE('',#324,#324,#382,.T.);
#354=EDGE_CURVE('',#325,#325,#383,.T.);
#355=EDGE_CURVE('',#326,#326,#384,.T.);
#356=EDGE_CURVE('',#327,#327,#385,.T.);
#357=EDGE_CURVE('',#328,#328,#386,.T.);
#358=EDGE_CURVE('',#329,#329,#387,.T.);
#359=EDGE_CURVE('',#330,#330,#388,.T.);
#360=EDGE_CURVE('',#331,#331,#389,.T.);
#361=EDGE_CURVE('',#332,#332,#390,.T.);
#362=EDGE_CURVE('',#333,#333,#391,.T.);
#363=CIRCLE('',#405,9.75000000000001);
#364=CIRCLE('',#406,8.75000000000004);
#365=CIRCLE('',#408,9.75);
#366=CIRCLE('',#410,9.81030737921407);
#367=CIRCLE('',#412,10.);
#368=CIRCLE('',#414,10.);
#369=CIRCLE('',#416,9.76362966948438);
#370=CIRCLE('',#418,9.75);
#371=CIRCLE('',#420,9.75);
#372=CIRCLE('',#422,10.205669240384);
#373=CIRCLE('',#424,11.);
#374=CIRCLE('',#426,11.8);
#375=CIRCLE('',#428,12.5);
#376=CIRCLE('',#431,12.5);
#377=CIRCLE('',#433,12.1332672964727);
#378=CIRCLE('',#435,6.56122117254541);
#379=CIRCLE('',#437,5.94999999999998);
#380=CIRCLE('',#439,5.94999999999998);
#381=CIRCLE('',#441,5.82150300293318);
#382=CIRCLE('',#443,5.02259937512952);
#383=CIRCLE('',#446,0.0981670662442756);
#384=CIRCLE('',#448,1.90625554681161);
#385=CIRCLE('',#450,6.25000137626824);
#386=CIRCLE('',#451,6.09494898871191);
#387=CIRCLE('',#452,5.87850308534843);
#388=CIRCLE('',#453,3.88295345656108);
#389=CIRCLE('',#454,5.69098257390098);
#390=CIRCLE('',#455,1.80321833777718);
#391=CIRCLE('',#456,3.64397231725754);
#392=PRESENTATION_LAYER_ASSIGNMENT('1','Layer 1',(#404,#73,#74));
#393=STYLED_ITEM('',(#396),#404);
#394=STYLED_ITEM('',(#397),#73);
#395=STYLED_ITEM('',(#398),#74);
#396=PRESENTATION_STYLE_ASSIGNMENT((#399));
#397=PRESENTATION_STYLE_ASSIGNMENT((#63));
#398=PRESENTATION_STYLE_ASSIGNMENT((#64));
#399=CURVE_STYLE('',#402,POSITIVE_LENGTH_MEASURE(0.13),#400);
#400=COLOUR_RGB('Medium Maroon',0.6,0.4,0.4);
#401=COLOUR_RGB('smoke gray',0.694117647058824,0.694117647058824,0.694117647058824);
#402=DRAUGHTING_PRE_DEFINED_CURVE_FONT('continuous');
#403=AXIS2_PLACEMENT_3D('',#578,#457,#458);
#404=AXIS2_PLACEMENT_3D('',#579,#459,#460);
#405=AXIS2_PLACEMENT_3D('',#580,#461,#462);
#406=AXIS2_PLACEMENT_3D('',#582,#463,#464);
#407=AXIS2_PLACEMENT_3D('',#584,#465,#466);
#408=AXIS2_PLACEMENT_3D('',#585,#467,#468);
#409=AXIS2_PLACEMENT_3D('',#587,#469,#470);
#410=AXIS2_PLACEMENT_3D('',#588,#471,#472);
#411=AXIS2_PLACEMENT_3D('',#590,#473,#474);
#412=AXIS2_PLACEMENT_3D('',#591,#475,#476);
#413=AXIS2_PLACEMENT_3D('',#593,#477,#478);
#414=AXIS2_PLACEMENT_3D('',#594,#479,#480);
#415=AXIS2_PLACEMENT_3D('',#596,#481,#482);
#416=AXIS2_PLACEMENT_3D('',#597,#483,#484);
#417=AXIS2_PLACEMENT_3D('',#599,#485,#486);
#418=AXIS2_PLACEMENT_3D('',#600,#487,#488);
#419=AXIS2_PLACEMENT_3D('',#602,#489,#490);
#420=AXIS2_PLACEMENT_3D('',#603,#491,#492);
#421=AXIS2_PLACEMENT_3D('',#605,#493,#494);
#422=AXIS2_PLACEMENT_3D('',#606,#495,#496);
#423=AXIS2_PLACEMENT_3D('',#608,#497,#498);
#424=AXIS2_PLACEMENT_3D('',#609,#499,#500);
#425=AXIS2_PLACEMENT_3D('',#611,#501,#502);
#426=AXIS2_PLACEMENT_3D('',#612,#503,#504);
#427=AXIS2_PLACEMENT_3D('',#614,#505,#506);
#428=AXIS2_PLACEMENT_3D('',#615,#507,#508);
#429=AXIS2_PLACEMENT_3D('',#617,#509,#510);
#430=AXIS2_PLACEMENT_3D('',#618,#511,#512);
#431=AXIS2_PLACEMENT_3D('',#619,#513,#514);
#432=AXIS2_PLACEMENT_3D('',#621,#515,#516);
#433=AXIS2_PLACEMENT_3D('',#622,#517,#518);
#434=AXIS2_PLACEMENT_3D('',#624,#519,#520);
#435=AXIS2_PLACEMENT_3D('',#625,#521,#522);
#436=AXIS2_PLACEMENT_3D('',#627,#523,#524);
#437=AXIS2_PLACEMENT_3D('',#628,#525,#526);
#438=AXIS2_PLACEMENT_3D('',#630,#527,#528);
#439=AXIS2_PLACEMENT_3D('',#631,#529,#530);
#440=AXIS2_PLACEMENT_3D('',#633,#531,#532);
#441=AXIS2_PLACEMENT_3D('',#634,#533,#534);
#442=AXIS2_PLACEMENT_3D('',#636,#535,#536);
#443=AXIS2_PLACEMENT_3D('',#637,#537,#538);
#444=AXIS2_PLACEMENT_3D('',#639,#539,#540);
#445=AXIS2_PLACEMENT_3D('',#640,#541,#542);
#446=AXIS2_PLACEMENT_3D('',#641,#543,#544);
#447=AXIS2_PLACEMENT_3D('',#643,#545,#546);
#448=AXIS2_PLACEMENT_3D('',#644,#547,#548);
#449=AXIS2_PLACEMENT_3D('',#646,#549,#550);
#450=AXIS2_PLACEMENT_3D('',#647,#551,#552);
#451=AXIS2_PLACEMENT_3D('',#649,#553,#554);
#452=AXIS2_PLACEMENT_3D('',#653,#557,#558);
#453=AXIS2_PLACEMENT_3D('',#663,#560,#561);
#454=AXIS2_PLACEMENT_3D('',#667,#564,#565);
#455=AXIS2_PLACEMENT_3D('',#679,#569,#570);
#456=AXIS2_PLACEMENT_3D('',#683,#573,#574);
#457=DIRECTION('',(0.,0.,1.));
#458=DIRECTION('',(1.,0.,0.));
#459=DIRECTION('',(0.,1.,0.));
#460=DIRECTION('',(-1.,0.,0.));
#461=DIRECTION('',(1.,0.,0.));
#462=DIRECTION('',(0.,0.,1.));
#463=DIRECTION('',(-1.,0.,0.));
#464=DIRECTION('',(0.,0.,1.));
#465=DIRECTION('',(-1.,0.,0.));
#466=DIRECTION('',(0.,0.,1.));
#467=DIRECTION('',(1.,0.,0.));
#468=DIRECTION('',(0.,0.,1.));
#469=DIRECTION('',(-1.,0.,0.));
#470=DIRECTION('',(0.,0.,1.));
#471=DIRECTION('',(1.,0.,0.));
#472=DIRECTION('',(0.,0.,1.));
#473=DIRECTION('',(-1.,0.,0.));
#474=DIRECTION('',(0.,0.,1.));
#475=DIRECTION('',(1.,0.,0.));
#476=DIRECTION('',(0.,0.,1.));
#477=DIRECTION('',(-1.,0.,0.));
#478=DIRECTION('',(7.42563416849577E-17,0.,1.));
#479=DIRECTION('',(1.,0.,0.));
#480=DIRECTION('',(0.,0.,1.));
#481=DIRECTION('',(-1.,0.,0.));
#482=DIRECTION('',(0.,0.,1.));
#483=DIRECTION('',(1.,0.,0.));
#484=DIRECTION('',(0.,0.,1.));
#485=DIRECTION('',(1.,0.,0.));
#486=DIRECTION('',(1.99716900580722E-16,0.,-1.));
#487=DIRECTION('',(1.,0.,0.));
#488=DIRECTION('',(0.,0.,1.));
#489=DIRECTION('',(-1.,0.,0.));
#490=DIRECTION('',(0.,0.,1.));
#491=DIRECTION('',(1.,0.,0.));
#492=DIRECTION('',(0.,0.,1.));
#493=DIRECTION('',(-1.,0.,0.));
#494=DIRECTION('',(0.,0.,1.));
#495=DIRECTION('',(1.,0.,0.));
#496=DIRECTION('',(0.,0.,1.));
#497=DIRECTION('',(-1.,0.,0.));
#498=DIRECTION('',(0.,0.,1.));
#499=DIRECTION('',(1.,0.,0.));
#500=DIRECTION('',(0.,0.,1.));
#501=DIRECTION('',(1.,0.,0.));
#502=DIRECTION('',(2.92140361551587E-18,0.,-1.));
#503=DIRECTION('',(1.,0.,0.));
#504=DIRECTION('',(0.,0.,1.));
#505=DIRECTION('',(-1.,0.,0.));
#506=DIRECTION('',(0.,0.,1.));
#507=DIRECTION('',(1.,0.,0.));
#508=DIRECTION('',(0.,0.,1.));
#509=DIRECTION('',(-1.,0.,0.));
#510=DIRECTION('',(0.,0.,1.));
#511=DIRECTION('',(-1.,0.,0.));
#512=DIRECTION('',(0.,0.,1.));
#513=DIRECTION('',(1.,0.,0.));
#514=DIRECTION('',(0.,0.,1.));
#515=DIRECTION('',(-1.,0.,0.));
#516=DIRECTION('',(0.,0.,1.));
#517=DIRECTION('',(1.,0.,0.));
#518=DIRECTION('',(0.,0.,1.));
#519=DIRECTION('',(-1.,0.,0.));
#520=DIRECTION('',(0.,0.,1.));
#521=DIRECTION('',(1.,0.,0.));
#522=DIRECTION('',(0.,0.,1.));
#523=DIRECTION('',(1.,0.,0.));
#524=DIRECTION('',(4.97441523996235E-17,0.,-1.));
#525=DIRECTION('',(1.,0.,0.));
#526=DIRECTION('',(0.,0.,1.));
#527=DIRECTION('',(-1.,0.,0.));
#528=DIRECTION('',(0.,0.,1.));
#529=DIRECTION('',(1.,0.,0.));
#530=DIRECTION('',(0.,0.,1.));
#531=DIRECTION('',(-1.,0.,0.));
#532=DIRECTION('',(0.,0.,1.));
#533=DIRECTION('',(1.,0.,0.));
#534=DIRECTION('',(0.,0.,1.));
#535=DIRECTION('',(1.,0.,0.));
#536=DIRECTION('',(0.,0.,-1.));
#537=DIRECTION('',(1.,0.,0.));
#538=DIRECTION('',(0.,0.,1.));
#539=DIRECTION('',(-1.,0.,0.));
#540=DIRECTION('',(0.,0.,1.));
#541=DIRECTION('',(1.,0.,0.));
#542=DIRECTION('',(0.,0.,-1.));
#543=DIRECTION('',(1.,0.,0.));
#544=DIRECTION('',(0.,0.,-1.));
#545=DIRECTION('',(1.,0.,0.));
#546=DIRECTION('',(0.,0.,-1.));
#547=DIRECTION('',(1.,0.,0.));
#548=DIRECTION('',(0.,0.,-1.));
#549=DIRECTION('',(1.,0.,0.));
#550=DIRECTION('',(0.,0.,-1.));
#551=DIRECTION('',(1.,0.,0.));
#552=DIRECTION('',(0.,0.,-1.));
#553=DIRECTION('',(1.,0.,0.));
#554=DIRECTION('',(0.,0.,-1.));
#555=DIRECTION('',(-0.998782025129912,-0.0348994967025006,0.0348782368720626));
#556=DIRECTION('',(1.,0.,0.));
#557=DIRECTION('',(1.,0.,0.));
#558=DIRECTION('',(0.,0.,-1.));
#559=DIRECTION('',(1.,0.,0.));
#560=DIRECTION('',(-1.,0.,0.));
#561=DIRECTION('',(0.,0.,-1.));
#562=DIRECTION('',(-0.0348782368720624,0.999390827019096,0.00121797487008782));
#563=DIRECTION('',(1.,0.,0.));
#564=DIRECTION('',(1.,0.,0.));
#565=DIRECTION('',(0.,0.,-1.));
#566=DIRECTION('',(0.0348782368720624,-0.999390827019096,-0.00121797487008785));
#567=DIRECTION('',(1.,0.,0.));
#568=DIRECTION('',(1.,0.,0.));
#569=DIRECTION('',(1.,0.,0.));
#570=DIRECTION('',(0.,0.,-1.));
#571=DIRECTION('',(0.173542395888905,-0.978779406151605,-0.108967476444353));
#572=DIRECTION('',(1.,0.,0.));
#573=DIRECTION('',(1.,0.,0.));
#574=DIRECTION('',(0.,0.,-1.));
#575=DIRECTION('',(1.,0.,0.));
#576=DIRECTION('',(-0.173542395888919,-0.980046340046539,-0.0969134056285201));
#577=DIRECTION('',(1.,0.,0.));
#578=CARTESIAN_POINT('',(0.,0.,0.));
#579=CARTESIAN_POINT('',(58.,0.,0.));
#580=CARTESIAN_POINT('',(107.,0.,0.));
#581=CARTESIAN_POINT('',(107.,0.,9.75000000000001));
#582=CARTESIAN_POINT('',(108.,0.,0.));
#583=CARTESIAN_POINT('',(108.,0.,8.75000000000004));
#584=CARTESIAN_POINT('',(107.,0.,0.));
#585=CARTESIAN_POINT('',(105.176326980709,0.,0.));
#586=CARTESIAN_POINT('',(105.176326980709,0.,9.75));
#587=CARTESIAN_POINT('',(0.,0.,0.));
#588=CARTESIAN_POINT('',(104.834306837383,0.,0.));
#589=CARTESIAN_POINT('',(104.834306837383,0.,9.81030737921407));
#590=CARTESIAN_POINT('',(105.176326980709,0.,0.));
#591=CARTESIAN_POINT('',(104.313130645137,0.,0.));
#592=CARTESIAN_POINT('',(104.313130645137,0.,10.));
#593=CARTESIAN_POINT('',(104.834306837383,0.,0.));
#594=CARTESIAN_POINT('',(60.,0.,0.));
#595=CARTESIAN_POINT('',(60.,0.,10.));
#596=CARTESIAN_POINT('',(0.,0.,0.));
#597=CARTESIAN_POINT('',(59.1178539171138,0.,0.));
#598=CARTESIAN_POINT('',(59.1178539171138,0.,9.76362966948438));
#599=CARTESIAN_POINT('',(60.,0.,0.));
#600=CARTESIAN_POINT('',(59.0143262990728,0.,0.));
#601=CARTESIAN_POINT('',(59.0143262990728,0.,9.75));
#602=CARTESIAN_POINT('',(59.0143262990728,0.,0.));
#603=CARTESIAN_POINT('',(58.2844713195104,0.,0.));
#604=CARTESIAN_POINT('',(58.2844713195104,0.,9.75));
#605=CARTESIAN_POINT('',(0.,0.,0.));
#606=CARTESIAN_POINT('',(57.8883640920138,0.,0.));
#607=CARTESIAN_POINT('',(57.8883640920138,0.,10.205669240384));
#608=CARTESIAN_POINT('',(58.2844713195104,0.,0.));
#609=CARTESIAN_POINT('',(58.,0.,0.));
#610=CARTESIAN_POINT('',(58.,0.,11.));
#611=CARTESIAN_POINT('',(57.8883640920138,0.,0.));
#612=CARTESIAN_POINT('',(58.,0.,0.));
#613=CARTESIAN_POINT('',(58.,0.,11.8));
#614=CARTESIAN_POINT('',(58.,11.,0.));
#615=CARTESIAN_POINT('',(57.5872983346207,0.,0.));
#616=CARTESIAN_POINT('',(57.5872983346207,0.,12.5));
#617=CARTESIAN_POINT('',(57.2,0.,0.));
#618=CARTESIAN_POINT('',(108.,12.9999999999999,0.));
#619=CARTESIAN_POINT('',(53.7654483572392,0.,0.));
#620=CARTESIAN_POINT('',(53.7654483572392,0.,12.5));
#621=CARTESIAN_POINT('',(0.,0.,0.));
#622=CARTESIAN_POINT('',(52.3281232912478,0.,0.));
#623=CARTESIAN_POINT('',(52.3281232912478,0.,12.1332672964727));
#624=CARTESIAN_POINT('',(53.7654483572392,0.,0.));
#625=CARTESIAN_POINT('',(42.119794514587,0.,0.));
#626=CARTESIAN_POINT('',(42.119794514587,0.,6.56122117254541));
#627=CARTESIAN_POINT('',(52.3281232912478,0.,0.));
#628=CARTESIAN_POINT('',(39.7242527379347,0.,0.));
#629=CARTESIAN_POINT('',(39.7242527379347,0.,5.94999999999998));
#630=CARTESIAN_POINT('',(39.7242527379347,0.,0.));
#631=CARTESIAN_POINT('',(4.,0.,0.));
#632=CARTESIAN_POINT('',(4.,0.,5.94999999999998));
#633=CARTESIAN_POINT('',(0.,0.,0.));
#634=CARTESIAN_POINT('',(1.54813123500564,0.,0.));
#635=CARTESIAN_POINT('',(1.54813123500564,0.,5.82150300293318));
#636=CARTESIAN_POINT('',(4.,0.,0.));
#637=CARTESIAN_POINT('',(0.789999999999999,0.,0.));
#638=CARTESIAN_POINT('',(0.789999999999999,0.,5.02259937512952));
#639=CARTESIAN_POINT('',(1.59,0.,0.));
#640=CARTESIAN_POINT('',(0.79,5.02259937512952,0.));
#641=CARTESIAN_POINT('',(0.324678178303933,0.,0.));
#642=CARTESIAN_POINT('',(0.324678178303933,0.,-0.0981670662442756));
#643=CARTESIAN_POINT('',(0.324678178303933,0.,0.));
#644=CARTESIAN_POINT('',(5.09451950953135,0.,0.));
#645=CARTESIAN_POINT('',(5.09451950953135,0.,-1.90625554681161));
#646=CARTESIAN_POINT('',(5.09451950953135,0.,0.));
#647=CARTESIAN_POINT('',(0.942649369032293,0.,0.));
#648=CARTESIAN_POINT('',(0.942649369032293,0.,-6.25000137626824));
#649=CARTESIAN_POINT('',(4.85257961817774,0.,0.));
#650=CARTESIAN_POINT('',(4.85257961817774,0.,-6.09494898871191));
#651=CARTESIAN_POINT('',(4.85257961817774,-6.03801181284761,0.831153730012084));
#652=CARTESIAN_POINT('',(0.,0.,0.));
#653=CARTESIAN_POINT('',(0.536781764379986,0.,0.));
#654=CARTESIAN_POINT('',(0.536781764379986,0.,-5.87850308534843));
#655=CARTESIAN_POINT('',(0.942649369032295,-6.17463281162791,0.967691502971304));
#656=CARTESIAN_POINT('',(0.891313377858384,-6.17642659666771,0.969484195285719));
#657=CARTESIAN_POINT('',(0.786375556308154,-6.15987190242944,0.97314870476304));
#658=CARTESIAN_POINT('',(0.653568423491504,-6.07771644147879,0.97778643203499));
#659=CARTESIAN_POINT('',(0.562398856816592,-5.95088294078149,0.980970143457508));
#660=CARTESIAN_POINT('',(0.538574456694401,-5.84729173114722,0.981802109842454));
#661=CARTESIAN_POINT('',(0.536781764379986,-5.79592444841257,0.981864712037535));
#662=CARTESIAN_POINT('',(0.,0.,0.));
#663=CARTESIAN_POINT('',(0.465593354938816,0.,0.));
#664=CARTESIAN_POINT('',(0.465593354938816,0.,-3.88295345656108));
#665=CARTESIAN_POINT('',(0.536781764379984,-5.79592444841257,0.981864712037535));
#666=CARTESIAN_POINT('',(0.,0.,0.));
#667=CARTESIAN_POINT('',(5.23105728249057,0.,0.));
#668=CARTESIAN_POINT('',(5.23105728249057,0.,-5.69098257390098));
#669=CARTESIAN_POINT('',(5.09451950953135,-1.71958328907321,0.822705002835266));
#670=CARTESIAN_POINT('',(0.,0.,0.));
#671=CARTESIAN_POINT('',(5.23105728249057,-5.63189681391081,0.817936998738841));
#672=CARTESIAN_POINT('',(5.23284997480499,-5.68326409664547,0.817874396543759));
#673=CARTESIAN_POINT('',(5.21630536523915,-5.78826588244655,0.818452147040739));
#674=CARTESIAN_POINT('',(5.13419995117554,-5.92115396709386,0.821319331279279));
#675=CARTESIAN_POINT('',(5.00744371401995,-6.01237910565836,0.82574575661863));
#676=CARTESIAN_POINT('',(4.90391560935165,-6.03621802780782,0.82936103769767));
#677=CARTESIAN_POINT('',(4.85257961817774,-6.03801181284761,0.831153730012084));
#678=CARTESIAN_POINT('',(0.,0.,0.));
#679=CARTESIAN_POINT('',(2.07568396737301E-6,0.,0.));
#680=CARTESIAN_POINT('',(2.07568396737301E-6,0.,-1.80321833777718));
#681=CARTESIAN_POINT('',(2.07568396740165E-6,1.78011779107395,0.287709964370168));
#682=CARTESIAN_POINT('',(0.,0.,0.));
#683=CARTESIAN_POINT('',(0.324678178303959,0.,0.));
#684=CARTESIAN_POINT('',(0.324678178303959,0.,-3.64397231725754));
#685=CARTESIAN_POINT('',(0.644952099133711,3.93354448035083,0.491398020340081));
#686=CARTESIAN_POINT('',(0.60544400809474,3.92646786426263,0.492041490472189));
#687=CARTESIAN_POINT('',(0.527933650418523,3.90013659302118,0.491995593056224));
#688=CARTESIAN_POINT('',(0.429799366389801,3.82815007852955,0.4878753066723));
#689=CARTESIAN_POINT('',(0.357820388728161,3.73023115616952,0.480111019905053));
#690=CARTESIAN_POINT('',(0.331644520710416,3.65300287363497,0.47291311679786));
#691=CARTESIAN_POINT('',(0.324678178303959,3.61366183340104,0.469022816886268));
#692=CARTESIAN_POINT('',(0.,0.,0.));
#693=CARTESIAN_POINT('',(0.324678178303959,3.61366183340104,0.469022816886268));
#694=CARTESIAN_POINT('',(0.,0.,0.));
#695=MECHANICAL_DESIGN_GEOMETRIC_PRESENTATION_REPRESENTATION('',(#393,#394,
#395),#696);
#696=(
GEOMETRIC_REPRESENTATION_CONTEXT(3)
GLOBAL_UNCERTAINTY_ASSIGNED_CONTEXT((#697))
GLOBAL_UNIT_ASSIGNED_CONTEXT((#703,#699,#698))
REPRESENTATION_CONTEXT('ATUM 12','TOP_LEVEL_ASSEMBLY_PART')
);
#697=UNCERTAINTY_MEASURE_WITH_UNIT(LENGTH_MEASURE(2.E-5),#703,
'DISTANCE_ACCURACY_VALUE','Maximum Tolerance applied to model');
#698=(
NAMED_UNIT(*)
SI_UNIT($,.STERADIAN.)
SOLID_ANGLE_UNIT()
);
#699=(
CONVERSION_BASED_UNIT('DEGREE',#701)
NAMED_UNIT(#700)
PLANE_ANGLE_UNIT()
);
#700=DIMENSIONAL_EXPONENTS(0.,0.,0.,0.,0.,0.,0.);
#701=PLANE_ANGLE_MEASURE_WITH_UNIT(PLANE_ANGLE_MEASURE(0.0174532925),#702);
#702=(
NAMED_UNIT(*)
PLANE_ANGLE_UNIT()
SI_UNIT($,.RADIAN.)
);
#703=(
LENGTH_UNIT()
NAMED_UNIT(*)
SI_UNIT(.MILLI.,.METRE.)
);
ENDSEC;
END-ISO-10303-21;
