ISO-10303-21;
HEADER;
/* Generated by software containing ST-Developer
 * from STEP Tools, Inc. (www.steptools.com) 
 */
/* OPTION: using custom schema-name function */

FILE_DESCRIPTION(
/* description */ (''),
/* implementation_level */ '2;1');

FILE_NAME(
/* name */ 'ATUM-13.5XD3-SPGT-050204.stp',
/* time_stamp */ '2023-10-02T16:58:28+03:00',
/* author */ (''),
/* organization */ (''),
/* preprocessor_version */ 'ST-DEVELOPER v19.4',
/* originating_system */ 'SIEMENS PLM Software NX2306.3001',
/* authorisation */ '');

FILE_SCHEMA (('AUTOMOTIVE_DESIGN { 1 0 10303 214 3 1 1 1 }'));
ENDSEC;

DATA;
#10=SHAPE_REPRESENTATION_RELATIONSHIP('None',
'relationship between STEP_ATUM 13.5XD3 SPGT 050204-None and STEP_ATUM
 13.5XD3 SPGT 050204-None',#22,#11);
#11=ADVANCED_BREP_SHAPE_REPRESENTATION(
'STEP_ATUM 13.5XD3 SPGT 050204-None',(#57,#58),#427);
#12=SHAPE_DEFINITION_REPRESENTATION(#13,#22);
#13=PRODUCT_DEFINITION_SHAPE('','',#14);
#14=PRODUCT_DEFINITION(' ','',#16,#15);
#15=PRODUCT_DEFINITION_CONTEXT('part definition',#21,'design');
#16=PRODUCT_DEFINITION_FORMATION_WITH_SPECIFIED_SOURCE(' ',' ',#18,
 .NOT_KNOWN.);
#17=PRODUCT_RELATED_PRODUCT_CATEGORY('part','',(#18));
#18=PRODUCT('STEP_ATUM 13.5XD3 SPGT 050204',
'STEP_ATUM 13.5XD3 SPGT 050204',' ',(#19));
#19=PRODUCT_CONTEXT(' ',#21,'mechanical');
#20=APPLICATION_PROTOCOL_DEFINITION('international standard',
'automotive_design',2010,#21);
#21=APPLICATION_CONTEXT(
'core data for automotive mechanical design processes');
#22=SHAPE_REPRESENTATION('STEP_ATUM 13.5XD3 SPGT 050204-None',(#247),#427);
#23=DRAUGHTING_PRE_DEFINED_COLOUR('yellow');
#24=B_SPLINE_CURVE_WITH_KNOTS('',3,(#399,#400,#401,#402,#403,#404,#405),
 .UNSPECIFIED.,.F.,.F.,(4,1,1,1,4),(0.,0.25,0.5,0.75,1.),.UNSPECIFIED.);
#25=B_SPLINE_CURVE_WITH_KNOTS('',3,(#411,#412,#413,#414,#415,#416,#417),
 .UNSPECIFIED.,.F.,.F.,(4,1,1,1,4),(0.,0.25,0.5,0.75,1.),.UNSPECIFIED.);
#26=B_SPLINE_CURVE_WITH_KNOTS('',3,(#419,#420,#421,#422,#423,#424,#425),
 .UNSPECIFIED.,.F.,.F.,(4,1,1,1,4),(0.,0.25,0.5,0.75,1.),.UNSPECIFIED.);
#27=SURFACE_OF_REVOLUTION('',#37,#32);
#28=SURFACE_OF_REVOLUTION('',#24,#33);
#29=SURFACE_OF_REVOLUTION('',#38,#34);
#30=SURFACE_OF_REVOLUTION('',#25,#35);
#31=SURFACE_OF_REVOLUTION('',#26,#36);
#32=AXIS1_PLACEMENT('',#396,#340);
#33=AXIS1_PLACEMENT('',#406,#343);
#34=AXIS1_PLACEMENT('',#410,#347);
#35=AXIS1_PLACEMENT('',#418,#348);
#36=AXIS1_PLACEMENT('',#426,#349);
#37=LINE('',#395,#39);
#38=LINE('',#409,#40);
#39=VECTOR('',#339,1.82297008896906);
#40=VECTOR('',#346,4.20596307868695);
#41=PRESENTATION_LAYER_ASSIGNMENT('1','Layer 1',(#57,#58));
#42=STYLED_ITEM('',(#44),#57);
#43=STYLED_ITEM('',(#45),#58);
#44=PRESENTATION_STYLE_ASSIGNMENT((#46));
#45=PRESENTATION_STYLE_ASSIGNMENT((#47));
#46=SURFACE_STYLE_USAGE(.BOTH.,#48);
#47=SURFACE_STYLE_USAGE(.BOTH.,#49);
#48=SURFACE_SIDE_STYLE('',(#50));
#49=SURFACE_SIDE_STYLE('',(#51));
#50=SURFACE_STYLE_FILL_AREA(#52);
#51=SURFACE_STYLE_FILL_AREA(#53);
#52=FILL_AREA_STYLE('',(#54));
#53=FILL_AREA_STYLE('',(#55));
#54=FILL_AREA_STYLE_COLOUR('',#56);
#55=FILL_AREA_STYLE_COLOUR('',#23);
#56=COLOUR_RGB('smoke gray',0.694117647058824,0.694117647058824,0.694117647058824);
#57=MANIFOLD_SOLID_BREP('',#59);
#58=MANIFOLD_SOLID_BREP('',#60);
#59=CLOSED_SHELL('',(#100,#101,#102,#103,#104,#105,#106,#107,#108,#109,
#110,#111));
#60=CLOSED_SHELL('',(#112,#113,#114,#115,#116,#117,#118));
#61=CYLINDRICAL_SURFACE('',#259,12.5);
#62=CYLINDRICAL_SURFACE('',#266,6.45);
#63=CYLINDRICAL_SURFACE('',#269,10.);
#64=TOROIDAL_SURFACE('',#257,11.8,0.799999999999997);
#65=TOROIDAL_SURFACE('',#261,9.5,3.);
#66=TOROIDAL_SURFACE('',#265,11.45,5.);
#67=TOROIDAL_SURFACE('',#270,9.2,0.8);
#68=CONICAL_SURFACE('',#252,6.45,3.);
#69=CONICAL_SURFACE('',#263,12.1788020454939,26.7557186247102);
#70=FACE_BOUND('',#129,.T.);
#71=FACE_BOUND('',#130,.T.);
#72=FACE_BOUND('',#131,.T.);
#73=FACE_BOUND('',#132,.T.);
#74=FACE_BOUND('',#133,.T.);
#75=FACE_BOUND('',#134,.T.);
#76=FACE_BOUND('',#135,.T.);
#77=FACE_BOUND('',#136,.T.);
#78=FACE_BOUND('',#137,.T.);
#79=FACE_BOUND('',#138,.T.);
#80=FACE_BOUND('',#139,.T.);
#81=FACE_BOUND('',#140,.T.);
#82=FACE_BOUND('',#141,.T.);
#83=FACE_BOUND('',#142,.T.);
#84=FACE_BOUND('',#143,.T.);
#85=FACE_BOUND('',#144,.T.);
#86=FACE_BOUND('',#146,.T.);
#87=FACE_BOUND('',#147,.T.);
#88=FACE_BOUND('',#148,.T.);
#89=FACE_BOUND('',#149,.T.);
#90=FACE_BOUND('',#152,.T.);
#91=FACE_BOUND('',#153,.T.);
#92=FACE_BOUND('',#154,.T.);
#93=FACE_BOUND('',#155,.T.);
#94=FACE_BOUND('',#156,.T.);
#95=FACE_BOUND('',#157,.T.);
#96=FACE_BOUND('',#158,.T.);
#97=FACE_BOUND('',#159,.T.);
#98=FACE_BOUND('',#160,.T.);
#99=FACE_BOUND('',#161,.T.);
#100=ADVANCED_FACE('',(#124),#119,.F.);
#101=ADVANCED_FACE('',(#70,#71),#68,.T.);
#102=ADVANCED_FACE('',(#72,#73),#120,.F.);
#103=ADVANCED_FACE('',(#74,#75),#64,.T.);
#104=ADVANCED_FACE('',(#76,#77),#61,.T.);
#105=ADVANCED_FACE('',(#78,#79),#65,.T.);
#106=ADVANCED_FACE('',(#80,#81),#69,.T.);
#107=ADVANCED_FACE('',(#82,#83),#66,.F.);
#108=ADVANCED_FACE('',(#84,#85),#62,.T.);
#109=ADVANCED_FACE('',(#125),#121,.T.);
#110=ADVANCED_FACE('',(#86,#87),#63,.T.);
#111=ADVANCED_FACE('',(#88,#89),#67,.T.);
#112=ADVANCED_FACE('',(#126),#122,.T.);
#113=ADVANCED_FACE('',(#127),#123,.F.);
#114=ADVANCED_FACE('',(#90,#91),#27,.T.);
#115=ADVANCED_FACE('',(#92,#93),#28,.T.);
#116=ADVANCED_FACE('',(#94,#95),#29,.T.);
#117=ADVANCED_FACE('',(#96,#97),#30,.T.);
#118=ADVANCED_FACE('',(#98,#99),#31,.T.);
#119=PLANE('',#249);
#120=PLANE('',#255);
#121=PLANE('',#267);
#122=PLANE('',#272);
#123=PLANE('',#274);
#124=FACE_OUTER_BOUND('',#128,.T.);
#125=FACE_OUTER_BOUND('',#145,.T.);
#126=FACE_OUTER_BOUND('',#150,.T.);
#127=FACE_OUTER_BOUND('',#151,.T.);
#128=EDGE_LOOP('',(#162));
#129=EDGE_LOOP('',(#163));
#130=EDGE_LOOP('',(#164));
#131=EDGE_LOOP('',(#165));
#132=EDGE_LOOP('',(#166));
#133=EDGE_LOOP('',(#167));
#134=EDGE_LOOP('',(#168));
#135=EDGE_LOOP('',(#169));
#136=EDGE_LOOP('',(#170));
#137=EDGE_LOOP('',(#171));
#138=EDGE_LOOP('',(#172));
#139=EDGE_LOOP('',(#173));
#140=EDGE_LOOP('',(#174));
#141=EDGE_LOOP('',(#175));
#142=EDGE_LOOP('',(#176));
#143=EDGE_LOOP('',(#177));
#144=EDGE_LOOP('',(#178));
#145=EDGE_LOOP('',(#179));
#146=EDGE_LOOP('',(#180));
#147=EDGE_LOOP('',(#181));
#148=EDGE_LOOP('',(#182));
#149=EDGE_LOOP('',(#183));
#150=EDGE_LOOP('',(#184));
#151=EDGE_LOOP('',(#185));
#152=EDGE_LOOP('',(#186));
#153=EDGE_LOOP('',(#187));
#154=EDGE_LOOP('',(#188));
#155=EDGE_LOOP('',(#189));
#156=EDGE_LOOP('',(#190));
#157=EDGE_LOOP('',(#191));
#158=EDGE_LOOP('',(#192));
#159=EDGE_LOOP('',(#193));
#160=EDGE_LOOP('',(#194));
#161=EDGE_LOOP('',(#195));
#162=ORIENTED_EDGE('',*,*,#213,.T.);
#163=ORIENTED_EDGE('',*,*,#214,.F.);
#164=ORIENTED_EDGE('',*,*,#215,.F.);
#165=ORIENTED_EDGE('',*,*,#216,.F.);
#166=ORIENTED_EDGE('',*,*,#217,.T.);
#167=ORIENTED_EDGE('',*,*,#218,.T.);
#168=ORIENTED_EDGE('',*,*,#217,.F.);
#169=ORIENTED_EDGE('',*,*,#219,.T.);
#170=ORIENTED_EDGE('',*,*,#218,.F.);
#171=ORIENTED_EDGE('',*,*,#220,.T.);
#172=ORIENTED_EDGE('',*,*,#219,.F.);
#173=ORIENTED_EDGE('',*,*,#221,.T.);
#174=ORIENTED_EDGE('',*,*,#220,.F.);
#175=ORIENTED_EDGE('',*,*,#222,.T.);
#176=ORIENTED_EDGE('',*,*,#221,.F.);
#177=ORIENTED_EDGE('',*,*,#214,.T.);
#178=ORIENTED_EDGE('',*,*,#222,.F.);
#179=ORIENTED_EDGE('',*,*,#215,.T.);
#180=ORIENTED_EDGE('',*,*,#223,.T.);
#181=ORIENTED_EDGE('',*,*,#216,.T.);
#182=ORIENTED_EDGE('',*,*,#223,.F.);
#183=ORIENTED_EDGE('',*,*,#213,.F.);
#184=ORIENTED_EDGE('',*,*,#224,.T.);
#185=ORIENTED_EDGE('',*,*,#225,.F.);
#186=ORIENTED_EDGE('',*,*,#226,.F.);
#187=ORIENTED_EDGE('',*,*,#227,.F.);
#188=ORIENTED_EDGE('',*,*,#228,.F.);
#189=ORIENTED_EDGE('',*,*,#226,.T.);
#190=ORIENTED_EDGE('',*,*,#229,.F.);
#191=ORIENTED_EDGE('',*,*,#228,.T.);
#192=ORIENTED_EDGE('',*,*,#224,.F.);
#193=ORIENTED_EDGE('',*,*,#229,.T.);
#194=ORIENTED_EDGE('',*,*,#225,.T.);
#195=ORIENTED_EDGE('',*,*,#227,.T.);
#196=VERTEX_POINT('',#352);
#197=VERTEX_POINT('',#355);
#198=VERTEX_POINT('',#357);
#199=VERTEX_POINT('',#360);
#200=VERTEX_POINT('',#362);
#201=VERTEX_POINT('',#365);
#202=VERTEX_POINT('',#368);
#203=VERTEX_POINT('',#371);
#204=VERTEX_POINT('',#374);
#205=VERTEX_POINT('',#377);
#206=VERTEX_POINT('',#382);
#207=VERTEX_POINT('',#386);
#208=VERTEX_POINT('',#389);
#209=VERTEX_POINT('',#392);
#210=VERTEX_POINT('',#394);
#211=VERTEX_POINT('',#398);
#212=VERTEX_POINT('',#408);
#213=EDGE_CURVE('',#196,#196,#230,.T.);
#214=EDGE_CURVE('',#197,#197,#231,.T.);
#215=EDGE_CURVE('',#198,#198,#232,.T.);
#216=EDGE_CURVE('',#199,#199,#233,.T.);
#217=EDGE_CURVE('',#200,#200,#234,.T.);
#218=EDGE_CURVE('',#201,#201,#235,.T.);
#219=EDGE_CURVE('',#202,#202,#236,.T.);
#220=EDGE_CURVE('',#203,#203,#237,.T.);
#221=EDGE_CURVE('',#204,#204,#238,.T.);
#222=EDGE_CURVE('',#205,#205,#239,.T.);
#223=EDGE_CURVE('',#206,#206,#240,.T.);
#224=EDGE_CURVE('',#207,#207,#241,.T.);
#225=EDGE_CURVE('',#208,#208,#242,.T.);
#226=EDGE_CURVE('',#209,#209,#243,.T.);
#227=EDGE_CURVE('',#210,#210,#244,.T.);
#228=EDGE_CURVE('',#211,#211,#245,.T.);
#229=EDGE_CURVE('',#212,#212,#246,.T.);
#230=CIRCLE('',#248,9.2);
#231=CIRCLE('',#250,6.45);
#232=CIRCLE('',#251,6.3242213297207);
#233=CIRCLE('',#253,10.);
#234=CIRCLE('',#254,11.8);
#235=CIRCLE('',#256,12.5);
#236=CIRCLE('',#258,12.5);
#237=CIRCLE('',#260,12.1788020454939);
#238=CIRCLE('',#262,6.98532992417679);
#239=CIRCLE('',#264,6.45);
#240=CIRCLE('',#268,10.);
#241=CIRCLE('',#271,6.09020885673101);
#242=CIRCLE('',#273,4.18322598982709);
#243=CIRCLE('',#275,6.37737630569652);
#244=CIRCLE('',#276,4.56294051616346);
#245=CIRCLE('',#277,6.7501183493762);
#246=CIRCLE('',#278,6.50849149315713);
#247=AXIS2_PLACEMENT_3D('',#350,#279,#280);
#248=AXIS2_PLACEMENT_3D('',#351,#281,#282);
#249=AXIS2_PLACEMENT_3D('',#353,#283,#284);
#250=AXIS2_PLACEMENT_3D('',#354,#285,#286);
#251=AXIS2_PLACEMENT_3D('',#356,#287,#288);
#252=AXIS2_PLACEMENT_3D('',#358,#289,#290);
#253=AXIS2_PLACEMENT_3D('',#359,#291,#292);
#254=AXIS2_PLACEMENT_3D('',#361,#293,#294);
#255=AXIS2_PLACEMENT_3D('',#363,#295,#296);
#256=AXIS2_PLACEMENT_3D('',#364,#297,#298);
#257=AXIS2_PLACEMENT_3D('',#366,#299,#300);
#258=AXIS2_PLACEMENT_3D('',#367,#301,#302);
#259=AXIS2_PLACEMENT_3D('',#369,#303,#304);
#260=AXIS2_PLACEMENT_3D('',#370,#305,#306);
#261=AXIS2_PLACEMENT_3D('',#372,#307,#308);
#262=AXIS2_PLACEMENT_3D('',#373,#309,#310);
#263=AXIS2_PLACEMENT_3D('',#375,#311,#312);
#264=AXIS2_PLACEMENT_3D('',#376,#313,#314);
#265=AXIS2_PLACEMENT_3D('',#378,#315,#316);
#266=AXIS2_PLACEMENT_3D('',#379,#317,#318);
#267=AXIS2_PLACEMENT_3D('',#380,#319,#320);
#268=AXIS2_PLACEMENT_3D('',#381,#321,#322);
#269=AXIS2_PLACEMENT_3D('',#383,#323,#324);
#270=AXIS2_PLACEMENT_3D('',#384,#325,#326);
#271=AXIS2_PLACEMENT_3D('',#385,#327,#328);
#272=AXIS2_PLACEMENT_3D('',#387,#329,#330);
#273=AXIS2_PLACEMENT_3D('',#388,#331,#332);
#274=AXIS2_PLACEMENT_3D('',#390,#333,#334);
#275=AXIS2_PLACEMENT_3D('',#391,#335,#336);
#276=AXIS2_PLACEMENT_3D('',#393,#337,#338);
#277=AXIS2_PLACEMENT_3D('',#397,#341,#342);
#278=AXIS2_PLACEMENT_3D('',#407,#344,#345);
#279=DIRECTION('',(0.,0.,1.));
#280=DIRECTION('',(1.,0.,0.));
#281=DIRECTION('',(1.,0.,0.));
#282=DIRECTION('',(0.,0.,1.));
#283=DIRECTION('',(-1.,0.,0.));
#284=DIRECTION('',(0.,0.,1.));
#285=DIRECTION('',(1.,0.,0.));
#286=DIRECTION('',(0.,0.,1.));
#287=DIRECTION('',(-1.,0.,0.));
#288=DIRECTION('',(0.,0.,1.));
#289=DIRECTION('',(1.,0.,0.));
#290=DIRECTION('',(0.,0.,-1.));
#291=DIRECTION('',(1.,0.,0.));
#292=DIRECTION('',(0.,0.,1.));
#293=DIRECTION('',(1.,0.,0.));
#294=DIRECTION('',(0.,0.,1.));
#295=DIRECTION('',(-1.,0.,0.));
#296=DIRECTION('',(0.,0.,1.));
#297=DIRECTION('',(1.,0.,0.));
#298=DIRECTION('',(0.,0.,1.));
#299=DIRECTION('',(-1.,0.,0.));
#300=DIRECTION('',(0.,0.,1.));
#301=DIRECTION('',(1.,0.,0.));
#302=DIRECTION('',(0.,0.,1.));
#303=DIRECTION('',(-1.,0.,0.));
#304=DIRECTION('',(0.,0.,1.));
#305=DIRECTION('',(1.,0.,0.));
#306=DIRECTION('',(0.,0.,1.));
#307=DIRECTION('',(-1.,0.,0.));
#308=DIRECTION('',(0.,0.,1.));
#309=DIRECTION('',(1.,0.,0.));
#310=DIRECTION('',(0.,0.,1.));
#311=DIRECTION('',(1.,0.,0.));
#312=DIRECTION('',(-1.07507772595953E-16,0.,-1.));
#313=DIRECTION('',(1.,0.,0.));
#314=DIRECTION('',(0.,0.,1.));
#315=DIRECTION('',(-1.,0.,0.));
#316=DIRECTION('',(0.,0.,1.));
#317=DIRECTION('',(-1.,0.,0.));
#318=DIRECTION('',(0.,0.,1.));
#319=DIRECTION('',(-1.,0.,0.));
#320=DIRECTION('',(0.,0.,1.));
#321=DIRECTION('',(-1.,0.,0.));
#322=DIRECTION('',(0.,0.,1.));
#323=DIRECTION('',(-1.,0.,0.));
#324=DIRECTION('',(0.,0.,1.));
#325=DIRECTION('',(-1.,0.,0.));
#326=DIRECTION('',(0.,0.,1.));
#327=DIRECTION('',(1.,0.,0.));
#328=DIRECTION('',(0.,0.,-1.));
#329=DIRECTION('',(1.,0.,0.));
#330=DIRECTION('',(0.,0.,-1.));
#331=DIRECTION('',(1.,0.,0.));
#332=DIRECTION('',(0.,0.,-1.));
#333=DIRECTION('',(1.,0.,0.));
#334=DIRECTION('',(0.,0.,-1.));
#335=DIRECTION('',(1.,0.,0.));
#336=DIRECTION('',(0.,0.,-1.));
#337=DIRECTION('',(-1.,0.,0.));
#338=DIRECTION('',(0.,0.,-1.));
#339=DIRECTION('',(0.0575640269595679,-0.995909906125241,0.0696408047182989));
#340=DIRECTION('',(1.,0.,0.));
#341=DIRECTION('',(1.,0.,0.));
#342=DIRECTION('',(0.,0.,-1.));
#343=DIRECTION('',(1.,0.,0.));
#344=DIRECTION('',(1.,0.,0.));
#345=DIRECTION('',(0.,0.,-1.));
#346=DIRECTION('',(0.998341816614028,0.0574238038830517,-0.00401546353521102));
#347=DIRECTION('',(1.,0.,0.));
#348=DIRECTION('',(1.,0.,0.));
#349=DIRECTION('',(1.,0.,0.));
#350=CARTESIAN_POINT('',(0.,0.,0.));
#351=CARTESIAN_POINT('',(111.,0.,0.));
#352=CARTESIAN_POINT('',(111.,0.,9.2));
#353=CARTESIAN_POINT('',(111.,12.9999999999999,0.));
#354=CARTESIAN_POINT('',(4.,0.,0.));
#355=CARTESIAN_POINT('',(4.,0.,6.45));
#356=CARTESIAN_POINT('',(1.6,0.,0.));
#357=CARTESIAN_POINT('',(1.6,0.,6.3242213297207));
#358=CARTESIAN_POINT('',(4.,0.,0.));
#359=CARTESIAN_POINT('',(61.,0.,0.));
#360=CARTESIAN_POINT('',(61.,0.,10.));
#361=CARTESIAN_POINT('',(61.,0.,0.));
#362=CARTESIAN_POINT('',(61.,0.,11.8));
#363=CARTESIAN_POINT('',(61.,11.,0.));
#364=CARTESIAN_POINT('',(60.5872983346208,0.,0.));
#365=CARTESIAN_POINT('',(60.5872983346208,0.,12.5));
#366=CARTESIAN_POINT('',(60.2,0.,0.));
#367=CARTESIAN_POINT('',(56.7134758460236,0.,0.));
#368=CARTESIAN_POINT('',(56.7134758460236,0.,12.5));
#369=CARTESIAN_POINT('',(0.,0.,0.));
#370=CARTESIAN_POINT('',(55.3629131480871,0.,0.));
#371=CARTESIAN_POINT('',(55.3629131480871,0.,12.1788020454939));
#372=CARTESIAN_POINT('',(56.7134758460236,0.,0.));
#373=CARTESIAN_POINT('',(45.0618114198548,0.,0.));
#374=CARTESIAN_POINT('',(45.0618114198548,0.,6.98532992417679));
#375=CARTESIAN_POINT('',(55.3629131480871,0.,0.));
#376=CARTESIAN_POINT('',(42.8108735899606,0.,0.));
#377=CARTESIAN_POINT('',(42.8108735899606,0.,6.45));
#378=CARTESIAN_POINT('',(42.8108735899606,0.,0.));
#379=CARTESIAN_POINT('',(0.,0.,0.));
#380=CARTESIAN_POINT('',(1.6,0.,0.));
#381=CARTESIAN_POINT('',(110.2,0.,0.));
#382=CARTESIAN_POINT('',(110.2,0.,10.));
#383=CARTESIAN_POINT('',(0.,0.,0.));
#384=CARTESIAN_POINT('',(110.2,0.,0.));
#385=CARTESIAN_POINT('',(5.28343289906586,0.,0.));
#386=CARTESIAN_POINT('',(5.28343289906586,0.,-6.09020885673101));
#387=CARTESIAN_POINT('',(5.28343289906586,0.,0.));
#388=CARTESIAN_POINT('',(0.000469586126948963,0.,0.));
#389=CARTESIAN_POINT('',(0.000469586126948963,0.,-4.18322598982709));
#390=CARTESIAN_POINT('',(0.000469586126948963,0.,0.));
#391=CARTESIAN_POINT('',(0.291723815995717,0.,0.));
#392=CARTESIAN_POINT('',(0.291723815995717,0.,-6.37737630569652));
#393=CARTESIAN_POINT('',(0.186786316647815,0.,0.));
#394=CARTESIAN_POINT('',(0.186786316647815,0.,-4.56294051616346));
#395=CARTESIAN_POINT('',(0.186786316647816,-4.5032905957093,0.735391028393903));
#396=CARTESIAN_POINT('',(1.6,0.,0.));
#397=CARTESIAN_POINT('',(0.71093792860954,0.,0.));
#398=CARTESIAN_POINT('',(0.71093792860954,0.,-6.7501183493762));
#399=CARTESIAN_POINT('',(0.291723815995717,-6.3188045658836,0.862344132367098));
#400=CARTESIAN_POINT('',(0.294704119818016,-6.37036652665426,0.865949695901346));
#401=CARTESIAN_POINT('',(0.321273393101072,-6.47361971868029,0.873169862442717));
#402=CARTESIAN_POINT('',(0.41679889363088,-6.59974821803179,0.881989626297587));
#403=CARTESIAN_POINT('',(0.553376890482147,-6.67991264517526,0.887595269119008));
#404=CARTESIAN_POINT('',(0.659250058785809,-6.69437391749531,0.888606499788996));
#405=CARTESIAN_POINT('',(0.71093792860954,-6.69140087354334,0.888398604303666));
#406=CARTESIAN_POINT('',(1.6,0.,0.));
#407=CARTESIAN_POINT('',(4.9099267491974,0.,0.));
#408=CARTESIAN_POINT('',(4.9099267491974,0.,-6.50849149315713));
#409=CARTESIAN_POINT('',(0.71093792860954,-6.69140087354333,0.888398604303666));
#410=CARTESIAN_POINT('',(1.6,0.,0.));
#411=CARTESIAN_POINT('',(4.9099267491974,-6.44987847457346,0.871509712930755));
#412=CARTESIAN_POINT('',(4.96161461902113,-6.44690543062148,0.871301817445425));
#413=CARTESIAN_POINT('',(5.06511994481864,-6.42040087875278,0.869448438631255));
#414=CARTESIAN_POINT('',(5.19155643711068,-6.32510807354116,0.862784916561653));
#415=CARTESIAN_POINT('',(5.27191661761498,-6.18886277382584,0.853257717110273));
#416=CARTESIAN_POINT('',(5.28641320288816,-6.083247507239,0.845872378225291));
#417=CARTESIAN_POINT('',(5.28343289906586,-6.03168554646834,0.842266814691042));
#418=CARTESIAN_POINT('',(1.6,0.,0.));
#419=CARTESIAN_POINT('',(0.000469586126948973,4.18292716670573,0.0499999999999984));
#420=CARTESIAN_POINT('',(-0.00494224127759413,4.2344172649959,0.0499999999999984));
#421=CARTESIAN_POINT('',(0.00455094178913845,4.3408557835242,0.0499999999999984));
#422=CARTESIAN_POINT('',(0.0783882077683004,4.48106764460347,0.0499999999999984));
#423=CARTESIAN_POINT('',(0.200184472462313,4.58244307427542,0.0499999999999984));
#424=CARTESIAN_POINT('',(0.302323310243785,4.61385862087083,0.0499999999999984));
#425=CARTESIAN_POINT('',(0.353813408533957,4.61927044827537,0.0499999999999984));
#426=CARTESIAN_POINT('',(1.6,0.,0.));
#427=(
GEOMETRIC_REPRESENTATION_CONTEXT(3)
GLOBAL_UNCERTAINTY_ASSIGNED_CONTEXT((#428))
GLOBAL_UNIT_ASSIGNED_CONTEXT((#434,#430,#429))
REPRESENTATION_CONTEXT('ATUM-13','TOP_LEVEL_ASSEMBLY_PART')
);
#428=UNCERTAINTY_MEASURE_WITH_UNIT(LENGTH_MEASURE(2.E-5),#434,
'DISTANCE_ACCURACY_VALUE','Maximum Tolerance applied to model');
#429=(
NAMED_UNIT(*)
SI_UNIT($,.STERADIAN.)
SOLID_ANGLE_UNIT()
);
#430=(
CONVERSION_BASED_UNIT('DEGREE',#432)
NAMED_UNIT(#431)
PLANE_ANGLE_UNIT()
);
#431=DIMENSIONAL_EXPONENTS(0.,0.,0.,0.,0.,0.,0.);
#432=PLANE_ANGLE_MEASURE_WITH_UNIT(PLANE_ANGLE_MEASURE(0.0174532925),#433);
#433=(
NAMED_UNIT(*)
PLANE_ANGLE_UNIT()
SI_UNIT($,.RADIAN.)
);
#434=(
LENGTH_UNIT()
NAMED_UNIT(*)
SI_UNIT(.MILLI.,.METRE.)
);
ENDSEC;
END-ISO-10303-21;
