ISO-10303-21;
HEADER;
/* Generated by software containing ST-Developer
 * from STEP Tools, Inc. (www.steptools.com) 
 */
/* OPTION: using custom schema-name function */

FILE_DESCRIPTION(
/* description */ (''),
/* implementation_level */ '2;1');

FILE_NAME(
/* name */ 'ATUM-14XD4-KDR-0502-light.stp',
/* time_stamp */ '2023-10-27T06:20:52+03:00',
/* author */ (''),
/* organization */ (''),
/* preprocessor_version */ 'ST-DEVELOPER v19.4',
/* originating_system */ 'SIEMENS PLM Software NX2306.3001',
/* authorisation */ '');

FILE_SCHEMA (('AUTOMOTIVE_DESIGN { 1 0 10303 214 3 1 1 1 }'));
ENDSEC;

DATA;
#10=SHAPE_REPRESENTATION_RELATIONSHIP('None',
'relationship between ATUM 14.5XD4 KDR 0502..LIGHT-None and ATUM 14.5X
D4 KDR 0502..LIGHT-None',#22,#11);
#11=ADVANCED_BREP_SHAPE_REPRESENTATION(
'ATUM 14.5XD4 KDR 0502..LIGHT-None',(#75,#76),#698);
#12=SHAPE_DEFINITION_REPRESENTATION(#13,#22);
#13=PRODUCT_DEFINITION_SHAPE('','',#14);
#14=PRODUCT_DEFINITION(' ','',#16,#15);
#15=PRODUCT_DEFINITION_CONTEXT('part definition',#21,'design');
#16=PRODUCT_DEFINITION_FORMATION_WITH_SPECIFIED_SOURCE(' ',' ',#18,
 .NOT_KNOWN.);
#17=PRODUCT_RELATED_PRODUCT_CATEGORY('part','',(#18));
#18=PRODUCT('ATUM 14.5XD4 KDR 0502..LIGHT',
'ATUM 14.5XD4 KDR 0502..LIGHT',' ',(#19));
#19=PRODUCT_CONTEXT(' ',#21,'mechanical');
#20=APPLICATION_PROTOCOL_DEFINITION('international standard',
'automotive_design',2010,#21);
#21=APPLICATION_CONTEXT(
'core data for automotive mechanical design processes');
#22=SHAPE_REPRESENTATION('ATUM 14.5XD4 KDR 0502..LIGHT-None',(#403),#698);
#23=DRAUGHTING_PRE_DEFINED_COLOUR('yellow');
#24=B_SPLINE_CURVE_WITH_KNOTS('',3,(#664,#665,#666,#667,#668,#669,#670),
 .UNSPECIFIED.,.F.,.F.,(4,1,1,1,4),(0.,0.25,0.5,0.75,1.),.UNSPECIFIED.);
#25=B_SPLINE_CURVE_WITH_KNOTS('',3,(#678,#679,#680,#681,#682,#683,#684),
 .UNSPECIFIED.,.F.,.F.,(4,1,1,1,4),(0.,0.25,0.5,0.75,1.),.UNSPECIFIED.);
#26=SURFACE_OF_REVOLUTION('',#44,#35);
#27=SURFACE_OF_REVOLUTION('',#45,#36);
#28=SURFACE_OF_REVOLUTION('',#24,#37);
#29=SURFACE_OF_REVOLUTION('',#46,#38);
#30=SURFACE_OF_REVOLUTION('',#25,#39);
#31=SURFACE_OF_REVOLUTION('',#47,#40);
#32=SURFACE_OF_REVOLUTION('',#48,#41);
#33=SURFACE_OF_REVOLUTION('',#49,#42);
#34=SURFACE_OF_REVOLUTION('',#50,#43);
#35=AXIS1_PLACEMENT('',#657,#551);
#36=AXIS1_PLACEMENT('',#663,#557);
#37=AXIS1_PLACEMENT('',#671,#558);
#38=AXIS1_PLACEMENT('',#677,#564);
#39=AXIS1_PLACEMENT('',#685,#565);
#40=AXIS1_PLACEMENT('',#689,#569);
#41=AXIS1_PLACEMENT('',#693,#573);
#42=AXIS1_PLACEMENT('',#695,#575);
#43=AXIS1_PLACEMENT('',#697,#577);
#44=LINE('',#656,#51);
#45=LINE('',#662,#52);
#46=LINE('',#676,#53);
#47=LINE('',#688,#54);
#48=LINE('',#692,#55);
#49=LINE('',#694,#56);
#50=LINE('',#696,#57);
#51=VECTOR('',#550,2.56308475165506);
#52=VECTOR('',#556,4.31469825324187);
#53=VECTOR('',#563,4.03280284360973);
#54=VECTOR('',#568,2.09000847248445);
#55=VECTOR('',#572,2.09000847248446);
#56=VECTOR('',#574,0.438522739048106);
#57=VECTOR('',#576,2.09000847248445);
#58=(
BOUNDED_CURVE()
B_SPLINE_CURVE(3,(#648,#649,#650,#651,#652,#653,#654),.UNSPECIFIED.,.T.,
 .F.)
B_SPLINE_CURVE_WITH_KNOTS((1,3,3,3,1),(-0.5,0.,0.5,1.,1.5),
 .UNSPECIFIED.)
CURVE()
GEOMETRIC_REPRESENTATION_ITEM()
RATIONAL_B_SPLINE_CURVE((1.,0.333333333333333,0.333333333333333,1.,0.333333333333333,
0.333333333333333,1.))
REPRESENTATION_ITEM('')
);
#59=PRESENTATION_LAYER_ASSIGNMENT('1','Layer 1',(#75,#76));
#60=STYLED_ITEM('',(#62),#75);
#61=STYLED_ITEM('',(#63),#76);
#62=PRESENTATION_STYLE_ASSIGNMENT((#64));
#63=PRESENTATION_STYLE_ASSIGNMENT((#65));
#64=SURFACE_STYLE_USAGE(.BOTH.,#66);
#65=SURFACE_STYLE_USAGE(.BOTH.,#67);
#66=SURFACE_SIDE_STYLE('',(#68));
#67=SURFACE_SIDE_STYLE('',(#69));
#68=SURFACE_STYLE_FILL_AREA(#70);
#69=SURFACE_STYLE_FILL_AREA(#71);
#70=FILL_AREA_STYLE('',(#72));
#71=FILL_AREA_STYLE('',(#73));
#72=FILL_AREA_STYLE_COLOUR('',#74);
#73=FILL_AREA_STYLE_COLOUR('',#23);
#74=COLOUR_RGB('smoke gray',0.694117647058824,0.694117647058824,0.694117647058824);
#75=MANIFOLD_SOLID_BREP('',#77);
#76=MANIFOLD_SOLID_BREP('',#78);
#77=CLOSED_SHELL('',(#98,#99,#100,#101,#102,#103,#104,#105,#106,#107,#108,
#109,#110,#111,#112,#113,#114,#115,#116,#117,#118));
#78=CLOSED_SHELL('',(#119,#120,#121,#122,#123,#124,#125,#126,#127,#128,
#129));
#79=FACE_OUTER_BOUND('',#218,.T.);
#80=FACE_OUTER_BOUND('',#233,.T.);
#81=FACE_OUTER_BOUND('',#234,.T.);
#82=FACE_OUTER_BOUND('',#235,.T.);
#83=PLANE('',#426);
#84=PLANE('',#429);
#85=PLANE('',#444);
#86=PLANE('',#446);
#87=PLANE('',#448);
#88=CONICAL_SURFACE('',#412,9.81030737921407,20.0000000000128);
#89=CONICAL_SURFACE('',#416,10.,15.);
#90=CONICAL_SURFACE('',#424,10.205669240384,82.);
#91=CONICAL_SURFACE('',#435,12.2010468585258,25.7960264944999);
#92=CONICAL_SURFACE('',#441,6.7,3.00000000000005);
#93=CYLINDRICAL_SURFACE('',#408,9.75);
#94=CYLINDRICAL_SURFACE('',#414,10.);
#95=CYLINDRICAL_SURFACE('',#420,9.75);
#96=CYLINDRICAL_SURFACE('',#431,12.5);
#97=CYLINDRICAL_SURFACE('',#439,6.7);
#98=ADVANCED_FACE('',(#138,#139),#130,.T.);
#99=ADVANCED_FACE('',(#140,#141),#93,.T.);
#100=ADVANCED_FACE('',(#142,#143),#131,.F.);
#101=ADVANCED_FACE('',(#144,#145),#88,.T.);
#102=ADVANCED_FACE('',(#146,#147),#94,.T.);
#103=ADVANCED_FACE('',(#148,#149),#89,.T.);
#104=ADVANCED_FACE('',(#150,#151),#132,.F.);
#105=ADVANCED_FACE('',(#152,#153),#95,.T.);
#106=ADVANCED_FACE('',(#154,#155),#133,.F.);
#107=ADVANCED_FACE('',(#156,#157),#90,.F.);
#108=ADVANCED_FACE('',(#158,#159),#83,.F.);
#109=ADVANCED_FACE('',(#160,#161),#134,.T.);
#110=ADVANCED_FACE('',(#79),#84,.F.);
#111=ADVANCED_FACE('',(#162,#163),#96,.T.);
#112=ADVANCED_FACE('',(#164,#165),#135,.T.);
#113=ADVANCED_FACE('',(#166,#167),#91,.T.);
#114=ADVANCED_FACE('',(#168,#169),#136,.F.);
#115=ADVANCED_FACE('',(#170,#171),#97,.T.);
#116=ADVANCED_FACE('',(#172,#173),#92,.T.);
#117=ADVANCED_FACE('',(#174,#175),#137,.T.);
#118=ADVANCED_FACE('',(#80),#85,.F.);
#119=ADVANCED_FACE('',(#81),#86,.T.);
#120=ADVANCED_FACE('',(#82),#87,.F.);
#121=ADVANCED_FACE('',(#176,#177),#26,.F.);
#122=ADVANCED_FACE('',(#178,#179),#27,.F.);
#123=ADVANCED_FACE('',(#180,#181),#28,.F.);
#124=ADVANCED_FACE('',(#182,#183),#29,.F.);
#125=ADVANCED_FACE('',(#184,#185),#30,.F.);
#126=ADVANCED_FACE('',(#186,#187),#31,.F.);
#127=ADVANCED_FACE('',(#188,#189),#32,.F.);
#128=ADVANCED_FACE('',(#190,#191),#33,.F.);
#129=ADVANCED_FACE('',(#192,#193),#34,.F.);
#130=TOROIDAL_SURFACE('',#406,8.75000000000004,0.999999999999972);
#131=TOROIDAL_SURFACE('',#410,10.75,1.00000000000011);
#132=TOROIDAL_SURFACE('',#418,10.15,0.4);
#133=TOROIDAL_SURFACE('',#422,10.15,0.399999999999986);
#134=TOROIDAL_SURFACE('',#428,11.8,0.799999999999997);
#135=TOROIDAL_SURFACE('',#433,9.5,3.);
#136=TOROIDAL_SURFACE('',#437,11.7,5.);
#137=TOROIDAL_SURFACE('',#443,5.53092276029634,0.999999999999999);
#138=FACE_BOUND('',#194,.T.);
#139=FACE_BOUND('',#195,.T.);
#140=FACE_BOUND('',#196,.T.);
#141=FACE_BOUND('',#197,.T.);
#142=FACE_BOUND('',#198,.T.);
#143=FACE_BOUND('',#199,.T.);
#144=FACE_BOUND('',#200,.T.);
#145=FACE_BOUND('',#201,.T.);
#146=FACE_BOUND('',#202,.T.);
#147=FACE_BOUND('',#203,.T.);
#148=FACE_BOUND('',#204,.T.);
#149=FACE_BOUND('',#205,.T.);
#150=FACE_BOUND('',#206,.T.);
#151=FACE_BOUND('',#207,.T.);
#152=FACE_BOUND('',#208,.T.);
#153=FACE_BOUND('',#209,.T.);
#154=FACE_BOUND('',#210,.T.);
#155=FACE_BOUND('',#211,.T.);
#156=FACE_BOUND('',#212,.T.);
#157=FACE_BOUND('',#213,.T.);
#158=FACE_BOUND('',#214,.T.);
#159=FACE_BOUND('',#215,.T.);
#160=FACE_BOUND('',#216,.T.);
#161=FACE_BOUND('',#217,.T.);
#162=FACE_BOUND('',#219,.T.);
#163=FACE_BOUND('',#220,.T.);
#164=FACE_BOUND('',#221,.T.);
#165=FACE_BOUND('',#222,.T.);
#166=FACE_BOUND('',#223,.T.);
#167=FACE_BOUND('',#224,.T.);
#168=FACE_BOUND('',#225,.T.);
#169=FACE_BOUND('',#226,.T.);
#170=FACE_BOUND('',#227,.T.);
#171=FACE_BOUND('',#228,.T.);
#172=FACE_BOUND('',#229,.T.);
#173=FACE_BOUND('',#230,.T.);
#174=FACE_BOUND('',#231,.T.);
#175=FACE_BOUND('',#232,.T.);
#176=FACE_BOUND('',#236,.T.);
#177=FACE_BOUND('',#237,.T.);
#178=FACE_BOUND('',#238,.T.);
#179=FACE_BOUND('',#239,.T.);
#180=FACE_BOUND('',#240,.T.);
#181=FACE_BOUND('',#241,.T.);
#182=FACE_BOUND('',#242,.T.);
#183=FACE_BOUND('',#243,.T.);
#184=FACE_BOUND('',#244,.T.);
#185=FACE_BOUND('',#245,.T.);
#186=FACE_BOUND('',#246,.T.);
#187=FACE_BOUND('',#247,.T.);
#188=FACE_BOUND('',#248,.T.);
#189=FACE_BOUND('',#249,.T.);
#190=FACE_BOUND('',#250,.T.);
#191=FACE_BOUND('',#251,.T.);
#192=FACE_BOUND('',#252,.T.);
#193=FACE_BOUND('',#253,.T.);
#194=EDGE_LOOP('',(#254));
#195=EDGE_LOOP('',(#255));
#196=EDGE_LOOP('',(#256));
#197=EDGE_LOOP('',(#257));
#198=EDGE_LOOP('',(#258));
#199=EDGE_LOOP('',(#259));
#200=EDGE_LOOP('',(#260));
#201=EDGE_LOOP('',(#261));
#202=EDGE_LOOP('',(#262));
#203=EDGE_LOOP('',(#263));
#204=EDGE_LOOP('',(#264));
#205=EDGE_LOOP('',(#265));
#206=EDGE_LOOP('',(#266));
#207=EDGE_LOOP('',(#267));
#208=EDGE_LOOP('',(#268));
#209=EDGE_LOOP('',(#269));
#210=EDGE_LOOP('',(#270));
#211=EDGE_LOOP('',(#271));
#212=EDGE_LOOP('',(#272));
#213=EDGE_LOOP('',(#273));
#214=EDGE_LOOP('',(#274));
#215=EDGE_LOOP('',(#275));
#216=EDGE_LOOP('',(#276));
#217=EDGE_LOOP('',(#277));
#218=EDGE_LOOP('',(#278));
#219=EDGE_LOOP('',(#279));
#220=EDGE_LOOP('',(#280));
#221=EDGE_LOOP('',(#281));
#222=EDGE_LOOP('',(#282));
#223=EDGE_LOOP('',(#283));
#224=EDGE_LOOP('',(#284));
#225=EDGE_LOOP('',(#285));
#226=EDGE_LOOP('',(#286));
#227=EDGE_LOOP('',(#287));
#228=EDGE_LOOP('',(#288));
#229=EDGE_LOOP('',(#289));
#230=EDGE_LOOP('',(#290));
#231=EDGE_LOOP('',(#291));
#232=EDGE_LOOP('',(#292));
#233=EDGE_LOOP('',(#293));
#234=EDGE_LOOP('',(#294));
#235=EDGE_LOOP('',(#295));
#236=EDGE_LOOP('',(#296));
#237=EDGE_LOOP('',(#297));
#238=EDGE_LOOP('',(#298));
#239=EDGE_LOOP('',(#299));
#240=EDGE_LOOP('',(#300));
#241=EDGE_LOOP('',(#301));
#242=EDGE_LOOP('',(#302));
#243=EDGE_LOOP('',(#303));
#244=EDGE_LOOP('',(#304));
#245=EDGE_LOOP('',(#305));
#246=EDGE_LOOP('',(#306));
#247=EDGE_LOOP('',(#307));
#248=EDGE_LOOP('',(#308));
#249=EDGE_LOOP('',(#309));
#250=EDGE_LOOP('',(#310));
#251=EDGE_LOOP('',(#311));
#252=EDGE_LOOP('',(#312));
#253=EDGE_LOOP('',(#313));
#254=ORIENTED_EDGE('',*,*,#344,.T.);
#255=ORIENTED_EDGE('',*,*,#345,.T.);
#256=ORIENTED_EDGE('',*,*,#346,.T.);
#257=ORIENTED_EDGE('',*,*,#344,.F.);
#258=ORIENTED_EDGE('',*,*,#347,.T.);
#259=ORIENTED_EDGE('',*,*,#346,.F.);
#260=ORIENTED_EDGE('',*,*,#348,.T.);
#261=ORIENTED_EDGE('',*,*,#347,.F.);
#262=ORIENTED_EDGE('',*,*,#349,.T.);
#263=ORIENTED_EDGE('',*,*,#348,.F.);
#264=ORIENTED_EDGE('',*,*,#350,.T.);
#265=ORIENTED_EDGE('',*,*,#349,.F.);
#266=ORIENTED_EDGE('',*,*,#351,.T.);
#267=ORIENTED_EDGE('',*,*,#350,.F.);
#268=ORIENTED_EDGE('',*,*,#352,.T.);
#269=ORIENTED_EDGE('',*,*,#351,.F.);
#270=ORIENTED_EDGE('',*,*,#353,.T.);
#271=ORIENTED_EDGE('',*,*,#352,.F.);
#272=ORIENTED_EDGE('',*,*,#354,.T.);
#273=ORIENTED_EDGE('',*,*,#353,.F.);
#274=ORIENTED_EDGE('',*,*,#355,.T.);
#275=ORIENTED_EDGE('',*,*,#354,.F.);
#276=ORIENTED_EDGE('',*,*,#356,.T.);
#277=ORIENTED_EDGE('',*,*,#355,.F.);
#278=ORIENTED_EDGE('',*,*,#345,.F.);
#279=ORIENTED_EDGE('',*,*,#357,.T.);
#280=ORIENTED_EDGE('',*,*,#356,.F.);
#281=ORIENTED_EDGE('',*,*,#358,.T.);
#282=ORIENTED_EDGE('',*,*,#357,.F.);
#283=ORIENTED_EDGE('',*,*,#359,.T.);
#284=ORIENTED_EDGE('',*,*,#358,.F.);
#285=ORIENTED_EDGE('',*,*,#360,.T.);
#286=ORIENTED_EDGE('',*,*,#359,.F.);
#287=ORIENTED_EDGE('',*,*,#361,.T.);
#288=ORIENTED_EDGE('',*,*,#360,.F.);
#289=ORIENTED_EDGE('',*,*,#362,.T.);
#290=ORIENTED_EDGE('',*,*,#361,.F.);
#291=ORIENTED_EDGE('',*,*,#363,.T.);
#292=ORIENTED_EDGE('',*,*,#362,.F.);
#293=ORIENTED_EDGE('',*,*,#363,.F.);
#294=ORIENTED_EDGE('',*,*,#364,.T.);
#295=ORIENTED_EDGE('',*,*,#365,.F.);
#296=ORIENTED_EDGE('',*,*,#366,.F.);
#297=ORIENTED_EDGE('',*,*,#367,.F.);
#298=ORIENTED_EDGE('',*,*,#368,.T.);
#299=ORIENTED_EDGE('',*,*,#369,.F.);
#300=ORIENTED_EDGE('',*,*,#366,.T.);
#301=ORIENTED_EDGE('',*,*,#368,.F.);
#302=ORIENTED_EDGE('',*,*,#370,.F.);
#303=ORIENTED_EDGE('',*,*,#371,.T.);
#304=ORIENTED_EDGE('',*,*,#369,.T.);
#305=ORIENTED_EDGE('',*,*,#371,.F.);
#306=ORIENTED_EDGE('',*,*,#365,.T.);
#307=ORIENTED_EDGE('',*,*,#372,.F.);
#308=ORIENTED_EDGE('',*,*,#373,.T.);
#309=ORIENTED_EDGE('',*,*,#364,.F.);
#310=ORIENTED_EDGE('',*,*,#370,.T.);
#311=ORIENTED_EDGE('',*,*,#373,.F.);
#312=ORIENTED_EDGE('',*,*,#372,.T.);
#313=ORIENTED_EDGE('',*,*,#367,.T.);
#314=VERTEX_POINT('',#580);
#315=VERTEX_POINT('',#582);
#316=VERTEX_POINT('',#585);
#317=VERTEX_POINT('',#588);
#318=VERTEX_POINT('',#591);
#319=VERTEX_POINT('',#594);
#320=VERTEX_POINT('',#597);
#321=VERTEX_POINT('',#600);
#322=VERTEX_POINT('',#603);
#323=VERTEX_POINT('',#606);
#324=VERTEX_POINT('',#609);
#325=VERTEX_POINT('',#612);
#326=VERTEX_POINT('',#615);
#327=VERTEX_POINT('',#619);
#328=VERTEX_POINT('',#622);
#329=VERTEX_POINT('',#625);
#330=VERTEX_POINT('',#628);
#331=VERTEX_POINT('',#631);
#332=VERTEX_POINT('',#634);
#333=VERTEX_POINT('',#637);
#334=VERTEX_POINT('',#641);
#335=VERTEX_POINT('',#644);
#336=VERTEX_POINT('',#647);
#337=VERTEX_POINT('',#655);
#338=VERTEX_POINT('',#659);
#339=VERTEX_POINT('',#661);
#340=VERTEX_POINT('',#673);
#341=VERTEX_POINT('',#675);
#342=VERTEX_POINT('',#687);
#343=VERTEX_POINT('',#691);
#344=EDGE_CURVE('',#314,#314,#374,.T.);
#345=EDGE_CURVE('',#315,#315,#375,.T.);
#346=EDGE_CURVE('',#316,#316,#376,.T.);
#347=EDGE_CURVE('',#317,#317,#377,.T.);
#348=EDGE_CURVE('',#318,#318,#378,.T.);
#349=EDGE_CURVE('',#319,#319,#379,.T.);
#350=EDGE_CURVE('',#320,#320,#380,.T.);
#351=EDGE_CURVE('',#321,#321,#381,.T.);
#352=EDGE_CURVE('',#322,#322,#382,.T.);
#353=EDGE_CURVE('',#323,#323,#383,.T.);
#354=EDGE_CURVE('',#324,#324,#384,.T.);
#355=EDGE_CURVE('',#325,#325,#385,.T.);
#356=EDGE_CURVE('',#326,#326,#386,.T.);
#357=EDGE_CURVE('',#327,#327,#387,.T.);
#358=EDGE_CURVE('',#328,#328,#388,.T.);
#359=EDGE_CURVE('',#329,#329,#389,.T.);
#360=EDGE_CURVE('',#330,#330,#390,.T.);
#361=EDGE_CURVE('',#331,#331,#391,.T.);
#362=EDGE_CURVE('',#332,#332,#392,.T.);
#363=EDGE_CURVE('',#333,#333,#393,.T.);
#364=EDGE_CURVE('',#334,#334,#394,.T.);
#365=EDGE_CURVE('',#335,#335,#395,.T.);
#366=EDGE_CURVE('',#336,#336,#396,.T.);
#367=EDGE_CURVE('',#337,#337,#58,.T.);
#368=EDGE_CURVE('',#338,#338,#397,.T.);
#369=EDGE_CURVE('',#339,#339,#398,.T.);
#370=EDGE_CURVE('',#340,#340,#399,.T.);
#371=EDGE_CURVE('',#341,#341,#400,.T.);
#372=EDGE_CURVE('',#342,#342,#401,.T.);
#373=EDGE_CURVE('',#343,#343,#402,.T.);
#374=CIRCLE('',#404,9.75000000000001);
#375=CIRCLE('',#405,8.75000000000004);
#376=CIRCLE('',#407,9.75);
#377=CIRCLE('',#409,9.81030737921407);
#378=CIRCLE('',#411,10.);
#379=CIRCLE('',#413,10.);
#380=CIRCLE('',#415,9.76362966948437);
#381=CIRCLE('',#417,9.75);
#382=CIRCLE('',#419,9.75);
#383=CIRCLE('',#421,10.205669240384);
#384=CIRCLE('',#423,11.);
#385=CIRCLE('',#425,11.8);
#386=CIRCLE('',#427,12.5);
#387=CIRCLE('',#430,12.5);
#388=CIRCLE('',#432,12.2010468585258);
#389=CIRCLE('',#434,7.19825523579028);
#390=CIRCLE('',#436,6.7);
#391=CIRCLE('',#438,6.7);
#392=CIRCLE('',#440,6.52955229505092);
#393=CIRCLE('',#442,5.53092276029634);
#394=CIRCLE('',#445,0.0229591499420122);
#395=CIRCLE('',#447,0.187637566423351);
#396=CIRCLE('',#449,6.62725325937428);
#397=CIRCLE('',#450,7.00000315830195);
#398=CIRCLE('',#451,6.83121094098765);
#399=CIRCLE('',#452,2.4818868430274);
#400=CIRCLE('',#453,6.42654581892308);
#401=CIRCLE('',#454,2.05974481923927);
#402=CIRCLE('',#455,2.05001870454353);
#403=AXIS2_PLACEMENT_3D('',#578,#456,#457);
#404=AXIS2_PLACEMENT_3D('',#579,#458,#459);
#405=AXIS2_PLACEMENT_3D('',#581,#460,#461);
#406=AXIS2_PLACEMENT_3D('',#583,#462,#463);
#407=AXIS2_PLACEMENT_3D('',#584,#464,#465);
#408=AXIS2_PLACEMENT_3D('',#586,#466,#467);
#409=AXIS2_PLACEMENT_3D('',#587,#468,#469);
#410=AXIS2_PLACEMENT_3D('',#589,#470,#471);
#411=AXIS2_PLACEMENT_3D('',#590,#472,#473);
#412=AXIS2_PLACEMENT_3D('',#592,#474,#475);
#413=AXIS2_PLACEMENT_3D('',#593,#476,#477);
#414=AXIS2_PLACEMENT_3D('',#595,#478,#479);
#415=AXIS2_PLACEMENT_3D('',#596,#480,#481);
#416=AXIS2_PLACEMENT_3D('',#598,#482,#483);
#417=AXIS2_PLACEMENT_3D('',#599,#484,#485);
#418=AXIS2_PLACEMENT_3D('',#601,#486,#487);
#419=AXIS2_PLACEMENT_3D('',#602,#488,#489);
#420=AXIS2_PLACEMENT_3D('',#604,#490,#491);
#421=AXIS2_PLACEMENT_3D('',#605,#492,#493);
#422=AXIS2_PLACEMENT_3D('',#607,#494,#495);
#423=AXIS2_PLACEMENT_3D('',#608,#496,#497);
#424=AXIS2_PLACEMENT_3D('',#610,#498,#499);
#425=AXIS2_PLACEMENT_3D('',#611,#500,#501);
#426=AXIS2_PLACEMENT_3D('',#613,#502,#503);
#427=AXIS2_PLACEMENT_3D('',#614,#504,#505);
#428=AXIS2_PLACEMENT_3D('',#616,#506,#507);
#429=AXIS2_PLACEMENT_3D('',#617,#508,#509);
#430=AXIS2_PLACEMENT_3D('',#618,#510,#511);
#431=AXIS2_PLACEMENT_3D('',#620,#512,#513);
#432=AXIS2_PLACEMENT_3D('',#621,#514,#515);
#433=AXIS2_PLACEMENT_3D('',#623,#516,#517);
#434=AXIS2_PLACEMENT_3D('',#624,#518,#519);
#435=AXIS2_PLACEMENT_3D('',#626,#520,#521);
#436=AXIS2_PLACEMENT_3D('',#627,#522,#523);
#437=AXIS2_PLACEMENT_3D('',#629,#524,#525);
#438=AXIS2_PLACEMENT_3D('',#630,#526,#527);
#439=AXIS2_PLACEMENT_3D('',#632,#528,#529);
#440=AXIS2_PLACEMENT_3D('',#633,#530,#531);
#441=AXIS2_PLACEMENT_3D('',#635,#532,#533);
#442=AXIS2_PLACEMENT_3D('',#636,#534,#535);
#443=AXIS2_PLACEMENT_3D('',#638,#536,#537);
#444=AXIS2_PLACEMENT_3D('',#639,#538,#539);
#445=AXIS2_PLACEMENT_3D('',#640,#540,#541);
#446=AXIS2_PLACEMENT_3D('',#642,#542,#543);
#447=AXIS2_PLACEMENT_3D('',#643,#544,#545);
#448=AXIS2_PLACEMENT_3D('',#645,#546,#547);
#449=AXIS2_PLACEMENT_3D('',#646,#548,#549);
#450=AXIS2_PLACEMENT_3D('',#658,#552,#553);
#451=AXIS2_PLACEMENT_3D('',#660,#554,#555);
#452=AXIS2_PLACEMENT_3D('',#672,#559,#560);
#453=AXIS2_PLACEMENT_3D('',#674,#561,#562);
#454=AXIS2_PLACEMENT_3D('',#686,#566,#567);
#455=AXIS2_PLACEMENT_3D('',#690,#570,#571);
#456=DIRECTION('',(0.,0.,1.));
#457=DIRECTION('',(1.,0.,0.));
#458=DIRECTION('',(1.,0.,0.));
#459=DIRECTION('',(0.,0.,1.));
#460=DIRECTION('',(-1.,0.,0.));
#461=DIRECTION('',(0.,0.,1.));
#462=DIRECTION('',(-1.,0.,0.));
#463=DIRECTION('',(0.,0.,1.));
#464=DIRECTION('',(1.,0.,0.));
#465=DIRECTION('',(0.,0.,1.));
#466=DIRECTION('',(-1.,0.,0.));
#467=DIRECTION('',(0.,0.,1.));
#468=DIRECTION('',(1.,0.,0.));
#469=DIRECTION('',(0.,0.,1.));
#470=DIRECTION('',(-1.,0.,0.));
#471=DIRECTION('',(0.,0.,1.));
#472=DIRECTION('',(1.,0.,0.));
#473=DIRECTION('',(0.,0.,1.));
#474=DIRECTION('',(-1.,0.,0.));
#475=DIRECTION('',(-1.48512683369913E-16,0.,1.));
#476=DIRECTION('',(1.,0.,0.));
#477=DIRECTION('',(0.,0.,1.));
#478=DIRECTION('',(-1.,0.,0.));
#479=DIRECTION('',(0.,0.,1.));
#480=DIRECTION('',(1.,0.,0.));
#481=DIRECTION('',(0.,0.,1.));
#482=DIRECTION('',(1.,0.,0.));
#483=DIRECTION('',(2.49646125725899E-16,0.,-1.));
#484=DIRECTION('',(1.,0.,0.));
#485=DIRECTION('',(0.,0.,1.));
#486=DIRECTION('',(-1.,0.,0.));
#487=DIRECTION('',(0.,0.,1.));
#488=DIRECTION('',(1.,0.,0.));
#489=DIRECTION('',(0.,0.,1.));
#490=DIRECTION('',(-1.,0.,0.));
#491=DIRECTION('',(0.,0.,1.));
#492=DIRECTION('',(1.,0.,0.));
#493=DIRECTION('',(0.,0.,1.));
#494=DIRECTION('',(-1.,0.,0.));
#495=DIRECTION('',(0.,0.,1.));
#496=DIRECTION('',(1.,0.,0.));
#497=DIRECTION('',(0.,0.,1.));
#498=DIRECTION('',(1.,0.,0.));
#499=DIRECTION('',(5.84280723103134E-18,0.,-1.));
#500=DIRECTION('',(1.,0.,0.));
#501=DIRECTION('',(0.,0.,1.));
#502=DIRECTION('',(-1.,0.,0.));
#503=DIRECTION('',(0.,0.,1.));
#504=DIRECTION('',(1.,0.,0.));
#505=DIRECTION('',(0.,0.,1.));
#506=DIRECTION('',(-1.,0.,0.));
#507=DIRECTION('',(0.,0.,1.));
#508=DIRECTION('',(-1.,0.,0.));
#509=DIRECTION('',(0.,0.,1.));
#510=DIRECTION('',(1.,0.,0.));
#511=DIRECTION('',(0.,0.,1.));
#512=DIRECTION('',(-1.,0.,0.));
#513=DIRECTION('',(0.,0.,1.));
#514=DIRECTION('',(1.,0.,0.));
#515=DIRECTION('',(0.,0.,1.));
#516=DIRECTION('',(-1.,0.,0.));
#517=DIRECTION('',(0.,0.,1.));
#518=DIRECTION('',(1.,0.,0.));
#519=DIRECTION('',(0.,0.,1.));
#520=DIRECTION('',(1.,0.,0.));
#521=DIRECTION('',(-1.40028506220308E-16,0.,-1.));
#522=DIRECTION('',(1.,0.,0.));
#523=DIRECTION('',(0.,0.,1.));
#524=DIRECTION('',(-1.,0.,0.));
#525=DIRECTION('',(0.,0.,1.));
#526=DIRECTION('',(1.,0.,0.));
#527=DIRECTION('',(0.,0.,1.));
#528=DIRECTION('',(-1.,0.,0.));
#529=DIRECTION('',(0.,0.,1.));
#530=DIRECTION('',(1.,0.,0.));
#531=DIRECTION('',(0.,0.,1.));
#532=DIRECTION('',(1.,0.,0.));
#533=DIRECTION('',(-1.76090879781149E-15,0.,-1.));
#534=DIRECTION('',(1.,0.,0.));
#535=DIRECTION('',(0.,0.,1.));
#536=DIRECTION('',(-1.,0.,0.));
#537=DIRECTION('',(0.,0.,1.));
#538=DIRECTION('',(1.,0.,0.));
#539=DIRECTION('',(0.,0.,-1.));
#540=DIRECTION('',(1.,0.,0.));
#541=DIRECTION('',(0.,0.,-1.));
#542=DIRECTION('',(1.,0.,0.));
#543=DIRECTION('',(0.,0.,-1.));
#544=DIRECTION('',(1.,0.,0.));
#545=DIRECTION('',(0.,0.,-1.));
#546=DIRECTION('',(1.,0.,0.));
#547=DIRECTION('',(0.,0.,-1.));
#548=DIRECTION('',(1.,0.,0.));
#549=DIRECTION('',(0.,0.,-1.));
#550=DIRECTION('',(-0.0348782368720624,0.999390827019096,0.00121797487008787));
#551=DIRECTION('',(1.,0.,0.));
#552=DIRECTION('',(1.,0.,0.));
#553=DIRECTION('',(0.,0.,-1.));
#554=DIRECTION('',(1.,0.,0.));
#555=DIRECTION('',(0.,0.,-1.));
#556=DIRECTION('',(-0.998782025129912,-0.0348994967025003,0.0348782368720626));
#557=DIRECTION('',(1.,0.,0.));
#558=DIRECTION('',(1.,0.,0.));
#559=DIRECTION('',(1.,0.,0.));
#560=DIRECTION('',(0.,0.,-1.));
#561=DIRECTION('',(1.,0.,0.));
#562=DIRECTION('',(0.,0.,-1.));
#563=DIRECTION('',(0.0348782368720628,-0.999390827019096,-0.00121797487008785));
#564=DIRECTION('',(1.,0.,0.));
#565=DIRECTION('',(1.,0.,0.));
#566=DIRECTION('',(1.,0.,0.));
#567=DIRECTION('',(0.,0.,-1.));
#568=DIRECTION('',(0.173542395888904,-0.978779406151605,-0.108967476444355));
#569=DIRECTION('',(1.,0.,0.));
#570=DIRECTION('',(1.,0.,0.));
#571=DIRECTION('',(0.,0.,-1.));
#572=DIRECTION('',(0.173542395888921,0.980046340046538,0.096913405628522));
#573=DIRECTION('',(1.,0.,0.));
#574=DIRECTION('',(-0.173542395888904,0.978779406151605,0.108967476444355));
#575=DIRECTION('',(1.,0.,0.));
#576=DIRECTION('',(-0.173542395888919,-0.980046340046538,-0.0969134056285222));
#577=DIRECTION('',(1.,0.,0.));
#578=CARTESIAN_POINT('',(0.,0.,0.));
#579=CARTESIAN_POINT('',(127.,0.,0.));
#580=CARTESIAN_POINT('',(127.,0.,9.75000000000001));
#581=CARTESIAN_POINT('',(128.,0.,0.));
#582=CARTESIAN_POINT('',(128.,0.,8.75000000000004));
#583=CARTESIAN_POINT('',(127.,0.,0.));
#584=CARTESIAN_POINT('',(125.176326980709,0.,0.));
#585=CARTESIAN_POINT('',(125.176326980709,0.,9.75));
#586=CARTESIAN_POINT('',(0.,0.,0.));
#587=CARTESIAN_POINT('',(124.834306837383,0.,0.));
#588=CARTESIAN_POINT('',(124.834306837383,0.,9.81030737921407));
#589=CARTESIAN_POINT('',(125.176326980709,0.,0.));
#590=CARTESIAN_POINT('',(124.313130645137,0.,0.));
#591=CARTESIAN_POINT('',(124.313130645137,0.,10.));
#592=CARTESIAN_POINT('',(124.834306837383,0.,0.));
#593=CARTESIAN_POINT('',(80.,0.,0.));
#594=CARTESIAN_POINT('',(80.,0.,10.));
#595=CARTESIAN_POINT('',(0.,0.,0.));
#596=CARTESIAN_POINT('',(79.1178539171138,0.,0.));
#597=CARTESIAN_POINT('',(79.1178539171138,0.,9.76362966948437));
#598=CARTESIAN_POINT('',(80.,0.,0.));
#599=CARTESIAN_POINT('',(79.0143262990728,0.,0.));
#600=CARTESIAN_POINT('',(79.0143262990728,0.,9.75));
#601=CARTESIAN_POINT('',(79.0143262990728,0.,0.));
#602=CARTESIAN_POINT('',(78.2844713195104,0.,0.));
#603=CARTESIAN_POINT('',(78.2844713195104,0.,9.75));
#604=CARTESIAN_POINT('',(0.,0.,0.));
#605=CARTESIAN_POINT('',(77.8883640920138,0.,0.));
#606=CARTESIAN_POINT('',(77.8883640920138,0.,10.205669240384));
#607=CARTESIAN_POINT('',(78.2844713195104,0.,0.));
#608=CARTESIAN_POINT('',(78.,0.,0.));
#609=CARTESIAN_POINT('',(78.,0.,11.));
#610=CARTESIAN_POINT('',(77.8883640920138,0.,0.));
#611=CARTESIAN_POINT('',(78.,0.,0.));
#612=CARTESIAN_POINT('',(78.,0.,11.8));
#613=CARTESIAN_POINT('',(78.,11.,0.));
#614=CARTESIAN_POINT('',(77.5872983346207,0.,0.));
#615=CARTESIAN_POINT('',(77.5872983346207,0.,12.5));
#616=CARTESIAN_POINT('',(77.2,0.,0.));
#617=CARTESIAN_POINT('',(128.,12.9999999999999,0.));
#618=CARTESIAN_POINT('',(73.6869822406398,0.,0.));
#619=CARTESIAN_POINT('',(73.6869822406398,0.,12.5));
#620=CARTESIAN_POINT('',(0.,0.,0.));
#621=CARTESIAN_POINT('',(72.381476259019,0.,0.));
#622=CARTESIAN_POINT('',(72.381476259019,0.,12.2010468585258));
#623=CARTESIAN_POINT('',(73.6869822406398,0.,0.));
#624=CARTESIAN_POINT('',(62.0308729016351,0.,0.));
#625=CARTESIAN_POINT('',(62.0308729016351,0.,7.19825523579028));
#626=CARTESIAN_POINT('',(72.381476259019,0.,0.));
#627=CARTESIAN_POINT('',(59.8550295989337,0.,0.));
#628=CARTESIAN_POINT('',(59.8550295989337,0.,6.7));
#629=CARTESIAN_POINT('',(59.8550295989337,0.,0.));
#630=CARTESIAN_POINT('',(5.,0.,0.));
#631=CARTESIAN_POINT('',(5.,0.,6.7));
#632=CARTESIAN_POINT('',(0.,0.,0.));
#633=CARTESIAN_POINT('',(1.74766404375706,0.,0.));
#634=CARTESIAN_POINT('',(1.74766404375706,0.,6.52955229505092));
#635=CARTESIAN_POINT('',(5.,0.,0.));
#636=CARTESIAN_POINT('',(0.800000000000001,0.,0.));
#637=CARTESIAN_POINT('',(0.800000000000001,0.,5.53092276029634));
#638=CARTESIAN_POINT('',(1.8,0.,0.));
#639=CARTESIAN_POINT('',(0.8,5.53092276029634,0.));
#640=CARTESIAN_POINT('',(5.11726249734516,0.,0.));
#641=CARTESIAN_POINT('',(5.11726249734516,0.,-0.0229591499420122));
#642=CARTESIAN_POINT('',(5.11726249734516,0.,0.));
#643=CARTESIAN_POINT('',(0.362709229110974,0.,0.));
#644=CARTESIAN_POINT('',(0.362709229110974,0.,-0.187637566423351));
#645=CARTESIAN_POINT('',(0.362709229110974,0.,0.));
#646=CARTESIAN_POINT('',(0.450734012977286,0.,0.));
#647=CARTESIAN_POINT('',(0.450734012977286,0.,-6.62725325937428));
#648=CARTESIAN_POINT('',(0.362709229111006,-7.58941520739853E-16,-4.1125310389537));
#649=CARTESIAN_POINT('',(0.362709229111006,-8.2250620779074,-4.1125310389537));
#650=CARTESIAN_POINT('',(0.362709229111006,-8.2250620779074,4.1125310389537));
#651=CARTESIAN_POINT('',(0.362709229111006,3.25260651745651E-16,4.1125310389537));
#652=CARTESIAN_POINT('',(0.362709229111006,8.2250620779074,4.1125310389537));
#653=CARTESIAN_POINT('',(0.362709229111006,8.2250620779074,-4.1125310389537));
#654=CARTESIAN_POINT('',(0.362709229111006,-7.58941520739853E-16,-4.1125310389537));
#655=CARTESIAN_POINT('',(0.362023682498447,-5.42101086242752E-16,-4.11255569342419));
#656=CARTESIAN_POINT('',(0.450734012977284,-6.55366444841256,0.984869565729552));
#657=CARTESIAN_POINT('',(0.,0.,0.));
#658=CARTESIAN_POINT('',(0.856601617629595,0.,0.));
#659=CARTESIAN_POINT('',(0.856601617629595,0.,-7.00000315830195));
#660=CARTESIAN_POINT('',(5.166044676827,0.,0.));
#661=CARTESIAN_POINT('',(5.166044676827,0.,-6.83121094098765));
#662=CARTESIAN_POINT('',(5.166044676827,-6.78179201416661,0.820207288955277));
#663=CARTESIAN_POINT('',(0.,0.,0.));
#664=CARTESIAN_POINT('',(0.856601617629596,-6.93237281162791,0.970696356663321));
#665=CARTESIAN_POINT('',(0.805265626455684,-6.9341665966677,0.972489048977736));
#666=CARTESIAN_POINT('',(0.700327804905454,-6.91761190242944,0.976153558455058));
#667=CARTESIAN_POINT('',(0.567520672088804,-6.83545644147878,0.980791285727008));
#668=CARTESIAN_POINT('',(0.476351105413892,-6.70862294078149,0.983974997149525));
#669=CARTESIAN_POINT('',(0.452526705291701,-6.60503173114722,0.984806963534471));
#670=CARTESIAN_POINT('',(0.450734012977286,-6.55366444841256,0.984869565729552));
#671=CARTESIAN_POINT('',(0.,0.,0.));
#672=CARTESIAN_POINT('',(5.40386528830209,0.,0.));
#673=CARTESIAN_POINT('',(5.40386528830209,0.,-2.4818868430274));
#674=CARTESIAN_POINT('',(5.54452234113984,0.,0.));
#675=CARTESIAN_POINT('',(5.54452234113984,0.,-6.42654581892308));
#676=CARTESIAN_POINT('',(5.40386528830209,-2.34533084614973,0.811902410201569));
#677=CARTESIAN_POINT('',(0.,0.,0.));
#678=CARTESIAN_POINT('',(5.54452234113984,-6.37567701522981,0.806990557682033));
#679=CARTESIAN_POINT('',(5.54631503345425,-6.42704429796447,0.806927955486952));
#680=CARTESIAN_POINT('',(5.52977042388842,-6.53204608376556,0.807505705983931));
#681=CARTESIAN_POINT('',(5.44766500982481,-6.66493416841285,0.810372890222471));
#682=CARTESIAN_POINT('',(5.32090877266922,-6.75615930697736,0.814799315561823));
#683=CARTESIAN_POINT('',(5.21738066800091,-6.77999822912682,0.818414596640862));
#684=CARTESIAN_POINT('',(5.166044676827,-6.78179201416661,0.820207288955277));
#685=CARTESIAN_POINT('',(0.,0.,0.));
#686=CARTESIAN_POINT('',(4.15136791409587E-6,0.,0.));
#687=CARTESIAN_POINT('',(4.15136791409587E-6,0.,-2.05974481923927));
#688=CARTESIAN_POINT('',(4.15136791408727E-6,2.0178514650591,0.413308825627808));
#689=CARTESIAN_POINT('',(0.,0.,0.));
#690=CARTESIAN_POINT('',(5.47996757508826,0.,0.));
#691=CARTESIAN_POINT('',(5.47996757508826,0.,-2.05001870454353));
#692=CARTESIAN_POINT('',(5.11726249734516,-0.0104506478232386,0.0204427621943424));
#693=CARTESIAN_POINT('',(0.,0.,0.));
#694=CARTESIAN_POINT('',(5.47996757508826,2.03785450630141,0.222992601055276));
#695=CARTESIAN_POINT('',(0.,0.,0.));
#696=CARTESIAN_POINT('',(0.362709229111006,4.06615661918374,0.615858664488741));
#697=CARTESIAN_POINT('',(0.,0.,0.));
#698=(
GEOMETRIC_REPRESENTATION_CONTEXT(3)
GLOBAL_UNCERTAINTY_ASSIGNED_CONTEXT((#699))
GLOBAL_UNIT_ASSIGNED_CONTEXT((#705,#701,#700))
REPRESENTATION_CONTEXT('ATUM-14XD4-KDR-0502-light',
'TOP_LEVEL_ASSEMBLY_PART')
);
#699=UNCERTAINTY_MEASURE_WITH_UNIT(LENGTH_MEASURE(0.0508),#705,
'DISTANCE_ACCURACY_VALUE','Maximum Tolerance applied to model');
#700=(
NAMED_UNIT(*)
SI_UNIT($,.STERADIAN.)
SOLID_ANGLE_UNIT()
);
#701=(
CONVERSION_BASED_UNIT('DEGREE',#703)
NAMED_UNIT(#702)
PLANE_ANGLE_UNIT()
);
#702=DIMENSIONAL_EXPONENTS(0.,0.,0.,0.,0.,0.,0.);
#703=PLANE_ANGLE_MEASURE_WITH_UNIT(PLANE_ANGLE_MEASURE(0.0174532925),#704);
#704=(
NAMED_UNIT(*)
PLANE_ANGLE_UNIT()
SI_UNIT($,.RADIAN.)
);
#705=(
LENGTH_UNIT()
NAMED_UNIT(*)
SI_UNIT(.MILLI.,.METRE.)
);
ENDSEC;
END-ISO-10303-21;
