ISO-10303-21;
HEADER;
/* Generated by software containing ST-Developer
 * from STEP Tools, Inc. (www.steptools.com) 
 */
/* OPTION: using custom schema-name function */

FILE_DESCRIPTION(
/* description */ (''),
/* implementation_level */ '2;1');

FILE_NAME(
/* name */ 'ATUM-17XD5-SP-060204-32-light.stp',
/* time_stamp */ '2023-10-17T20:48:07+03:00',
/* author */ (''),
/* organization */ (''),
/* preprocessor_version */ 'ST-DEVELOPER v19.4',
/* originating_system */ 'SIEMENS PLM Software NX2306.3001',
/* authorisation */ '');

FILE_SCHEMA (('AUTOMOTIVE_DESIGN { 1 0 10303 214 3 1 1 1 }'));
ENDSEC;

DATA;
#10=SHAPE_REPRESENTATION_RELATIONSHIP('None',
'relationship between STP_ATUM 17XD5 SP.. 060204-32-None and STP_ATUM 
17XD5 SP.. 060204-32-None',#22,#11);
#11=ADVANCED_BREP_SHAPE_REPRESENTATION(
'STP_ATUM 17XD5 SP.. 060204-32-None',(#72,#73),#703);
#12=SHAPE_DEFINITION_REPRESENTATION(#13,#22);
#13=PRODUCT_DEFINITION_SHAPE('','',#14);
#14=PRODUCT_DEFINITION(' ','',#16,#15);
#15=PRODUCT_DEFINITION_CONTEXT('part definition',#21,'design');
#16=PRODUCT_DEFINITION_FORMATION_WITH_SPECIFIED_SOURCE(' ',' ',#18,
 .NOT_KNOWN.);
#17=PRODUCT_RELATED_PRODUCT_CATEGORY('part','',(#18));
#18=PRODUCT('STP_ATUM 17XD5 SP.. 060204-32',
'STP_ATUM 17XD5 SP.. 060204-32',' ',(#19));
#19=PRODUCT_CONTEXT(' ',#21,'mechanical');
#20=APPLICATION_PROTOCOL_DEFINITION('international standard',
'automotive_design',2010,#21);
#21=APPLICATION_CONTEXT(
'core data for automotive mechanical design processes');
#22=SHAPE_REPRESENTATION('STP_ATUM 17XD5 SP.. 060204-32-None',(#401),#703);
#23=DRAUGHTING_PRE_DEFINED_COLOUR('yellow');
#24=B_SPLINE_CURVE_WITH_KNOTS('',3,(#657,#658,#659,#660,#661,#662,#663),
 .UNSPECIFIED.,.F.,.F.,(4,1,1,1,4),(0.,0.25,0.5,0.75,1.),.UNSPECIFIED.);
#25=B_SPLINE_CURVE_WITH_KNOTS('',3,(#669,#670,#671,#672,#673,#674,#675),
 .UNSPECIFIED.,.F.,.F.,(4,1,1,1,4),(0.,0.25,0.5,0.75,1.),.UNSPECIFIED.);
#26=B_SPLINE_CURVE_WITH_KNOTS('',3,(#679,#680,#681,#682,#683,#684,#685),
 .UNSPECIFIED.,.F.,.F.,(4,1,1,1,4),(0.,0.25,0.5,0.75,1.),.UNSPECIFIED.);
#27=B_SPLINE_CURVE_WITH_KNOTS('',3,(#695,#696,#697,#698,#699,#700,#701),
 .UNSPECIFIED.,.F.,.F.,(4,1,1,1,4),(0.,0.25,0.5,0.75,1.),.UNSPECIFIED.);
#28=SURFACE_OF_REVOLUTION('',#46,#37);
#29=SURFACE_OF_REVOLUTION('',#47,#38);
#30=SURFACE_OF_REVOLUTION('',#24,#39);
#31=SURFACE_OF_REVOLUTION('',#48,#40);
#32=SURFACE_OF_REVOLUTION('',#25,#41);
#33=SURFACE_OF_REVOLUTION('',#26,#42);
#34=SURFACE_OF_REVOLUTION('',#49,#43);
#35=SURFACE_OF_REVOLUTION('',#50,#44);
#36=SURFACE_OF_REVOLUTION('',#27,#45);
#37=AXIS1_PLACEMENT('',#650,#552);
#38=AXIS1_PLACEMENT('',#654,#556);
#39=AXIS1_PLACEMENT('',#664,#559);
#40=AXIS1_PLACEMENT('',#668,#563);
#41=AXIS1_PLACEMENT('',#676,#564);
#42=AXIS1_PLACEMENT('',#686,#567);
#43=AXIS1_PLACEMENT('',#690,#571);
#44=AXIS1_PLACEMENT('',#694,#575);
#45=AXIS1_PLACEMENT('',#702,#576);
#46=LINE('',#649,#51);
#47=LINE('',#653,#52);
#48=LINE('',#667,#53);
#49=LINE('',#689,#54);
#50=LINE('',#693,#55);
#51=VECTOR('',#551,2.55822925775827);
#52=VECTOR('',#555,3.70921732077793);
#53=VECTOR('',#562,5.21469825324187);
#54=VECTOR('',#570,1.00664248290954);
#55=VECTOR('',#574,1.24611075028822);
#56=PRESENTATION_LAYER_ASSIGNMENT('1','Layer 1',(#72,#73));
#57=STYLED_ITEM('',(#59),#72);
#58=STYLED_ITEM('',(#60),#73);
#59=PRESENTATION_STYLE_ASSIGNMENT((#61));
#60=PRESENTATION_STYLE_ASSIGNMENT((#62));
#61=SURFACE_STYLE_USAGE(.BOTH.,#63);
#62=SURFACE_STYLE_USAGE(.BOTH.,#64);
#63=SURFACE_SIDE_STYLE('',(#65));
#64=SURFACE_SIDE_STYLE('',(#66));
#65=SURFACE_STYLE_FILL_AREA(#67);
#66=SURFACE_STYLE_FILL_AREA(#68);
#67=FILL_AREA_STYLE('',(#69));
#68=FILL_AREA_STYLE('',(#70));
#69=FILL_AREA_STYLE_COLOUR('',#71);
#70=FILL_AREA_STYLE_COLOUR('',#23);
#71=COLOUR_RGB('smoke gray',0.694117647058824,0.694117647058824,0.694117647058824);
#72=MANIFOLD_SOLID_BREP('',#74);
#73=MANIFOLD_SOLID_BREP('',#75);
#74=CLOSED_SHELL('',(#95,#96,#97,#98,#99,#100,#101,#102,#103,#104,#105,
#106,#107,#108,#109,#110,#111,#112,#113,#114,#115));
#75=CLOSED_SHELL('',(#116,#117,#118,#119,#120,#121,#122,#123,#124,#125,
#126));
#76=FACE_OUTER_BOUND('',#215,.T.);
#77=FACE_OUTER_BOUND('',#230,.T.);
#78=FACE_OUTER_BOUND('',#231,.T.);
#79=FACE_OUTER_BOUND('',#232,.T.);
#80=CYLINDRICAL_SURFACE('',#412,15.7499999999998);
#81=CYLINDRICAL_SURFACE('',#418,16.0000000000014);
#82=CYLINDRICAL_SURFACE('',#424,15.7499999999998);
#83=CYLINDRICAL_SURFACE('',#429,22.);
#84=CYLINDRICAL_SURFACE('',#437,7.99999999999999);
#85=CONICAL_SURFACE('',#408,17.,81.9999999999918);
#86=CONICAL_SURFACE('',#416,15.7636296694808,15.00000000015);
#87=CONICAL_SURFACE('',#420,16.,20.0000000031261);
#88=CONICAL_SURFACE('',#433,21.3157907068511,39.4724598483438);
#89=CONICAL_SURFACE('',#439,7.99999999999998,3.00000000000003);
#90=PLANE('',#406);
#91=PLANE('',#427);
#92=PLANE('',#442);
#93=PLANE('',#444);
#94=PLANE('',#446);
#95=ADVANCED_FACE('',(#135,#136),#127,.T.);
#96=ADVANCED_FACE('',(#137,#138),#90,.F.);
#97=ADVANCED_FACE('',(#139,#140),#85,.F.);
#98=ADVANCED_FACE('',(#141,#142),#128,.F.);
#99=ADVANCED_FACE('',(#143,#144),#80,.T.);
#100=ADVANCED_FACE('',(#145,#146),#129,.F.);
#101=ADVANCED_FACE('',(#147,#148),#86,.T.);
#102=ADVANCED_FACE('',(#149,#150),#81,.T.);
#103=ADVANCED_FACE('',(#151,#152),#87,.T.);
#104=ADVANCED_FACE('',(#153,#154),#130,.F.);
#105=ADVANCED_FACE('',(#155,#156),#82,.T.);
#106=ADVANCED_FACE('',(#157,#158),#131,.T.);
#107=ADVANCED_FACE('',(#76),#91,.F.);
#108=ADVANCED_FACE('',(#159,#160),#83,.T.);
#109=ADVANCED_FACE('',(#161,#162),#132,.T.);
#110=ADVANCED_FACE('',(#163,#164),#88,.T.);
#111=ADVANCED_FACE('',(#165,#166),#133,.F.);
#112=ADVANCED_FACE('',(#167,#168),#84,.T.);
#113=ADVANCED_FACE('',(#169,#170),#89,.T.);
#114=ADVANCED_FACE('',(#171,#172),#134,.T.);
#115=ADVANCED_FACE('',(#77),#92,.F.);
#116=ADVANCED_FACE('',(#78),#93,.F.);
#117=ADVANCED_FACE('',(#79),#94,.T.);
#118=ADVANCED_FACE('',(#173,#174),#28,.F.);
#119=ADVANCED_FACE('',(#175,#176),#29,.F.);
#120=ADVANCED_FACE('',(#177,#178),#30,.F.);
#121=ADVANCED_FACE('',(#179,#180),#31,.F.);
#122=ADVANCED_FACE('',(#181,#182),#32,.F.);
#123=ADVANCED_FACE('',(#183,#184),#33,.F.);
#124=ADVANCED_FACE('',(#185,#186),#34,.F.);
#125=ADVANCED_FACE('',(#187,#188),#35,.T.);
#126=ADVANCED_FACE('',(#189,#190),#36,.T.);
#127=TOROIDAL_SURFACE('',#404,21.3,0.799999999999997);
#128=TOROIDAL_SURFACE('',#410,16.15,0.399999999999986);
#129=TOROIDAL_SURFACE('',#414,16.15,0.399999999999999);
#130=TOROIDAL_SURFACE('',#422,16.75,1.00000000000011);
#131=TOROIDAL_SURFACE('',#426,14.7499999999997,1.);
#132=TOROIDAL_SURFACE('',#431,19.,3.);
#133=TOROIDAL_SURFACE('',#435,13.,5.);
#134=TOROIDAL_SURFACE('',#441,6.83092276029632,0.999999999999999);
#135=FACE_BOUND('',#191,.T.);
#136=FACE_BOUND('',#192,.T.);
#137=FACE_BOUND('',#193,.T.);
#138=FACE_BOUND('',#194,.T.);
#139=FACE_BOUND('',#195,.T.);
#140=FACE_BOUND('',#196,.T.);
#141=FACE_BOUND('',#197,.T.);
#142=FACE_BOUND('',#198,.T.);
#143=FACE_BOUND('',#199,.T.);
#144=FACE_BOUND('',#200,.T.);
#145=FACE_BOUND('',#201,.T.);
#146=FACE_BOUND('',#202,.T.);
#147=FACE_BOUND('',#203,.T.);
#148=FACE_BOUND('',#204,.T.);
#149=FACE_BOUND('',#205,.T.);
#150=FACE_BOUND('',#206,.T.);
#151=FACE_BOUND('',#207,.T.);
#152=FACE_BOUND('',#208,.T.);
#153=FACE_BOUND('',#209,.T.);
#154=FACE_BOUND('',#210,.T.);
#155=FACE_BOUND('',#211,.T.);
#156=FACE_BOUND('',#212,.T.);
#157=FACE_BOUND('',#213,.T.);
#158=FACE_BOUND('',#214,.T.);
#159=FACE_BOUND('',#216,.T.);
#160=FACE_BOUND('',#217,.T.);
#161=FACE_BOUND('',#218,.T.);
#162=FACE_BOUND('',#219,.T.);
#163=FACE_BOUND('',#220,.T.);
#164=FACE_BOUND('',#221,.T.);
#165=FACE_BOUND('',#222,.T.);
#166=FACE_BOUND('',#223,.T.);
#167=FACE_BOUND('',#224,.T.);
#168=FACE_BOUND('',#225,.T.);
#169=FACE_BOUND('',#226,.T.);
#170=FACE_BOUND('',#227,.T.);
#171=FACE_BOUND('',#228,.T.);
#172=FACE_BOUND('',#229,.T.);
#173=FACE_BOUND('',#233,.T.);
#174=FACE_BOUND('',#234,.T.);
#175=FACE_BOUND('',#235,.T.);
#176=FACE_BOUND('',#236,.T.);
#177=FACE_BOUND('',#237,.T.);
#178=FACE_BOUND('',#238,.T.);
#179=FACE_BOUND('',#239,.T.);
#180=FACE_BOUND('',#240,.T.);
#181=FACE_BOUND('',#241,.T.);
#182=FACE_BOUND('',#242,.T.);
#183=FACE_BOUND('',#243,.T.);
#184=FACE_BOUND('',#244,.T.);
#185=FACE_BOUND('',#245,.T.);
#186=FACE_BOUND('',#246,.T.);
#187=FACE_BOUND('',#247,.T.);
#188=FACE_BOUND('',#248,.T.);
#189=FACE_BOUND('',#249,.T.);
#190=FACE_BOUND('',#250,.T.);
#191=EDGE_LOOP('',(#251));
#192=EDGE_LOOP('',(#252));
#193=EDGE_LOOP('',(#253));
#194=EDGE_LOOP('',(#254));
#195=EDGE_LOOP('',(#255));
#196=EDGE_LOOP('',(#256));
#197=EDGE_LOOP('',(#257));
#198=EDGE_LOOP('',(#258));
#199=EDGE_LOOP('',(#259));
#200=EDGE_LOOP('',(#260));
#201=EDGE_LOOP('',(#261));
#202=EDGE_LOOP('',(#262));
#203=EDGE_LOOP('',(#263));
#204=EDGE_LOOP('',(#264));
#205=EDGE_LOOP('',(#265));
#206=EDGE_LOOP('',(#266));
#207=EDGE_LOOP('',(#267));
#208=EDGE_LOOP('',(#268));
#209=EDGE_LOOP('',(#269));
#210=EDGE_LOOP('',(#270));
#211=EDGE_LOOP('',(#271));
#212=EDGE_LOOP('',(#272));
#213=EDGE_LOOP('',(#273));
#214=EDGE_LOOP('',(#274));
#215=EDGE_LOOP('',(#275));
#216=EDGE_LOOP('',(#276));
#217=EDGE_LOOP('',(#277));
#218=EDGE_LOOP('',(#278));
#219=EDGE_LOOP('',(#279));
#220=EDGE_LOOP('',(#280));
#221=EDGE_LOOP('',(#281));
#222=EDGE_LOOP('',(#282));
#223=EDGE_LOOP('',(#283));
#224=EDGE_LOOP('',(#284));
#225=EDGE_LOOP('',(#285));
#226=EDGE_LOOP('',(#286));
#227=EDGE_LOOP('',(#287));
#228=EDGE_LOOP('',(#288));
#229=EDGE_LOOP('',(#289));
#230=EDGE_LOOP('',(#290));
#231=EDGE_LOOP('',(#291));
#232=EDGE_LOOP('',(#292));
#233=EDGE_LOOP('',(#293));
#234=EDGE_LOOP('',(#294));
#235=EDGE_LOOP('',(#295));
#236=EDGE_LOOP('',(#296));
#237=EDGE_LOOP('',(#297));
#238=EDGE_LOOP('',(#298));
#239=EDGE_LOOP('',(#299));
#240=EDGE_LOOP('',(#300));
#241=EDGE_LOOP('',(#301));
#242=EDGE_LOOP('',(#302));
#243=EDGE_LOOP('',(#303));
#244=EDGE_LOOP('',(#304));
#245=EDGE_LOOP('',(#305));
#246=EDGE_LOOP('',(#306));
#247=EDGE_LOOP('',(#307));
#248=EDGE_LOOP('',(#308));
#249=EDGE_LOOP('',(#309));
#250=EDGE_LOOP('',(#310));
#251=ORIENTED_EDGE('',*,*,#341,.T.);
#252=ORIENTED_EDGE('',*,*,#342,.F.);
#253=ORIENTED_EDGE('',*,*,#343,.F.);
#254=ORIENTED_EDGE('',*,*,#342,.T.);
#255=ORIENTED_EDGE('',*,*,#344,.F.);
#256=ORIENTED_EDGE('',*,*,#343,.T.);
#257=ORIENTED_EDGE('',*,*,#345,.F.);
#258=ORIENTED_EDGE('',*,*,#344,.T.);
#259=ORIENTED_EDGE('',*,*,#346,.F.);
#260=ORIENTED_EDGE('',*,*,#345,.T.);
#261=ORIENTED_EDGE('',*,*,#347,.F.);
#262=ORIENTED_EDGE('',*,*,#346,.T.);
#263=ORIENTED_EDGE('',*,*,#348,.F.);
#264=ORIENTED_EDGE('',*,*,#347,.T.);
#265=ORIENTED_EDGE('',*,*,#349,.F.);
#266=ORIENTED_EDGE('',*,*,#348,.T.);
#267=ORIENTED_EDGE('',*,*,#350,.F.);
#268=ORIENTED_EDGE('',*,*,#349,.T.);
#269=ORIENTED_EDGE('',*,*,#351,.F.);
#270=ORIENTED_EDGE('',*,*,#350,.T.);
#271=ORIENTED_EDGE('',*,*,#352,.T.);
#272=ORIENTED_EDGE('',*,*,#351,.T.);
#273=ORIENTED_EDGE('',*,*,#353,.F.);
#274=ORIENTED_EDGE('',*,*,#352,.F.);
#275=ORIENTED_EDGE('',*,*,#353,.T.);
#276=ORIENTED_EDGE('',*,*,#354,.T.);
#277=ORIENTED_EDGE('',*,*,#341,.F.);
#278=ORIENTED_EDGE('',*,*,#355,.T.);
#279=ORIENTED_EDGE('',*,*,#354,.F.);
#280=ORIENTED_EDGE('',*,*,#356,.T.);
#281=ORIENTED_EDGE('',*,*,#355,.F.);
#282=ORIENTED_EDGE('',*,*,#357,.T.);
#283=ORIENTED_EDGE('',*,*,#356,.F.);
#284=ORIENTED_EDGE('',*,*,#358,.T.);
#285=ORIENTED_EDGE('',*,*,#357,.F.);
#286=ORIENTED_EDGE('',*,*,#359,.T.);
#287=ORIENTED_EDGE('',*,*,#358,.F.);
#288=ORIENTED_EDGE('',*,*,#360,.T.);
#289=ORIENTED_EDGE('',*,*,#359,.F.);
#290=ORIENTED_EDGE('',*,*,#360,.F.);
#291=ORIENTED_EDGE('',*,*,#361,.F.);
#292=ORIENTED_EDGE('',*,*,#362,.F.);
#293=ORIENTED_EDGE('',*,*,#363,.F.);
#294=ORIENTED_EDGE('',*,*,#364,.T.);
#295=ORIENTED_EDGE('',*,*,#365,.T.);
#296=ORIENTED_EDGE('',*,*,#362,.T.);
#297=ORIENTED_EDGE('',*,*,#366,.T.);
#298=ORIENTED_EDGE('',*,*,#365,.F.);
#299=ORIENTED_EDGE('',*,*,#367,.T.);
#300=ORIENTED_EDGE('',*,*,#366,.F.);
#301=ORIENTED_EDGE('',*,*,#363,.T.);
#302=ORIENTED_EDGE('',*,*,#367,.F.);
#303=ORIENTED_EDGE('',*,*,#368,.F.);
#304=ORIENTED_EDGE('',*,*,#361,.T.);
#305=ORIENTED_EDGE('',*,*,#368,.T.);
#306=ORIENTED_EDGE('',*,*,#369,.T.);
#307=ORIENTED_EDGE('',*,*,#369,.F.);
#308=ORIENTED_EDGE('',*,*,#370,.F.);
#309=ORIENTED_EDGE('',*,*,#364,.F.);
#310=ORIENTED_EDGE('',*,*,#370,.T.);
#311=VERTEX_POINT('',#579);
#312=VERTEX_POINT('',#581);
#313=VERTEX_POINT('',#584);
#314=VERTEX_POINT('',#587);
#315=VERTEX_POINT('',#590);
#316=VERTEX_POINT('',#593);
#317=VERTEX_POINT('',#596);
#318=VERTEX_POINT('',#599);
#319=VERTEX_POINT('',#602);
#320=VERTEX_POINT('',#605);
#321=VERTEX_POINT('',#608);
#322=VERTEX_POINT('',#611);
#323=VERTEX_POINT('',#614);
#324=VERTEX_POINT('',#618);
#325=VERTEX_POINT('',#621);
#326=VERTEX_POINT('',#624);
#327=VERTEX_POINT('',#627);
#328=VERTEX_POINT('',#630);
#329=VERTEX_POINT('',#633);
#330=VERTEX_POINT('',#636);
#331=VERTEX_POINT('',#640);
#332=VERTEX_POINT('',#643);
#333=VERTEX_POINT('',#646);
#334=VERTEX_POINT('',#648);
#335=VERTEX_POINT('',#652);
#336=VERTEX_POINT('',#656);
#337=VERTEX_POINT('',#666);
#338=VERTEX_POINT('',#678);
#339=VERTEX_POINT('',#688);
#340=VERTEX_POINT('',#692);
#341=EDGE_CURVE('',#311,#311,#371,.T.);
#342=EDGE_CURVE('',#312,#312,#372,.T.);
#343=EDGE_CURVE('',#313,#313,#373,.T.);
#344=EDGE_CURVE('',#314,#314,#374,.T.);
#345=EDGE_CURVE('',#315,#315,#375,.T.);
#346=EDGE_CURVE('',#316,#316,#376,.T.);
#347=EDGE_CURVE('',#317,#317,#377,.T.);
#348=EDGE_CURVE('',#318,#318,#378,.T.);
#349=EDGE_CURVE('',#319,#319,#379,.T.);
#350=EDGE_CURVE('',#320,#320,#380,.T.);
#351=EDGE_CURVE('',#321,#321,#381,.T.);
#352=EDGE_CURVE('',#322,#322,#382,.T.);
#353=EDGE_CURVE('',#323,#323,#383,.T.);
#354=EDGE_CURVE('',#324,#324,#384,.T.);
#355=EDGE_CURVE('',#325,#325,#385,.T.);
#356=EDGE_CURVE('',#326,#326,#386,.T.);
#357=EDGE_CURVE('',#327,#327,#387,.T.);
#358=EDGE_CURVE('',#328,#328,#388,.T.);
#359=EDGE_CURVE('',#329,#329,#389,.T.);
#360=EDGE_CURVE('',#330,#330,#390,.T.);
#361=EDGE_CURVE('',#331,#331,#391,.T.);
#362=EDGE_CURVE('',#332,#332,#392,.T.);
#363=EDGE_CURVE('',#333,#333,#393,.T.);
#364=EDGE_CURVE('',#334,#334,#394,.T.);
#365=EDGE_CURVE('',#335,#335,#395,.T.);
#366=EDGE_CURVE('',#336,#336,#396,.T.);
#367=EDGE_CURVE('',#337,#337,#397,.T.);
#368=EDGE_CURVE('',#338,#338,#398,.T.);
#369=EDGE_CURVE('',#339,#339,#399,.T.);
#370=EDGE_CURVE('',#340,#340,#400,.T.);
#371=CIRCLE('',#402,22.);
#372=CIRCLE('',#403,21.3);
#373=CIRCLE('',#405,17.);
#374=CIRCLE('',#407,16.2056692403822);
#375=CIRCLE('',#409,15.75);
#376=CIRCLE('',#411,15.7499999999997);
#377=CIRCLE('',#413,15.7636296694808);
#378=CIRCLE('',#415,16.0000000000027);
#379=CIRCLE('',#417,16.);
#380=CIRCLE('',#419,15.8103073791806);
#381=CIRCLE('',#421,15.7499999999999);
#382=CIRCLE('',#423,15.7499999999997);
#383=CIRCLE('',#425,14.7499999999997);
#384=CIRCLE('',#428,22.);
#385=CIRCLE('',#430,21.3157907068511);
#386=CIRCLE('',#432,9.14034882191473);
#387=CIRCLE('',#434,8.);
#388=CIRCLE('',#436,7.99999999999998);
#389=CIRCLE('',#438,7.8295522950509);
#390=CIRCLE('',#440,6.83092276029632);
#391=CIRCLE('',#443,2.58925859497555);
#392=CIRCLE('',#445,4.03017009720898);
#393=CIRCLE('',#447,8.13621639543332);
#394=CIRCLE('',#448,5.58987477062853);
#395=CIRCLE('',#449,7.71834903621877);
#396=CIRCLE('',#450,8.13676105877025);
#397=CIRCLE('',#451,8.49999016491351);
#398=CIRCLE('',#452,2.95609178015606);
#399=CIRCLE('',#453,3.95158713764471);
#400=CIRCLE('',#454,5.19165869689492);
#401=AXIS2_PLACEMENT_3D('',#577,#455,#456);
#402=AXIS2_PLACEMENT_3D('',#578,#457,#458);
#403=AXIS2_PLACEMENT_3D('',#580,#459,#460);
#404=AXIS2_PLACEMENT_3D('',#582,#461,#462);
#405=AXIS2_PLACEMENT_3D('',#583,#463,#464);
#406=AXIS2_PLACEMENT_3D('',#585,#465,#466);
#407=AXIS2_PLACEMENT_3D('',#586,#467,#468);
#408=AXIS2_PLACEMENT_3D('',#588,#469,#470);
#409=AXIS2_PLACEMENT_3D('',#589,#471,#472);
#410=AXIS2_PLACEMENT_3D('',#591,#473,#474);
#411=AXIS2_PLACEMENT_3D('',#592,#475,#476);
#412=AXIS2_PLACEMENT_3D('',#594,#477,#478);
#413=AXIS2_PLACEMENT_3D('',#595,#479,#480);
#414=AXIS2_PLACEMENT_3D('',#597,#481,#482);
#415=AXIS2_PLACEMENT_3D('',#598,#483,#484);
#416=AXIS2_PLACEMENT_3D('',#600,#485,#486);
#417=AXIS2_PLACEMENT_3D('',#601,#487,#488);
#418=AXIS2_PLACEMENT_3D('',#603,#489,#490);
#419=AXIS2_PLACEMENT_3D('',#604,#491,#492);
#420=AXIS2_PLACEMENT_3D('',#606,#493,#494);
#421=AXIS2_PLACEMENT_3D('',#607,#495,#496);
#422=AXIS2_PLACEMENT_3D('',#609,#497,#498);
#423=AXIS2_PLACEMENT_3D('',#610,#499,#500);
#424=AXIS2_PLACEMENT_3D('',#612,#501,#502);
#425=AXIS2_PLACEMENT_3D('',#613,#503,#504);
#426=AXIS2_PLACEMENT_3D('',#615,#505,#506);
#427=AXIS2_PLACEMENT_3D('',#616,#507,#508);
#428=AXIS2_PLACEMENT_3D('',#617,#509,#510);
#429=AXIS2_PLACEMENT_3D('',#619,#511,#512);
#430=AXIS2_PLACEMENT_3D('',#620,#513,#514);
#431=AXIS2_PLACEMENT_3D('',#622,#515,#516);
#432=AXIS2_PLACEMENT_3D('',#623,#517,#518);
#433=AXIS2_PLACEMENT_3D('',#625,#519,#520);
#434=AXIS2_PLACEMENT_3D('',#626,#521,#522);
#435=AXIS2_PLACEMENT_3D('',#628,#523,#524);
#436=AXIS2_PLACEMENT_3D('',#629,#525,#526);
#437=AXIS2_PLACEMENT_3D('',#631,#527,#528);
#438=AXIS2_PLACEMENT_3D('',#632,#529,#530);
#439=AXIS2_PLACEMENT_3D('',#634,#531,#532);
#440=AXIS2_PLACEMENT_3D('',#635,#533,#534);
#441=AXIS2_PLACEMENT_3D('',#637,#535,#536);
#442=AXIS2_PLACEMENT_3D('',#638,#537,#538);
#443=AXIS2_PLACEMENT_3D('',#639,#539,#540);
#444=AXIS2_PLACEMENT_3D('',#641,#541,#542);
#445=AXIS2_PLACEMENT_3D('',#642,#543,#544);
#446=AXIS2_PLACEMENT_3D('',#644,#545,#546);
#447=AXIS2_PLACEMENT_3D('',#645,#547,#548);
#448=AXIS2_PLACEMENT_3D('',#647,#549,#550);
#449=AXIS2_PLACEMENT_3D('',#651,#553,#554);
#450=AXIS2_PLACEMENT_3D('',#655,#557,#558);
#451=AXIS2_PLACEMENT_3D('',#665,#560,#561);
#452=AXIS2_PLACEMENT_3D('',#677,#565,#566);
#453=AXIS2_PLACEMENT_3D('',#687,#568,#569);
#454=AXIS2_PLACEMENT_3D('',#691,#572,#573);
#455=DIRECTION('',(0.,0.,1.));
#456=DIRECTION('',(1.,0.,0.));
#457=DIRECTION('',(1.,0.,0.));
#458=DIRECTION('',(0.,0.,1.));
#459=DIRECTION('',(1.,0.,0.));
#460=DIRECTION('',(0.,0.,-1.));
#461=DIRECTION('',(1.,0.,0.));
#462=DIRECTION('',(0.,0.,-1.));
#463=DIRECTION('',(1.,0.,0.));
#464=DIRECTION('',(0.,0.,-1.));
#465=DIRECTION('',(-1.,0.,0.));
#466=DIRECTION('',(0.,0.,1.));
#467=DIRECTION('',(1.,0.,0.));
#468=DIRECTION('',(0.,0.,-1.));
#469=DIRECTION('',(1.,0.,0.));
#470=DIRECTION('',(1.16744826878014E-17,0.,-1.));
#471=DIRECTION('',(1.,0.,0.));
#472=DIRECTION('',(0.,0.,-1.));
#473=DIRECTION('',(1.,0.,0.));
#474=DIRECTION('',(0.,0.,-1.));
#475=DIRECTION('',(1.,0.,0.));
#476=DIRECTION('',(0.,0.,-1.));
#477=DIRECTION('',(1.,0.,0.));
#478=DIRECTION('',(0.,0.,-1.));
#479=DIRECTION('',(1.,0.,0.));
#480=DIRECTION('',(0.,0.,-1.));
#481=DIRECTION('',(1.,0.,0.));
#482=DIRECTION('',(0.,0.,-1.));
#483=DIRECTION('',(1.,0.,0.));
#484=DIRECTION('',(0.,0.,-1.));
#485=DIRECTION('',(1.,0.,0.));
#486=DIRECTION('',(2.93489473720497E-16,0.,-1.));
#487=DIRECTION('',(1.,0.,0.));
#488=DIRECTION('',(0.,0.,-1.));
#489=DIRECTION('',(1.,0.,0.));
#490=DIRECTION('',(0.,0.,-1.));
#491=DIRECTION('',(1.,0.,0.));
#492=DIRECTION('',(0.,0.,-1.));
#493=DIRECTION('',(-1.,0.,0.));
#494=DIRECTION('',(0.,0.,1.));
#495=DIRECTION('',(1.,0.,0.));
#496=DIRECTION('',(0.,0.,-1.));
#497=DIRECTION('',(1.,0.,0.));
#498=DIRECTION('',(0.,0.,-1.));
#499=DIRECTION('',(-1.,0.,0.));
#500=DIRECTION('',(0.,0.,-1.));
#501=DIRECTION('',(1.,0.,0.));
#502=DIRECTION('',(0.,0.,-1.));
#503=DIRECTION('',(1.,0.,0.));
#504=DIRECTION('',(0.,0.,-1.));
#505=DIRECTION('',(1.,0.,0.));
#506=DIRECTION('',(0.,0.,-1.));
#507=DIRECTION('',(-1.,0.,0.));
#508=DIRECTION('',(0.,0.,1.));
#509=DIRECTION('',(1.,0.,0.));
#510=DIRECTION('',(0.,0.,1.));
#511=DIRECTION('',(-1.,0.,0.));
#512=DIRECTION('',(0.,0.,1.));
#513=DIRECTION('',(1.,0.,0.));
#514=DIRECTION('',(0.,0.,1.));
#515=DIRECTION('',(-1.,0.,0.));
#516=DIRECTION('',(0.,0.,1.));
#517=DIRECTION('',(1.,0.,0.));
#518=DIRECTION('',(0.,0.,1.));
#519=DIRECTION('',(1.,0.,0.));
#520=DIRECTION('',(1.14984987037281E-16,0.,-1.));
#521=DIRECTION('',(1.,0.,0.));
#522=DIRECTION('',(0.,0.,1.));
#523=DIRECTION('',(-1.,0.,0.));
#524=DIRECTION('',(0.,0.,1.));
#525=DIRECTION('',(1.,0.,0.));
#526=DIRECTION('',(0.,0.,1.));
#527=DIRECTION('',(-1.,0.,0.));
#528=DIRECTION('',(0.,0.,1.));
#529=DIRECTION('',(1.,0.,0.));
#530=DIRECTION('',(0.,0.,1.));
#531=DIRECTION('',(1.,0.,0.));
#532=DIRECTION('',(-1.83788087859212E-15,0.,-1.));
#533=DIRECTION('',(1.,0.,0.));
#534=DIRECTION('',(0.,0.,1.));
#535=DIRECTION('',(-1.,0.,0.));
#536=DIRECTION('',(0.,0.,1.));
#537=DIRECTION('',(1.,0.,0.));
#538=DIRECTION('',(0.,0.,-1.));
#539=DIRECTION('',(1.,0.,0.));
#540=DIRECTION('',(0.,0.,-1.));
#541=DIRECTION('',(1.,0.,0.));
#542=DIRECTION('',(0.,0.,-1.));
#543=DIRECTION('',(-1.,0.,0.));
#544=DIRECTION('',(0.,0.,-1.));
#545=DIRECTION('',(1.,0.,0.));
#546=DIRECTION('',(0.,0.,-1.));
#547=DIRECTION('',(1.,0.,0.));
#548=DIRECTION('',(0.,0.,-1.));
#549=DIRECTION('',(1.,0.,0.));
#550=DIRECTION('',(0.,0.,-1.));
#551=DIRECTION('',(-0.0697564737441264,0.995134034370785,-0.0695865504800328));
#552=DIRECTION('',(1.,0.,0.));
#553=DIRECTION('',(1.,0.,0.));
#554=DIRECTION('',(0.,0.,-1.));
#555=DIRECTION('',(0.0697564737441259,-0.995134034370785,0.0695865504800327));
#556=DIRECTION('',(1.,0.,0.));
#557=DIRECTION('',(1.,0.,0.));
#558=DIRECTION('',(0.,0.,-1.));
#559=DIRECTION('',(1.,0.,0.));
#560=DIRECTION('',(1.,0.,0.));
#561=DIRECTION('',(0.,0.,-1.));
#562=DIRECTION('',(-0.997564050259824,-0.0695865504800333,0.00486596562921433));
#563=DIRECTION('',(1.,0.,0.));
#564=DIRECTION('',(1.,0.,0.));
#565=DIRECTION('',(1.,0.,0.));
#566=DIRECTION('',(0.,0.,-1.));
#567=DIRECTION('',(1.,0.,0.));
#568=DIRECTION('',(-1.,0.,0.));
#569=DIRECTION('',(0.,0.,-1.));
#570=DIRECTION('',(-0.0697564737441264,0.995134034370785,-0.0695865504800328));
#571=DIRECTION('',(1.,0.,0.));
#572=DIRECTION('',(1.,0.,0.));
#573=DIRECTION('',(0.,0.,-1.));
#574=DIRECTION('',(-0.0958457525202247,0.995396198367179,-5.19781835800124E-18));
#575=DIRECTION('',(1.,0.,0.));
#576=DIRECTION('',(1.,0.,0.));
#577=CARTESIAN_POINT('',(0.,0.,0.));
#578=CARTESIAN_POINT('',(111.587298334621,0.,0.));
#579=CARTESIAN_POINT('',(111.587298334621,0.,22.));
#580=CARTESIAN_POINT('',(112.,0.,0.));
#581=CARTESIAN_POINT('',(112.,0.,-21.3));
#582=CARTESIAN_POINT('',(111.2,0.,0.));
#583=CARTESIAN_POINT('',(112.,0.,0.));
#584=CARTESIAN_POINT('',(112.,0.,-17.));
#585=CARTESIAN_POINT('',(112.,21.3000000000001,0.));
#586=CARTESIAN_POINT('',(111.888364092013,0.,0.));
#587=CARTESIAN_POINT('',(111.888364092013,0.,-16.2056692403822));
#588=CARTESIAN_POINT('',(112.,0.,0.));
#589=CARTESIAN_POINT('',(112.28447131951,0.,0.));
#590=CARTESIAN_POINT('',(112.28447131951,0.,-15.75));
#591=CARTESIAN_POINT('',(112.28447131951,0.,0.));
#592=CARTESIAN_POINT('',(113.014326299067,0.,0.));
#593=CARTESIAN_POINT('',(113.014326299067,0.,-15.7499999999997));
#594=CARTESIAN_POINT('',(0.,0.,0.));
#595=CARTESIAN_POINT('',(113.117853917101,0.,0.));
#596=CARTESIAN_POINT('',(113.117853917101,0.,-15.7636296694808));
#597=CARTESIAN_POINT('',(113.014326299073,0.,0.));
#598=CARTESIAN_POINT('',(114.000000000001,0.,0.));
#599=CARTESIAN_POINT('',(114.000000000001,0.,-16.0000000000027));
#600=CARTESIAN_POINT('',(113.117853917101,0.,0.));
#601=CARTESIAN_POINT('',(168.31313064512,0.,0.));
#602=CARTESIAN_POINT('',(168.31313064512,0.,-16.));
#603=CARTESIAN_POINT('',(0.,0.,0.));
#604=CARTESIAN_POINT('',(168.83430683737,0.,0.));
#605=CARTESIAN_POINT('',(168.83430683737,0.,-15.8103073791806));
#606=CARTESIAN_POINT('',(168.31313064512,0.,0.));
#607=CARTESIAN_POINT('',(169.176326980708,0.,0.));
#608=CARTESIAN_POINT('',(169.176326980708,0.,-15.7499999999999));
#609=CARTESIAN_POINT('',(169.176326980707,0.,0.));
#610=CARTESIAN_POINT('',(171.,0.,0.));
#611=CARTESIAN_POINT('',(171.,0.,-15.7499999999997));
#612=CARTESIAN_POINT('',(0.,0.,0.));
#613=CARTESIAN_POINT('',(172.,0.,0.));
#614=CARTESIAN_POINT('',(172.,0.,-14.7499999999997));
#615=CARTESIAN_POINT('',(171.,0.,0.));
#616=CARTESIAN_POINT('',(172.,22.5,0.));
#617=CARTESIAN_POINT('',(108.076296188331,0.,0.));
#618=CARTESIAN_POINT('',(108.076296188331,0.,22.));
#619=CARTESIAN_POINT('',(0.,0.,0.));
#620=CARTESIAN_POINT('',(106.169174429748,0.,0.));
#621=CARTESIAN_POINT('',(106.169174429748,0.,21.3157907068511));
#622=CARTESIAN_POINT('',(108.076296188331,0.,0.));
#623=CARTESIAN_POINT('',(91.3847092837536,0.,0.));
#624=CARTESIAN_POINT('',(91.3847092837536,0.,9.14034882191473));
#625=CARTESIAN_POINT('',(106.169174429748,0.,0.));
#626=CARTESIAN_POINT('',(88.2061730194481,0.,0.));
#627=CARTESIAN_POINT('',(88.2061730194481,0.,8.));
#628=CARTESIAN_POINT('',(88.2061730194481,0.,0.));
#629=CARTESIAN_POINT('',(5.,0.,0.));
#630=CARTESIAN_POINT('',(5.,0.,7.99999999999998));
#631=CARTESIAN_POINT('',(0.,0.,0.));
#632=CARTESIAN_POINT('',(1.74766404375706,0.,0.));
#633=CARTESIAN_POINT('',(1.74766404375706,0.,7.8295522950509));
#634=CARTESIAN_POINT('',(5.,0.,0.));
#635=CARTESIAN_POINT('',(0.800000000000001,0.,0.));
#636=CARTESIAN_POINT('',(0.800000000000001,0.,6.83092276029632));
#637=CARTESIAN_POINT('',(1.8,0.,0.));
#638=CARTESIAN_POINT('',(0.8,6.83092276029632,0.));
#639=CARTESIAN_POINT('',(0.252203032751501,0.,0.));
#640=CARTESIAN_POINT('',(0.252203032751501,0.,-2.58925859497555));
#641=CARTESIAN_POINT('',(0.252203032751501,0.,0.));
#642=CARTESIAN_POINT('',(6.14114307343454,0.,0.));
#643=CARTESIAN_POINT('',(6.14114307343454,0.,-4.03017009720898));
#644=CARTESIAN_POINT('',(6.14114307343454,0.,0.));
#645=CARTESIAN_POINT('',(0.414500692523692,0.,0.));
#646=CARTESIAN_POINT('',(0.414500692523692,0.,-8.13621639543332));
#647=CARTESIAN_POINT('',(0.236047640473421,0.,0.));
#648=CARTESIAN_POINT('',(0.236047640473421,0.,-5.58987477062853));
#649=CARTESIAN_POINT('',(0.414500692523692,-8.07274448208726,1.01430456976573));
#650=CARTESIAN_POINT('',(5.,0.,0.));
#651=CARTESIAN_POINT('',(6.39988499408264,0.,0.));
#652=CARTESIAN_POINT('',(6.39988499408264,0.,-7.71834903621877));
#653=CARTESIAN_POINT('',(6.14114307343454,-3.96405678242333,0.726997137656715));
#654=CARTESIAN_POINT('',(5.,0.,0.));
#655=CARTESIAN_POINT('',(6.03558053883604,0.,0.));
#656=CARTESIAN_POINT('',(6.03558053883604,0.,-8.13676105877025));
#657=CARTESIAN_POINT('',(6.39988499408264,-7.65522517920706,0.985108775990441));
#658=CARTESIAN_POINT('',(6.40347037871147,-7.70637366878733,0.988685426802515));
#659=CARTESIAN_POINT('',(6.39059027862296,-7.81163221020423,0.996045821033622));
#660=CARTESIAN_POINT('',(6.3131225918313,-7.94697603144204,1.00550998296903));
#661=CARTESIAN_POINT('',(6.18955006609822,-8.0423391564244,1.01217842227602));
#662=CARTESIAN_POINT('',(6.08685392781487,-8.06971199594133,1.01409251767728));
#663=CARTESIAN_POINT('',(6.03558053883604,-8.07328864675341,1.01434262146601));
#664=CARTESIAN_POINT('',(5.,0.,0.));
#665=CARTESIAN_POINT('',(0.833585028449246,0.,0.));
#666=CARTESIAN_POINT('',(0.833585028449246,0.,-8.49999016491351));
#667=CARTESIAN_POINT('',(6.03558053883604,-8.0732886467534,1.014342621466));
#668=CARTESIAN_POINT('',(5.,0.,0.));
#669=CARTESIAN_POINT('',(0.833585028449245,-8.43616150999076,1.039717163933));
#670=CARTESIAN_POINT('',(0.782311639470415,-8.43973816080284,1.03996726772173));
#671=CARTESIAN_POINT('',(0.676796067423207,-8.42688943599079,1.03906879735808));
#672=CARTESIAN_POINT('',(0.541121750368015,-8.34961045659064,1.03366492469838));
#673=CARTESIAN_POINT('',(0.445525758353754,-8.22633894731952,1.02504494105159));
#674=CARTESIAN_POINT('',(0.418086077152523,-8.12389297166753,1.0178812205778));
#675=CARTESIAN_POINT('',(0.414500692523694,-8.07274448208726,1.01430456976573));
#676=CARTESIAN_POINT('',(5.,0.,0.));
#677=CARTESIAN_POINT('',(0.0507417307378842,0.,0.));
#678=CARTESIAN_POINT('',(0.0507417307378842,0.,-2.95609178015606));
#679=CARTESIAN_POINT('',(0.0507417307378847,-2.88342077131239,0.651431706528372));
#680=CARTESIAN_POINT('',(0.0471563461090558,-2.83227228173212,0.647855055716298));
#681=CARTESIAN_POINT('',(0.0600364461975644,-2.72701374031523,0.640494661485191));
#682=CARTESIAN_POINT('',(0.137504132989223,-2.59166991907742,0.631030499549778));
#683=CARTESIAN_POINT('',(0.2610766587223,-2.49630679409506,0.624362060242792));
#684=CARTESIAN_POINT('',(0.363772797005658,-2.46893395457812,0.622447964841531));
#685=CARTESIAN_POINT('',(0.415046185984488,-2.46535730376605,0.622197861052807));
#686=CARTESIAN_POINT('',(5.,0.,0.));
#687=CARTESIAN_POINT('',(0.120961560666685,0.,0.));
#688=CARTESIAN_POINT('',(0.120961560666685,0.,-3.95158713764471));
#689=CARTESIAN_POINT('',(0.120961560666685,-3.88516496649919,0.721480484480702));
#690=CARTESIAN_POINT('',(5.,0.,0.));
#691=CARTESIAN_POINT('',(0.00152713808177028,0.,0.));
#692=CARTESIAN_POINT('',(0.00152713808177028,0.,-5.19165869689492));
#693=CARTESIAN_POINT('',(0.120961560666685,3.95032162062776,0.0999999999999957));
#694=CARTESIAN_POINT('',(5.,0.,0.));
#695=CARTESIAN_POINT('',(0.00152713808177007,5.19069552420913,0.0999999999999957));
#696=CARTESIAN_POINT('',(-0.00339919877816186,5.24185748865004,0.0999999999999957));
#697=CARTESIAN_POINT('',(0.00671441194657807,5.34767406486024,0.0999999999999957));
#698=CARTESIAN_POINT('',(0.0806040129125138,5.48532975734819,0.0999999999999957));
#699=CARTESIAN_POINT('',(0.201631782085917,5.58412774262194,0.0999999999999956));
#700=CARTESIAN_POINT('',(0.303574441851189,5.61424629243301,0.0999999999999956));
#701=CARTESIAN_POINT('',(0.354736406292105,5.61917262929294,0.0999999999999956));
#702=CARTESIAN_POINT('',(5.,0.,0.));
#703=(
GEOMETRIC_REPRESENTATION_CONTEXT(3)
GLOBAL_UNCERTAINTY_ASSIGNED_CONTEXT((#704))
GLOBAL_UNIT_ASSIGNED_CONTEXT((#710,#706,#705))
REPRESENTATION_CONTEXT('ATUM-17XD5-SP-060204-32-light',
'TOP_LEVEL_ASSEMBLY_PART')
);
#704=UNCERTAINTY_MEASURE_WITH_UNIT(LENGTH_MEASURE(2.E-5),#710,
'DISTANCE_ACCURACY_VALUE','Maximum Tolerance applied to model');
#705=(
NAMED_UNIT(*)
SI_UNIT($,.STERADIAN.)
SOLID_ANGLE_UNIT()
);
#706=(
CONVERSION_BASED_UNIT('DEGREE',#708)
NAMED_UNIT(#707)
PLANE_ANGLE_UNIT()
);
#707=DIMENSIONAL_EXPONENTS(0.,0.,0.,0.,0.,0.,0.);
#708=PLANE_ANGLE_MEASURE_WITH_UNIT(PLANE_ANGLE_MEASURE(0.0174532925),#709);
#709=(
NAMED_UNIT(*)
PLANE_ANGLE_UNIT()
SI_UNIT($,.RADIAN.)
);
#710=(
LENGTH_UNIT()
NAMED_UNIT(*)
SI_UNIT(.MILLI.,.METRE.)
);
ENDSEC;
END-ISO-10303-21;
