ISO-10303-21;
HEADER;
/* Generated by software containing ST-Developer
 * from STEP Tools, Inc. (www.steptools.com) 
 */
/* OPTION: using custom schema-name function */

FILE_DESCRIPTION(
/* description */ (''),
/* implementation_level */ '2;1');

FILE_NAME(
/* name */ 'ATUM-20XD2-SP-060204-light.stp',
/* time_stamp */ '2023-10-12T21:59:41+03:00',
/* author */ (''),
/* organization */ (''),
/* preprocessor_version */ 'ST-DEVELOPER v19.4',
/* originating_system */ 'SIEMENS PLM Software NX2306.3001',
/* authorisation */ '');

FILE_SCHEMA (('AUTOMOTIVE_DESIGN { 1 0 10303 214 3 1 1 1 }'));
ENDSEC;

DATA;
#10=SHAPE_REPRESENTATION_RELATIONSHIP('None',
'relationship between STP_ATUM 15.5XD2 SP.. 060204-None and STP_ATUM 1
5.5XD2 SP.. 060204-None',#22,#11);
#11=ADVANCED_BREP_SHAPE_REPRESENTATION(
'STP_ATUM 15.5XD2 SP.. 060204-None',(#65,#66),#660);
#12=SHAPE_DEFINITION_REPRESENTATION(#13,#22);
#13=PRODUCT_DEFINITION_SHAPE('','',#14);
#14=PRODUCT_DEFINITION(' ','',#16,#15);
#15=PRODUCT_DEFINITION_CONTEXT('part definition',#21,'design');
#16=PRODUCT_DEFINITION_FORMATION_WITH_SPECIFIED_SOURCE(' ',' ',#18,
 .NOT_KNOWN.);
#17=PRODUCT_RELATED_PRODUCT_CATEGORY('part','',(#18));
#18=PRODUCT('STP_ATUM 15.5XD2 SP.. 060204',
'STP_ATUM 15.5XD2 SP.. 060204',' ',(#19));
#19=PRODUCT_CONTEXT(' ',#21,'mechanical');
#20=APPLICATION_PROTOCOL_DEFINITION('international standard',
'automotive_design',2010,#21);
#21=APPLICATION_CONTEXT(
'core data for automotive mechanical design processes');
#22=SHAPE_REPRESENTATION('STP_ATUM 15.5XD2 SP.. 060204-None',(#373),#660);
#23=DRAUGHTING_PRE_DEFINED_COLOUR('yellow');
#24=B_SPLINE_CURVE_WITH_KNOTS('',3,(#618,#619,#620,#621,#622,#623,#624),
 .UNSPECIFIED.,.F.,.F.,(4,1,1,1,4),(0.,0.25,0.5,0.75,1.),.UNSPECIFIED.);
#25=B_SPLINE_CURVE_WITH_KNOTS('',3,(#632,#633,#634,#635,#636,#637,#638),
 .UNSPECIFIED.,.F.,.F.,(4,1,1,1,4),(0.,0.25,0.5,0.75,1.),.UNSPECIFIED.);
#26=B_SPLINE_CURVE_WITH_KNOTS('',3,(#644,#645,#646,#647,#648,#649,#650),
 .UNSPECIFIED.,.F.,.F.,(4,1,1,1,4),(0.,0.25,0.5,0.75,1.),.UNSPECIFIED.);
#27=B_SPLINE_CURVE_WITH_KNOTS('',3,(#652,#653,#654,#655,#656,#657,#658),
 .UNSPECIFIED.,.F.,.F.,(4,1,1,1,4),(0.,0.25,0.5,0.75,1.),.UNSPECIFIED.);
#28=(
BOUNDED_CURVE()
B_SPLINE_CURVE(3,(#610,#611,#612,#613,#614,#615,#616),.UNSPECIFIED.,.T.,
 .F.)
B_SPLINE_CURVE_WITH_KNOTS((1,3,3,3,1),(-0.5,0.,0.5,1.,1.5),
 .UNSPECIFIED.)
CURVE()
GEOMETRIC_REPRESENTATION_ITEM()
RATIONAL_B_SPLINE_CURVE((1.,0.333333333333333,0.333333333333333,1.,0.333333333333333,
0.333333333333333,1.))
REPRESENTATION_ITEM('')
);
#29=SURFACE_OF_REVOLUTION('',#43,#36);
#30=SURFACE_OF_REVOLUTION('',#24,#37);
#31=SURFACE_OF_REVOLUTION('',#44,#38);
#32=SURFACE_OF_REVOLUTION('',#25,#39);
#33=SURFACE_OF_REVOLUTION('',#45,#40);
#34=SURFACE_OF_REVOLUTION('',#26,#41);
#35=SURFACE_OF_REVOLUTION('',#27,#42);
#36=AXIS1_PLACEMENT('',#609,#521);
#37=AXIS1_PLACEMENT('',#625,#522);
#38=AXIS1_PLACEMENT('',#629,#526);
#39=AXIS1_PLACEMENT('',#639,#529);
#40=AXIS1_PLACEMENT('',#643,#533);
#41=AXIS1_PLACEMENT('',#651,#534);
#42=AXIS1_PLACEMENT('',#659,#535);
#43=LINE('',#608,#46);
#44=LINE('',#628,#47);
#45=LINE('',#642,#48);
#46=VECTOR('',#520,4.81593934298506);
#47=VECTOR('',#525,5.21469825324187);
#48=VECTOR('',#532,5.21469825324187);
#49=PRESENTATION_LAYER_ASSIGNMENT('1','Layer 1',(#65,#66));
#50=STYLED_ITEM('',(#52),#65);
#51=STYLED_ITEM('',(#53),#66);
#52=PRESENTATION_STYLE_ASSIGNMENT((#54));
#53=PRESENTATION_STYLE_ASSIGNMENT((#55));
#54=SURFACE_STYLE_USAGE(.BOTH.,#56);
#55=SURFACE_STYLE_USAGE(.BOTH.,#57);
#56=SURFACE_SIDE_STYLE('',(#58));
#57=SURFACE_SIDE_STYLE('',(#59));
#58=SURFACE_STYLE_FILL_AREA(#60);
#59=SURFACE_STYLE_FILL_AREA(#61);
#60=FILL_AREA_STYLE('',(#62));
#61=FILL_AREA_STYLE('',(#63));
#62=FILL_AREA_STYLE_COLOUR('',#64);
#63=FILL_AREA_STYLE_COLOUR('',#23);
#64=COLOUR_RGB('smoke gray',0.694117647058824,0.694117647058824,0.694117647058824);
#65=MANIFOLD_SOLID_BREP('',#67);
#66=MANIFOLD_SOLID_BREP('',#68);
#67=CLOSED_SHELL('',(#88,#89,#90,#91,#92,#93,#94,#95,#96,#97,#98,#99,#100,
#101,#102,#103,#104,#105,#106,#107,#108));
#68=CLOSED_SHELL('',(#109,#110,#111,#112,#113,#114,#115,#116,#117));
#69=FACE_OUTER_BOUND('',#202,.T.);
#70=FACE_OUTER_BOUND('',#217,.T.);
#71=FACE_OUTER_BOUND('',#218,.T.);
#72=FACE_OUTER_BOUND('',#219,.T.);
#73=PLANE('',#396);
#74=PLANE('',#399);
#75=PLANE('',#414);
#76=PLANE('',#416);
#77=PLANE('',#418);
#78=CONICAL_SURFACE('',#382,12.3103073792139,20.0000000000003);
#79=CONICAL_SURFACE('',#386,12.5,15.0000000000006);
#80=CONICAL_SURFACE('',#394,12.7056692403838,82.0000000000003);
#81=CONICAL_SURFACE('',#405,16.5913367026953,30.2564371635293);
#82=CONICAL_SURFACE('',#411,10.,3.00000000000006);
#83=CYLINDRICAL_SURFACE('',#378,12.2499999999998);
#84=CYLINDRICAL_SURFACE('',#384,12.5);
#85=CYLINDRICAL_SURFACE('',#390,12.2499999999998);
#86=CYLINDRICAL_SURFACE('',#401,16.9999999999999);
#87=CYLINDRICAL_SURFACE('',#409,10.);
#88=ADVANCED_FACE('',(#126,#127),#118,.T.);
#89=ADVANCED_FACE('',(#128,#129),#83,.T.);
#90=ADVANCED_FACE('',(#130,#131),#119,.F.);
#91=ADVANCED_FACE('',(#132,#133),#78,.T.);
#92=ADVANCED_FACE('',(#134,#135),#84,.T.);
#93=ADVANCED_FACE('',(#136,#137),#79,.T.);
#94=ADVANCED_FACE('',(#138,#139),#120,.F.);
#95=ADVANCED_FACE('',(#140,#141),#85,.T.);
#96=ADVANCED_FACE('',(#142,#143),#121,.F.);
#97=ADVANCED_FACE('',(#144,#145),#80,.F.);
#98=ADVANCED_FACE('',(#146,#147),#73,.F.);
#99=ADVANCED_FACE('',(#148,#149),#122,.T.);
#100=ADVANCED_FACE('',(#69),#74,.F.);
#101=ADVANCED_FACE('',(#150,#151),#86,.T.);
#102=ADVANCED_FACE('',(#152,#153),#123,.T.);
#103=ADVANCED_FACE('',(#154,#155),#81,.T.);
#104=ADVANCED_FACE('',(#156,#157),#124,.F.);
#105=ADVANCED_FACE('',(#158,#159),#87,.T.);
#106=ADVANCED_FACE('',(#160,#161),#82,.T.);
#107=ADVANCED_FACE('',(#162,#163),#125,.T.);
#108=ADVANCED_FACE('',(#70),#75,.F.);
#109=ADVANCED_FACE('',(#71),#76,.T.);
#110=ADVANCED_FACE('',(#72),#77,.F.);
#111=ADVANCED_FACE('',(#164,#165),#29,.F.);
#112=ADVANCED_FACE('',(#166,#167),#30,.F.);
#113=ADVANCED_FACE('',(#168,#169),#31,.F.);
#114=ADVANCED_FACE('',(#170,#171),#32,.F.);
#115=ADVANCED_FACE('',(#172,#173),#33,.F.);
#116=ADVANCED_FACE('',(#174,#175),#34,.F.);
#117=ADVANCED_FACE('',(#176,#177),#35,.F.);
#118=TOROIDAL_SURFACE('',#376,11.2499999999998,1.00000000000001);
#119=TOROIDAL_SURFACE('',#380,13.2499999999998,0.999999999999997);
#120=TOROIDAL_SURFACE('',#388,12.6499999999998,0.4);
#121=TOROIDAL_SURFACE('',#392,12.6499999999998,0.399999999999986);
#122=TOROIDAL_SURFACE('',#398,16.3,0.800000000000011);
#123=TOROIDAL_SURFACE('',#403,14.,3.);
#124=TOROIDAL_SURFACE('',#407,15.,5.);
#125=TOROIDAL_SURFACE('',#413,8.82987460471069,0.999999999999999);
#126=FACE_BOUND('',#178,.T.);
#127=FACE_BOUND('',#179,.T.);
#128=FACE_BOUND('',#180,.T.);
#129=FACE_BOUND('',#181,.T.);
#130=FACE_BOUND('',#182,.T.);
#131=FACE_BOUND('',#183,.T.);
#132=FACE_BOUND('',#184,.T.);
#133=FACE_BOUND('',#185,.T.);
#134=FACE_BOUND('',#186,.T.);
#135=FACE_BOUND('',#187,.T.);
#136=FACE_BOUND('',#188,.T.);
#137=FACE_BOUND('',#189,.T.);
#138=FACE_BOUND('',#190,.T.);
#139=FACE_BOUND('',#191,.T.);
#140=FACE_BOUND('',#192,.T.);
#141=FACE_BOUND('',#193,.T.);
#142=FACE_BOUND('',#194,.T.);
#143=FACE_BOUND('',#195,.T.);
#144=FACE_BOUND('',#196,.T.);
#145=FACE_BOUND('',#197,.T.);
#146=FACE_BOUND('',#198,.T.);
#147=FACE_BOUND('',#199,.T.);
#148=FACE_BOUND('',#200,.T.);
#149=FACE_BOUND('',#201,.T.);
#150=FACE_BOUND('',#203,.T.);
#151=FACE_BOUND('',#204,.T.);
#152=FACE_BOUND('',#205,.T.);
#153=FACE_BOUND('',#206,.T.);
#154=FACE_BOUND('',#207,.T.);
#155=FACE_BOUND('',#208,.T.);
#156=FACE_BOUND('',#209,.T.);
#157=FACE_BOUND('',#210,.T.);
#158=FACE_BOUND('',#211,.T.);
#159=FACE_BOUND('',#212,.T.);
#160=FACE_BOUND('',#213,.T.);
#161=FACE_BOUND('',#214,.T.);
#162=FACE_BOUND('',#215,.T.);
#163=FACE_BOUND('',#216,.T.);
#164=FACE_BOUND('',#220,.T.);
#165=FACE_BOUND('',#221,.T.);
#166=FACE_BOUND('',#222,.T.);
#167=FACE_BOUND('',#223,.T.);
#168=FACE_BOUND('',#224,.T.);
#169=FACE_BOUND('',#225,.T.);
#170=FACE_BOUND('',#226,.T.);
#171=FACE_BOUND('',#227,.T.);
#172=FACE_BOUND('',#228,.T.);
#173=FACE_BOUND('',#229,.T.);
#174=FACE_BOUND('',#230,.T.);
#175=FACE_BOUND('',#231,.T.);
#176=FACE_BOUND('',#232,.T.);
#177=FACE_BOUND('',#233,.T.);
#178=EDGE_LOOP('',(#234));
#179=EDGE_LOOP('',(#235));
#180=EDGE_LOOP('',(#236));
#181=EDGE_LOOP('',(#237));
#182=EDGE_LOOP('',(#238));
#183=EDGE_LOOP('',(#239));
#184=EDGE_LOOP('',(#240));
#185=EDGE_LOOP('',(#241));
#186=EDGE_LOOP('',(#242));
#187=EDGE_LOOP('',(#243));
#188=EDGE_LOOP('',(#244));
#189=EDGE_LOOP('',(#245));
#190=EDGE_LOOP('',(#246));
#191=EDGE_LOOP('',(#247));
#192=EDGE_LOOP('',(#248));
#193=EDGE_LOOP('',(#249));
#194=EDGE_LOOP('',(#250));
#195=EDGE_LOOP('',(#251));
#196=EDGE_LOOP('',(#252));
#197=EDGE_LOOP('',(#253));
#198=EDGE_LOOP('',(#254));
#199=EDGE_LOOP('',(#255));
#200=EDGE_LOOP('',(#256));
#201=EDGE_LOOP('',(#257));
#202=EDGE_LOOP('',(#258));
#203=EDGE_LOOP('',(#259));
#204=EDGE_LOOP('',(#260));
#205=EDGE_LOOP('',(#261));
#206=EDGE_LOOP('',(#262));
#207=EDGE_LOOP('',(#263));
#208=EDGE_LOOP('',(#264));
#209=EDGE_LOOP('',(#265));
#210=EDGE_LOOP('',(#266));
#211=EDGE_LOOP('',(#267));
#212=EDGE_LOOP('',(#268));
#213=EDGE_LOOP('',(#269));
#214=EDGE_LOOP('',(#270));
#215=EDGE_LOOP('',(#271));
#216=EDGE_LOOP('',(#272));
#217=EDGE_LOOP('',(#273));
#218=EDGE_LOOP('',(#274));
#219=EDGE_LOOP('',(#275));
#220=EDGE_LOOP('',(#276));
#221=EDGE_LOOP('',(#277));
#222=EDGE_LOOP('',(#278));
#223=EDGE_LOOP('',(#279));
#224=EDGE_LOOP('',(#280));
#225=EDGE_LOOP('',(#281));
#226=EDGE_LOOP('',(#282));
#227=EDGE_LOOP('',(#283));
#228=EDGE_LOOP('',(#284));
#229=EDGE_LOOP('',(#285));
#230=EDGE_LOOP('',(#286));
#231=EDGE_LOOP('',(#287));
#232=EDGE_LOOP('',(#288));
#233=EDGE_LOOP('',(#289));
#234=ORIENTED_EDGE('',*,*,#318,.T.);
#235=ORIENTED_EDGE('',*,*,#319,.T.);
#236=ORIENTED_EDGE('',*,*,#320,.T.);
#237=ORIENTED_EDGE('',*,*,#318,.F.);
#238=ORIENTED_EDGE('',*,*,#321,.T.);
#239=ORIENTED_EDGE('',*,*,#320,.F.);
#240=ORIENTED_EDGE('',*,*,#322,.T.);
#241=ORIENTED_EDGE('',*,*,#321,.F.);
#242=ORIENTED_EDGE('',*,*,#323,.T.);
#243=ORIENTED_EDGE('',*,*,#322,.F.);
#244=ORIENTED_EDGE('',*,*,#324,.T.);
#245=ORIENTED_EDGE('',*,*,#323,.F.);
#246=ORIENTED_EDGE('',*,*,#325,.T.);
#247=ORIENTED_EDGE('',*,*,#324,.F.);
#248=ORIENTED_EDGE('',*,*,#326,.T.);
#249=ORIENTED_EDGE('',*,*,#325,.F.);
#250=ORIENTED_EDGE('',*,*,#327,.T.);
#251=ORIENTED_EDGE('',*,*,#326,.F.);
#252=ORIENTED_EDGE('',*,*,#328,.T.);
#253=ORIENTED_EDGE('',*,*,#327,.F.);
#254=ORIENTED_EDGE('',*,*,#329,.T.);
#255=ORIENTED_EDGE('',*,*,#328,.F.);
#256=ORIENTED_EDGE('',*,*,#330,.T.);
#257=ORIENTED_EDGE('',*,*,#329,.F.);
#258=ORIENTED_EDGE('',*,*,#319,.F.);
#259=ORIENTED_EDGE('',*,*,#331,.T.);
#260=ORIENTED_EDGE('',*,*,#330,.F.);
#261=ORIENTED_EDGE('',*,*,#332,.T.);
#262=ORIENTED_EDGE('',*,*,#331,.F.);
#263=ORIENTED_EDGE('',*,*,#333,.T.);
#264=ORIENTED_EDGE('',*,*,#332,.F.);
#265=ORIENTED_EDGE('',*,*,#334,.T.);
#266=ORIENTED_EDGE('',*,*,#333,.F.);
#267=ORIENTED_EDGE('',*,*,#335,.T.);
#268=ORIENTED_EDGE('',*,*,#334,.F.);
#269=ORIENTED_EDGE('',*,*,#336,.T.);
#270=ORIENTED_EDGE('',*,*,#335,.F.);
#271=ORIENTED_EDGE('',*,*,#337,.T.);
#272=ORIENTED_EDGE('',*,*,#336,.F.);
#273=ORIENTED_EDGE('',*,*,#337,.F.);
#274=ORIENTED_EDGE('',*,*,#338,.T.);
#275=ORIENTED_EDGE('',*,*,#339,.F.);
#276=ORIENTED_EDGE('',*,*,#340,.F.);
#277=ORIENTED_EDGE('',*,*,#341,.F.);
#278=ORIENTED_EDGE('',*,*,#338,.F.);
#279=ORIENTED_EDGE('',*,*,#342,.T.);
#280=ORIENTED_EDGE('',*,*,#343,.T.);
#281=ORIENTED_EDGE('',*,*,#342,.F.);
#282=ORIENTED_EDGE('',*,*,#344,.T.);
#283=ORIENTED_EDGE('',*,*,#343,.F.);
#284=ORIENTED_EDGE('',*,*,#345,.T.);
#285=ORIENTED_EDGE('',*,*,#344,.F.);
#286=ORIENTED_EDGE('',*,*,#341,.T.);
#287=ORIENTED_EDGE('',*,*,#345,.F.);
#288=ORIENTED_EDGE('',*,*,#340,.T.);
#289=ORIENTED_EDGE('',*,*,#339,.T.);
#290=VERTEX_POINT('',#538);
#291=VERTEX_POINT('',#540);
#292=VERTEX_POINT('',#543);
#293=VERTEX_POINT('',#546);
#294=VERTEX_POINT('',#549);
#295=VERTEX_POINT('',#552);
#296=VERTEX_POINT('',#555);
#297=VERTEX_POINT('',#558);
#298=VERTEX_POINT('',#561);
#299=VERTEX_POINT('',#564);
#300=VERTEX_POINT('',#567);
#301=VERTEX_POINT('',#570);
#302=VERTEX_POINT('',#573);
#303=VERTEX_POINT('',#577);
#304=VERTEX_POINT('',#580);
#305=VERTEX_POINT('',#583);
#306=VERTEX_POINT('',#586);
#307=VERTEX_POINT('',#589);
#308=VERTEX_POINT('',#592);
#309=VERTEX_POINT('',#595);
#310=VERTEX_POINT('',#599);
#311=VERTEX_POINT('',#602);
#312=VERTEX_POINT('',#605);
#313=VERTEX_POINT('',#607);
#314=VERTEX_POINT('',#617);
#315=VERTEX_POINT('',#627);
#316=VERTEX_POINT('',#631);
#317=VERTEX_POINT('',#641);
#318=EDGE_CURVE('',#290,#290,#346,.T.);
#319=EDGE_CURVE('',#291,#291,#347,.T.);
#320=EDGE_CURVE('',#292,#292,#348,.T.);
#321=EDGE_CURVE('',#293,#293,#349,.T.);
#322=EDGE_CURVE('',#294,#294,#350,.T.);
#323=EDGE_CURVE('',#295,#295,#351,.T.);
#324=EDGE_CURVE('',#296,#296,#352,.T.);
#325=EDGE_CURVE('',#297,#297,#353,.T.);
#326=EDGE_CURVE('',#298,#298,#354,.T.);
#327=EDGE_CURVE('',#299,#299,#355,.T.);
#328=EDGE_CURVE('',#300,#300,#356,.T.);
#329=EDGE_CURVE('',#301,#301,#357,.T.);
#330=EDGE_CURVE('',#302,#302,#358,.T.);
#331=EDGE_CURVE('',#303,#303,#359,.T.);
#332=EDGE_CURVE('',#304,#304,#360,.T.);
#333=EDGE_CURVE('',#305,#305,#361,.T.);
#334=EDGE_CURVE('',#306,#306,#362,.T.);
#335=EDGE_CURVE('',#307,#307,#363,.T.);
#336=EDGE_CURVE('',#308,#308,#364,.T.);
#337=EDGE_CURVE('',#309,#309,#365,.T.);
#338=EDGE_CURVE('',#310,#310,#366,.T.);
#339=EDGE_CURVE('',#311,#311,#367,.T.);
#340=EDGE_CURVE('',#312,#312,#368,.T.);
#341=EDGE_CURVE('',#313,#313,#369,.T.);
#342=EDGE_CURVE('',#314,#314,#28,.T.);
#343=EDGE_CURVE('',#315,#315,#370,.T.);
#344=EDGE_CURVE('',#316,#316,#371,.T.);
#345=EDGE_CURVE('',#317,#317,#372,.T.);
#346=CIRCLE('',#374,12.2499999999998);
#347=CIRCLE('',#375,11.2499999999998);
#348=CIRCLE('',#377,12.2499999999998);
#349=CIRCLE('',#379,12.3103073792139);
#350=CIRCLE('',#381,12.5);
#351=CIRCLE('',#383,12.5);
#352=CIRCLE('',#385,12.2636296694842);
#353=CIRCLE('',#387,12.2499999999998);
#354=CIRCLE('',#389,12.2499999999998);
#355=CIRCLE('',#391,12.7056692403838);
#356=CIRCLE('',#393,13.5);
#357=CIRCLE('',#395,16.3);
#358=CIRCLE('',#397,16.9999999999999);
#359=CIRCLE('',#400,17.);
#360=CIRCLE('',#402,16.5913367026953);
#361=CIRCLE('',#404,10.6811054955078);
#362=CIRCLE('',#406,10.);
#363=CIRCLE('',#408,10.);
#364=CIRCLE('',#410,9.82850413946526);
#365=CIRCLE('',#412,9.02887209213201);
#366=CIRCLE('',#415,4.68551118575427);
#367=CIRCLE('',#417,5.10347554145334);
#368=CIRCLE('',#419,5.34967388754222);
#369=CIRCLE('',#420,10.1242200292917);
#370=CIRCLE('',#421,9.89486900527925);
#371=CIRCLE('',#422,10.300606899992);
#372=CIRCLE('',#423,10.5000023183184);
#373=AXIS2_PLACEMENT_3D('',#536,#424,#425);
#374=AXIS2_PLACEMENT_3D('',#537,#426,#427);
#375=AXIS2_PLACEMENT_3D('',#539,#428,#429);
#376=AXIS2_PLACEMENT_3D('',#541,#430,#431);
#377=AXIS2_PLACEMENT_3D('',#542,#432,#433);
#378=AXIS2_PLACEMENT_3D('',#544,#434,#435);
#379=AXIS2_PLACEMENT_3D('',#545,#436,#437);
#380=AXIS2_PLACEMENT_3D('',#547,#438,#439);
#381=AXIS2_PLACEMENT_3D('',#548,#440,#441);
#382=AXIS2_PLACEMENT_3D('',#550,#442,#443);
#383=AXIS2_PLACEMENT_3D('',#551,#444,#445);
#384=AXIS2_PLACEMENT_3D('',#553,#446,#447);
#385=AXIS2_PLACEMENT_3D('',#554,#448,#449);
#386=AXIS2_PLACEMENT_3D('',#556,#450,#451);
#387=AXIS2_PLACEMENT_3D('',#557,#452,#453);
#388=AXIS2_PLACEMENT_3D('',#559,#454,#455);
#389=AXIS2_PLACEMENT_3D('',#560,#456,#457);
#390=AXIS2_PLACEMENT_3D('',#562,#458,#459);
#391=AXIS2_PLACEMENT_3D('',#563,#460,#461);
#392=AXIS2_PLACEMENT_3D('',#565,#462,#463);
#393=AXIS2_PLACEMENT_3D('',#566,#464,#465);
#394=AXIS2_PLACEMENT_3D('',#568,#466,#467);
#395=AXIS2_PLACEMENT_3D('',#569,#468,#469);
#396=AXIS2_PLACEMENT_3D('',#571,#470,#471);
#397=AXIS2_PLACEMENT_3D('',#572,#472,#473);
#398=AXIS2_PLACEMENT_3D('',#574,#474,#475);
#399=AXIS2_PLACEMENT_3D('',#575,#476,#477);
#400=AXIS2_PLACEMENT_3D('',#576,#478,#479);
#401=AXIS2_PLACEMENT_3D('',#578,#480,#481);
#402=AXIS2_PLACEMENT_3D('',#579,#482,#483);
#403=AXIS2_PLACEMENT_3D('',#581,#484,#485);
#404=AXIS2_PLACEMENT_3D('',#582,#486,#487);
#405=AXIS2_PLACEMENT_3D('',#584,#488,#489);
#406=AXIS2_PLACEMENT_3D('',#585,#490,#491);
#407=AXIS2_PLACEMENT_3D('',#587,#492,#493);
#408=AXIS2_PLACEMENT_3D('',#588,#494,#495);
#409=AXIS2_PLACEMENT_3D('',#590,#496,#497);
#410=AXIS2_PLACEMENT_3D('',#591,#498,#499);
#411=AXIS2_PLACEMENT_3D('',#593,#500,#501);
#412=AXIS2_PLACEMENT_3D('',#594,#502,#503);
#413=AXIS2_PLACEMENT_3D('',#596,#504,#505);
#414=AXIS2_PLACEMENT_3D('',#597,#506,#507);
#415=AXIS2_PLACEMENT_3D('',#598,#508,#509);
#416=AXIS2_PLACEMENT_3D('',#600,#510,#511);
#417=AXIS2_PLACEMENT_3D('',#601,#512,#513);
#418=AXIS2_PLACEMENT_3D('',#603,#514,#515);
#419=AXIS2_PLACEMENT_3D('',#604,#516,#517);
#420=AXIS2_PLACEMENT_3D('',#606,#518,#519);
#421=AXIS2_PLACEMENT_3D('',#626,#523,#524);
#422=AXIS2_PLACEMENT_3D('',#630,#527,#528);
#423=AXIS2_PLACEMENT_3D('',#640,#530,#531);
#424=DIRECTION('',(0.,0.,1.));
#425=DIRECTION('',(1.,0.,0.));
#426=DIRECTION('',(1.,0.,0.));
#427=DIRECTION('',(0.,0.,1.));
#428=DIRECTION('',(-1.,0.,0.));
#429=DIRECTION('',(0.,0.,1.));
#430=DIRECTION('',(-1.,0.,0.));
#431=DIRECTION('',(0.,0.,1.));
#432=DIRECTION('',(1.,0.,0.));
#433=DIRECTION('',(0.,0.,1.));
#434=DIRECTION('',(-1.,0.,0.));
#435=DIRECTION('',(0.,0.,1.));
#436=DIRECTION('',(1.,0.,0.));
#437=DIRECTION('',(0.,0.,1.));
#438=DIRECTION('',(-1.,0.,0.));
#439=DIRECTION('',(0.,0.,1.));
#440=DIRECTION('',(1.,0.,0.));
#441=DIRECTION('',(0.,0.,1.));
#442=DIRECTION('',(-1.,0.,0.));
#443=DIRECTION('',(7.37629841135491E-17,0.,1.));
#444=DIRECTION('',(1.,0.,0.));
#445=DIRECTION('',(0.,0.,1.));
#446=DIRECTION('',(-1.,0.,0.));
#447=DIRECTION('',(0.,0.,1.));
#448=DIRECTION('',(1.,0.,0.));
#449=DIRECTION('',(0.,0.,1.));
#450=DIRECTION('',(1.,0.,0.));
#451=DIRECTION('',(1.97936570079049E-16,0.,-1.));
#452=DIRECTION('',(1.,0.,0.));
#453=DIRECTION('',(0.,0.,1.));
#454=DIRECTION('',(-1.,0.,0.));
#455=DIRECTION('',(0.,0.,1.));
#456=DIRECTION('',(1.,0.,0.));
#457=DIRECTION('',(0.,0.,1.));
#458=DIRECTION('',(-1.,0.,0.));
#459=DIRECTION('',(0.,0.,1.));
#460=DIRECTION('',(1.,0.,0.));
#461=DIRECTION('',(0.,0.,1.));
#462=DIRECTION('',(-1.,0.,0.));
#463=DIRECTION('',(0.,0.,1.));
#464=DIRECTION('',(1.,0.,0.));
#465=DIRECTION('',(0.,0.,1.));
#466=DIRECTION('',(1.,0.,0.));
#467=DIRECTION('',(7.78767734366012E-18,0.,-1.));
#468=DIRECTION('',(1.,0.,0.));
#469=DIRECTION('',(0.,0.,1.));
#470=DIRECTION('',(-1.,0.,0.));
#471=DIRECTION('',(0.,0.,1.));
#472=DIRECTION('',(1.,0.,0.));
#473=DIRECTION('',(0.,0.,1.));
#474=DIRECTION('',(-1.,0.,0.));
#475=DIRECTION('',(0.,0.,1.));
#476=DIRECTION('',(-1.,0.,0.));
#477=DIRECTION('',(0.,0.,1.));
#478=DIRECTION('',(1.,0.,0.));
#479=DIRECTION('',(0.,0.,1.));
#480=DIRECTION('',(-1.,0.,0.));
#481=DIRECTION('',(0.,0.,1.));
#482=DIRECTION('',(1.,0.,0.));
#483=DIRECTION('',(0.,0.,1.));
#484=DIRECTION('',(-1.,0.,0.));
#485=DIRECTION('',(0.,0.,1.));
#486=DIRECTION('',(1.,0.,0.));
#487=DIRECTION('',(0.,0.,1.));
#488=DIRECTION('',(1.,0.,0.));
#489=DIRECTION('',(-2.31325506367008E-17,0.,-1.));
#490=DIRECTION('',(1.,0.,0.));
#491=DIRECTION('',(0.,0.,1.));
#492=DIRECTION('',(-1.,0.,0.));
#493=DIRECTION('',(0.,0.,1.));
#494=DIRECTION('',(1.,0.,0.));
#495=DIRECTION('',(0.,0.,1.));
#496=DIRECTION('',(-1.,0.,0.));
#497=DIRECTION('',(0.,0.,1.));
#498=DIRECTION('',(1.,0.,0.));
#499=DIRECTION('',(0.,0.,1.));
#500=DIRECTION('',(1.,0.,0.));
#501=DIRECTION('',(-1.66779542156999E-15,0.,-1.));
#502=DIRECTION('',(1.,0.,0.));
#503=DIRECTION('',(0.,0.,-1.));
#504=DIRECTION('',(-1.,0.,0.));
#505=DIRECTION('',(0.,0.,1.));
#506=DIRECTION('',(1.,0.,0.));
#507=DIRECTION('',(0.,0.,-1.));
#508=DIRECTION('',(1.,0.,0.));
#509=DIRECTION('',(0.,0.,-1.));
#510=DIRECTION('',(1.,0.,0.));
#511=DIRECTION('',(0.,0.,-1.));
#512=DIRECTION('',(1.,0.,0.));
#513=DIRECTION('',(0.,0.,-1.));
#514=DIRECTION('',(1.,0.,0.));
#515=DIRECTION('',(0.,0.,-1.));
#516=DIRECTION('',(-1.,0.,0.));
#517=DIRECTION('',(0.,0.,-1.));
#518=DIRECTION('',(1.,0.,0.));
#519=DIRECTION('',(0.,0.,-1.));
#520=DIRECTION('',(-0.0383878090875219,0.993788849599919,-0.104451417052756));
#521=DIRECTION('',(1.,0.,0.));
#522=DIRECTION('',(1.,0.,0.));
#523=DIRECTION('',(1.,0.,0.));
#524=DIRECTION('',(0.,0.,-1.));
#525=DIRECTION('',(0.038387809087521,-0.993788849599919,0.104451417052756));
#526=DIRECTION('',(1.,0.,0.));
#527=DIRECTION('',(1.,0.,0.));
#528=DIRECTION('',(0.,0.,-1.));
#529=DIRECTION('',(1.,0.,0.));
#530=DIRECTION('',(1.,0.,0.));
#531=DIRECTION('',(0.,0.,-1.));
#532=DIRECTION('',(-0.999262916410621,-0.0381775166527563,0.00401261869213061));
#533=DIRECTION('',(1.,0.,0.));
#534=DIRECTION('',(1.,0.,0.));
#535=DIRECTION('',(1.,0.,0.));
#536=CARTESIAN_POINT('',(0.,0.,0.));
#537=CARTESIAN_POINT('',(119.,0.,0.));
#538=CARTESIAN_POINT('',(119.,0.,12.2499999999998));
#539=CARTESIAN_POINT('',(120.,0.,0.));
#540=CARTESIAN_POINT('',(120.,0.,11.2499999999998));
#541=CARTESIAN_POINT('',(119.,0.,0.));
#542=CARTESIAN_POINT('',(117.176326980708,0.,0.));
#543=CARTESIAN_POINT('',(117.176326980708,0.,12.2499999999998));
#544=CARTESIAN_POINT('',(0.,0.,0.));
#545=CARTESIAN_POINT('',(116.834306837383,0.,0.));
#546=CARTESIAN_POINT('',(116.834306837383,0.,12.3103073792139));
#547=CARTESIAN_POINT('',(117.176326980708,0.,0.));
#548=CARTESIAN_POINT('',(116.313130645136,0.,0.));
#549=CARTESIAN_POINT('',(116.313130645136,0.,12.5));
#550=CARTESIAN_POINT('',(116.834306837383,0.,0.));
#551=CARTESIAN_POINT('',(66.,0.,0.));
#552=CARTESIAN_POINT('',(66.,0.,12.5));
#553=CARTESIAN_POINT('',(0.,0.,0.));
#554=CARTESIAN_POINT('',(65.1178539171131,0.,0.));
#555=CARTESIAN_POINT('',(65.1178539171131,0.,12.2636296694842));
#556=CARTESIAN_POINT('',(66.,0.,0.));
#557=CARTESIAN_POINT('',(65.014326299072,0.,0.));
#558=CARTESIAN_POINT('',(65.014326299072,0.,12.2499999999998));
#559=CARTESIAN_POINT('',(65.014326299072,0.,0.));
#560=CARTESIAN_POINT('',(64.2844713195104,0.,0.));
#561=CARTESIAN_POINT('',(64.2844713195104,0.,12.2499999999998));
#562=CARTESIAN_POINT('',(0.,0.,0.));
#563=CARTESIAN_POINT('',(63.8883640920138,0.,0.));
#564=CARTESIAN_POINT('',(63.8883640920138,0.,12.7056692403838));
#565=CARTESIAN_POINT('',(64.2844713195104,0.,0.));
#566=CARTESIAN_POINT('',(64.,0.,0.));
#567=CARTESIAN_POINT('',(64.,0.,13.5));
#568=CARTESIAN_POINT('',(63.8883640920138,0.,0.));
#569=CARTESIAN_POINT('',(64.,0.,0.));
#570=CARTESIAN_POINT('',(64.,0.,16.3));
#571=CARTESIAN_POINT('',(64.,13.5,0.));
#572=CARTESIAN_POINT('',(63.5872983346209,0.,0.));
#573=CARTESIAN_POINT('',(63.5872983346209,0.,16.9999999999999));
#574=CARTESIAN_POINT('',(63.2,0.,0.));
#575=CARTESIAN_POINT('',(120.,17.5,0.));
#576=CARTESIAN_POINT('',(59.8110474240499,0.,0.));
#577=CARTESIAN_POINT('',(59.8110474240499,0.,17.));
#578=CARTESIAN_POINT('',(0.,0.,0.));
#579=CARTESIAN_POINT('',(58.2994343474777,0.,0.));
#580=CARTESIAN_POINT('',(58.2994343474777,0.,16.5913367026953));
#581=CARTESIAN_POINT('',(59.8110474240499,0.,0.));
#582=CARTESIAN_POINT('',(48.1676094208706,0.,0.));
#583=CARTESIAN_POINT('',(48.1676094208706,0.,10.6811054955078));
#584=CARTESIAN_POINT('',(58.2994343474777,0.,0.));
#585=CARTESIAN_POINT('',(45.6482542932502,0.,0.));
#586=CARTESIAN_POINT('',(45.6482542932502,0.,10.));
#587=CARTESIAN_POINT('',(45.6482542932502,0.,0.));
#588=CARTESIAN_POINT('',(5.,0.,0.));
#589=CARTESIAN_POINT('',(5.,0.,10.));
#590=CARTESIAN_POINT('',(0.,0.,0.));
#591=CARTESIAN_POINT('',(1.72766404375706,0.,0.));
#592=CARTESIAN_POINT('',(1.72766404375706,0.,9.82850413946526));
#593=CARTESIAN_POINT('',(5.,0.,0.));
#594=CARTESIAN_POINT('',(0.800000000000002,0.,0.));
#595=CARTESIAN_POINT('',(0.800000000000002,0.,-9.02887209213201));
#596=CARTESIAN_POINT('',(1.78,0.,0.));
#597=CARTESIAN_POINT('',(0.800000000000002,0.,0.));
#598=CARTESIAN_POINT('',(6.04098522597611,0.,0.));
#599=CARTESIAN_POINT('',(6.04098522597611,0.,-4.68551118575427));
#600=CARTESIAN_POINT('',(6.04098522597611,0.,0.));
#601=CARTESIAN_POINT('',(2.35739747514452E-6,0.,0.));
#602=CARTESIAN_POINT('',(2.35739747514452E-6,0.,-5.10347554145334));
#603=CARTESIAN_POINT('',(2.35739747514452E-6,0.,0.));
#604=CARTESIAN_POINT('',(0.0653101974849458,0.,0.));
#605=CARTESIAN_POINT('',(0.0653101974849458,0.,-5.34967388754222));
#606=CARTESIAN_POINT('',(0.250183557560542,0.,0.));
#607=CARTESIAN_POINT('',(0.250183557560542,0.,-10.1242200292917));
#608=CARTESIAN_POINT('',(0.250183557560542,-9.9308651972346,1.96919974503998));
#609=CARTESIAN_POINT('',(5.,0.,0.));
#610=CARTESIAN_POINT('',(6.04558021502979,2.16840434497101E-16,-4.73149406867099));
#611=CARTESIAN_POINT('',(6.04558021502979,9.46298813734199,-4.73149406867099));
#612=CARTESIAN_POINT('',(6.04558021502979,9.46298813734199,4.73149406867099));
#613=CARTESIAN_POINT('',(6.04558021502979,6.50521303491303E-16,4.73149406867099));
#614=CARTESIAN_POINT('',(6.04558021502979,-9.46298813734199,4.73149406867099));
#615=CARTESIAN_POINT('',(6.04558021502979,-9.46298813734199,-4.73149406867099));
#616=CARTESIAN_POINT('',(6.04558021502979,2.16840434497101E-16,-4.73149406867099));
#617=CARTESIAN_POINT('',(6.04558021502979,-4.33680868994202E-16,-4.73149406867099));
#618=CARTESIAN_POINT('',(5.63814575140052,-4.14426949472547,1.36100402893611));
#619=CARTESIAN_POINT('',(5.68950645970982,-4.14230722407119,1.36079778597961));
#620=CARTESIAN_POINT('',(5.79456539247097,-4.158406612886,1.36248989992924));
#621=CARTESIAN_POINT('',(5.92773944359462,-4.23965019497385,1.37102894449482));
#622=CARTESIAN_POINT('',(6.01940675792307,-4.36547142926551,1.38425328910523));
#623=CARTESIAN_POINT('',(6.04360713564017,-4.46841177024288,1.39507275492165));
#624=CARTESIAN_POINT('',(6.04558021502979,-4.5194911192181,1.40044141083356));
#625=CARTESIAN_POINT('',(5.,0.,0.));
#626=CARTESIAN_POINT('',(6.24576105602426,0.,0.));
#627=CARTESIAN_POINT('',(6.24576105602426,0.,-9.89486900527925));
#628=CARTESIAN_POINT('',(6.04558021502979,-4.5194911192181,1.40044141083356));
#629=CARTESIAN_POINT('',(5.,0.,0.));
#630=CARTESIAN_POINT('',(5.86847260592565,0.,0.));
#631=CARTESIAN_POINT('',(5.86847260592565,0.,-10.300606899992));
#632=CARTESIAN_POINT('',(6.24576105602427,-9.70180009731806,1.9451240328872));
#633=CARTESIAN_POINT('',(6.24773413541388,-9.75287944629329,1.95049268879911));
#634=CARTESIAN_POINT('',(6.23154606666469,-9.85736285522827,1.96147433759317));
#635=CARTESIAN_POINT('',(6.14985497221396,-9.98980736496563,1.97539481650425));
#636=CARTESIAN_POINT('',(6.02334067938879,-10.0809725161549,1.98497666000288));
#637=CARTESIAN_POINT('',(5.91983331423495,-10.1050403216707,1.98750628829615));
#638=CARTESIAN_POINT('',(5.86847260592565,-10.107002592325,1.98771253125265));
#639=CARTESIAN_POINT('',(5.,0.,0.));
#640=CARTESIAN_POINT('',(0.657618021189808,0.,0.));
#641=CARTESIAN_POINT('',(0.657618021189808,0.,-10.5000023183184));
#642=CARTESIAN_POINT('',(5.86847260592565,-10.107002592325,1.98771253125265));
#643=CARTESIAN_POINT('',(5.,0.,0.));
#644=CARTESIAN_POINT('',(0.657618021189809,-10.3060868217272,2.00863712693743));
#645=CARTESIAN_POINT('',(0.606257312880506,-10.3080490923815,2.00884336989393));
#646=CARTESIAN_POINT('',(0.501198380119359,-10.2919497035667,2.0071512559443));
#647=CARTESIAN_POINT('',(0.368024328995709,-10.2107061214789,1.99861221137872));
#648=CARTESIAN_POINT('',(0.27635701466726,-10.0848848871872,1.98538786676831));
#649=CARTESIAN_POINT('',(0.252156636950158,-9.98194454620982,1.97456840095189));
#650=CARTESIAN_POINT('',(0.250183557560542,-9.9308651972346,1.96919974503998));
#651=CARTESIAN_POINT('',(5.,0.,0.));
#652=CARTESIAN_POINT('',(0.365767470506965,5.52104072730978,0.0499999999999943));
#653=CARTESIAN_POINT('',(0.314481878575238,5.51763434205214,0.0499999999999943));
#654=CARTESIAN_POINT('',(0.21169058358988,5.49055330444328,0.0499999999999943));
#655=CARTESIAN_POINT('',(0.087785118418104,5.39538924344434,0.0499999999999943));
#656=CARTESIAN_POINT('',(0.0098443118392666,5.25998616565406,0.0499999999999943));
#657=CARTESIAN_POINT('',(-0.00340402786016192,5.15451619638342,0.0499999999999943));
#658=CARTESIAN_POINT('',(2.35739747456165E-6,5.10323060445169,0.0499999999999943));
#659=CARTESIAN_POINT('',(5.,0.,0.));
#660=(
GEOMETRIC_REPRESENTATION_CONTEXT(3)
GLOBAL_UNCERTAINTY_ASSIGNED_CONTEXT((#661))
GLOBAL_UNIT_ASSIGNED_CONTEXT((#667,#663,#662))
REPRESENTATION_CONTEXT('ATUM-20XD2-SP-060204-light',
'TOP_LEVEL_ASSEMBLY_PART')
);
#661=UNCERTAINTY_MEASURE_WITH_UNIT(LENGTH_MEASURE(0.0508),#667,
'DISTANCE_ACCURACY_VALUE','Maximum Tolerance applied to model');
#662=(
NAMED_UNIT(*)
SI_UNIT($,.STERADIAN.)
SOLID_ANGLE_UNIT()
);
#663=(
CONVERSION_BASED_UNIT('DEGREE',#665)
NAMED_UNIT(#664)
PLANE_ANGLE_UNIT()
);
#664=DIMENSIONAL_EXPONENTS(0.,0.,0.,0.,0.,0.,0.);
#665=PLANE_ANGLE_MEASURE_WITH_UNIT(PLANE_ANGLE_MEASURE(0.0174532925),#666);
#666=(
NAMED_UNIT(*)
PLANE_ANGLE_UNIT()
SI_UNIT($,.RADIAN.)
);
#667=(
LENGTH_UNIT()
NAMED_UNIT(*)
SI_UNIT(.MILLI.,.METRE.)
);
ENDSEC;
END-ISO-10303-21;
