ISO-10303-21;
HEADER;
/* Generated by software containing ST-Developer
 * from STEP Tools, Inc. (www.steptools.com) 
 */
/* OPTION: using custom schema-name function */

FILE_DESCRIPTION(
/* description */ (''),
/* implementation_level */ '2;1');

FILE_NAME(
/* name */ 'ATUM-20XD2-SPGT-060204-light.stp',
/* time_stamp */ '2023-10-05T17:58:40+03:00',
/* author */ (''),
/* organization */ (''),
/* preprocessor_version */ 'ST-DEVELOPER v19.4',
/* originating_system */ 'SIEMENS PLM Software NX2306.3001',
/* authorisation */ '');

FILE_SCHEMA (('AUTOMOTIVE_DESIGN { 1 0 10303 214 3 1 1 1 }'));
ENDSEC;

DATA;
#10=SHAPE_REPRESENTATION_RELATIONSHIP('None',
'relationship between STP_ATUM 20XD2 SPGT 060204-None and STP_ATUM 20X
D2 SPGT 060204-None',#22,#11);
#11=ADVANCED_BREP_SHAPE_REPRESENTATION(
'STP_ATUM 20XD2 SPGT 060204-None',(#62,#63),#644);
#12=SHAPE_DEFINITION_REPRESENTATION(#13,#22);
#13=PRODUCT_DEFINITION_SHAPE('','',#14);
#14=PRODUCT_DEFINITION(' ','',#16,#15);
#15=PRODUCT_DEFINITION_CONTEXT('part definition',#21,'design');
#16=PRODUCT_DEFINITION_FORMATION_WITH_SPECIFIED_SOURCE(' ',' ',#18,
 .NOT_KNOWN.);
#17=PRODUCT_RELATED_PRODUCT_CATEGORY('part','',(#18));
#18=PRODUCT('STP_ATUM 20XD2 SPGT 060204','STP_ATUM 20XD2 SPGT 060204',
' ',(#19));
#19=PRODUCT_CONTEXT(' ',#21,'mechanical');
#20=APPLICATION_PROTOCOL_DEFINITION('international standard',
'automotive_design',2010,#21);
#21=APPLICATION_CONTEXT(
'core data for automotive mechanical design processes');
#22=SHAPE_REPRESENTATION('STP_ATUM 20XD2 SPGT 060204-None',(#374),#644);
#23=DRAUGHTING_PRE_DEFINED_COLOUR('yellow');
#24=SURFACE_OF_REVOLUTION('',#38,#31);
#25=SURFACE_OF_REVOLUTION('',#39,#32);
#26=SURFACE_OF_REVOLUTION('',#369,#33);
#27=SURFACE_OF_REVOLUTION('',#40,#34);
#28=SURFACE_OF_REVOLUTION('',#371,#35);
#29=SURFACE_OF_REVOLUTION('',#373,#36);
#30=SURFACE_OF_REVOLUTION('',#41,#37);
#31=AXIS1_PLACEMENT('',#623,#526);
#32=AXIS1_PLACEMENT('',#627,#530);
#33=AXIS1_PLACEMENT('',#631,#535);
#34=AXIS1_PLACEMENT('',#635,#539);
#35=AXIS1_PLACEMENT('',#637,#542);
#36=AXIS1_PLACEMENT('',#641,#547);
#37=AXIS1_PLACEMENT('',#643,#549);
#38=LINE('',#622,#42);
#39=LINE('',#626,#43);
#40=LINE('',#634,#44);
#41=LINE('',#642,#45);
#42=VECTOR('',#525,4.76985358450675);
#43=VECTOR('',#529,4.70669953082347);
#44=VECTOR('',#538,5.2);
#45=VECTOR('',#548,5.20000000000002);
#46=PRESENTATION_LAYER_ASSIGNMENT('1','Layer 1',(#62,#63));
#47=STYLED_ITEM('',(#49),#62);
#48=STYLED_ITEM('',(#50),#63);
#49=PRESENTATION_STYLE_ASSIGNMENT((#51));
#50=PRESENTATION_STYLE_ASSIGNMENT((#52));
#51=SURFACE_STYLE_USAGE(.BOTH.,#53);
#52=SURFACE_STYLE_USAGE(.BOTH.,#54);
#53=SURFACE_SIDE_STYLE('',(#55));
#54=SURFACE_SIDE_STYLE('',(#56));
#55=SURFACE_STYLE_FILL_AREA(#57);
#56=SURFACE_STYLE_FILL_AREA(#58);
#57=FILL_AREA_STYLE('',(#59));
#58=FILL_AREA_STYLE('',(#60));
#59=FILL_AREA_STYLE_COLOUR('',#61);
#60=FILL_AREA_STYLE_COLOUR('',#23);
#61=COLOUR_RGB('smoke gray',0.694117647058824,0.694117647058824,0.694117647058824);
#62=MANIFOLD_SOLID_BREP('',#64);
#63=MANIFOLD_SOLID_BREP('',#65);
#64=CLOSED_SHELL('',(#85,#86,#87,#88,#89,#90,#91,#92,#93,#94,#95,#96,#97,
#98,#99,#100,#101,#102,#103,#104,#105));
#65=CLOSED_SHELL('',(#106,#107,#108,#109,#110,#111,#112,#113,#114));
#66=FACE_OUTER_BOUND('',#199,.T.);
#67=FACE_OUTER_BOUND('',#214,.T.);
#68=FACE_OUTER_BOUND('',#215,.T.);
#69=FACE_OUTER_BOUND('',#216,.T.);
#70=PLANE('',#397);
#71=PLANE('',#400);
#72=PLANE('',#415);
#73=PLANE('',#417);
#74=PLANE('',#419);
#75=CONICAL_SURFACE('',#383,12.3103073792139,19.9999999999999);
#76=CONICAL_SURFACE('',#387,12.5,15.0000000000004);
#77=CONICAL_SURFACE('',#395,12.705669240384,82.0000000000001);
#78=CONICAL_SURFACE('',#406,16.5913367026953,30.2564371635294);
#79=CONICAL_SURFACE('',#412,9.99999999999999,3.);
#80=CYLINDRICAL_SURFACE('',#379,12.2499999999999);
#81=CYLINDRICAL_SURFACE('',#385,12.5);
#82=CYLINDRICAL_SURFACE('',#391,12.25);
#83=CYLINDRICAL_SURFACE('',#402,17.);
#84=CYLINDRICAL_SURFACE('',#410,9.99999999999999);
#85=ADVANCED_FACE('',(#123,#124),#115,.T.);
#86=ADVANCED_FACE('',(#125,#126),#80,.T.);
#87=ADVANCED_FACE('',(#127,#128),#116,.F.);
#88=ADVANCED_FACE('',(#129,#130),#75,.T.);
#89=ADVANCED_FACE('',(#131,#132),#81,.T.);
#90=ADVANCED_FACE('',(#133,#134),#76,.T.);
#91=ADVANCED_FACE('',(#135,#136),#117,.F.);
#92=ADVANCED_FACE('',(#137,#138),#82,.T.);
#93=ADVANCED_FACE('',(#139,#140),#118,.F.);
#94=ADVANCED_FACE('',(#141,#142),#77,.F.);
#95=ADVANCED_FACE('',(#143,#144),#70,.F.);
#96=ADVANCED_FACE('',(#145,#146),#119,.T.);
#97=ADVANCED_FACE('',(#66),#71,.F.);
#98=ADVANCED_FACE('',(#147,#148),#83,.T.);
#99=ADVANCED_FACE('',(#149,#150),#120,.T.);
#100=ADVANCED_FACE('',(#151,#152),#78,.T.);
#101=ADVANCED_FACE('',(#153,#154),#121,.F.);
#102=ADVANCED_FACE('',(#155,#156),#84,.T.);
#103=ADVANCED_FACE('',(#157,#158),#79,.T.);
#104=ADVANCED_FACE('',(#159,#160),#122,.T.);
#105=ADVANCED_FACE('',(#67),#72,.F.);
#106=ADVANCED_FACE('',(#68),#73,.F.);
#107=ADVANCED_FACE('',(#69),#74,.T.);
#108=ADVANCED_FACE('',(#161,#162),#24,.T.);
#109=ADVANCED_FACE('',(#163,#164),#25,.T.);
#110=ADVANCED_FACE('',(#165,#166),#26,.T.);
#111=ADVANCED_FACE('',(#167,#168),#27,.T.);
#112=ADVANCED_FACE('',(#169,#170),#28,.T.);
#113=ADVANCED_FACE('',(#171,#172),#29,.T.);
#114=ADVANCED_FACE('',(#173,#174),#30,.T.);
#115=TOROIDAL_SURFACE('',#377,11.25,1.00000000000001);
#116=TOROIDAL_SURFACE('',#381,13.2499999999998,0.999999999999999);
#117=TOROIDAL_SURFACE('',#389,12.65,0.4);
#118=TOROIDAL_SURFACE('',#393,12.65,0.399999999999986);
#119=TOROIDAL_SURFACE('',#399,16.3,0.799999999999997);
#120=TOROIDAL_SURFACE('',#404,14.,3.);
#121=TOROIDAL_SURFACE('',#408,15.,5.);
#122=TOROIDAL_SURFACE('',#414,8.83092276029634,1.);
#123=FACE_BOUND('',#175,.T.);
#124=FACE_BOUND('',#176,.T.);
#125=FACE_BOUND('',#177,.T.);
#126=FACE_BOUND('',#178,.T.);
#127=FACE_BOUND('',#179,.T.);
#128=FACE_BOUND('',#180,.T.);
#129=FACE_BOUND('',#181,.T.);
#130=FACE_BOUND('',#182,.T.);
#131=FACE_BOUND('',#183,.T.);
#132=FACE_BOUND('',#184,.T.);
#133=FACE_BOUND('',#185,.T.);
#134=FACE_BOUND('',#186,.T.);
#135=FACE_BOUND('',#187,.T.);
#136=FACE_BOUND('',#188,.T.);
#137=FACE_BOUND('',#189,.T.);
#138=FACE_BOUND('',#190,.T.);
#139=FACE_BOUND('',#191,.T.);
#140=FACE_BOUND('',#192,.T.);
#141=FACE_BOUND('',#193,.T.);
#142=FACE_BOUND('',#194,.T.);
#143=FACE_BOUND('',#195,.T.);
#144=FACE_BOUND('',#196,.T.);
#145=FACE_BOUND('',#197,.T.);
#146=FACE_BOUND('',#198,.T.);
#147=FACE_BOUND('',#200,.T.);
#148=FACE_BOUND('',#201,.T.);
#149=FACE_BOUND('',#202,.T.);
#150=FACE_BOUND('',#203,.T.);
#151=FACE_BOUND('',#204,.T.);
#152=FACE_BOUND('',#205,.T.);
#153=FACE_BOUND('',#206,.T.);
#154=FACE_BOUND('',#207,.T.);
#155=FACE_BOUND('',#208,.T.);
#156=FACE_BOUND('',#209,.T.);
#157=FACE_BOUND('',#210,.T.);
#158=FACE_BOUND('',#211,.T.);
#159=FACE_BOUND('',#212,.T.);
#160=FACE_BOUND('',#213,.T.);
#161=FACE_BOUND('',#217,.T.);
#162=FACE_BOUND('',#218,.T.);
#163=FACE_BOUND('',#219,.T.);
#164=FACE_BOUND('',#220,.T.);
#165=FACE_BOUND('',#221,.T.);
#166=FACE_BOUND('',#222,.T.);
#167=FACE_BOUND('',#223,.T.);
#168=FACE_BOUND('',#224,.T.);
#169=FACE_BOUND('',#225,.T.);
#170=FACE_BOUND('',#226,.T.);
#171=FACE_BOUND('',#227,.T.);
#172=FACE_BOUND('',#228,.T.);
#173=FACE_BOUND('',#229,.T.);
#174=FACE_BOUND('',#230,.T.);
#175=EDGE_LOOP('',(#231));
#176=EDGE_LOOP('',(#232));
#177=EDGE_LOOP('',(#233));
#178=EDGE_LOOP('',(#234));
#179=EDGE_LOOP('',(#235));
#180=EDGE_LOOP('',(#236));
#181=EDGE_LOOP('',(#237));
#182=EDGE_LOOP('',(#238));
#183=EDGE_LOOP('',(#239));
#184=EDGE_LOOP('',(#240));
#185=EDGE_LOOP('',(#241));
#186=EDGE_LOOP('',(#242));
#187=EDGE_LOOP('',(#243));
#188=EDGE_LOOP('',(#244));
#189=EDGE_LOOP('',(#245));
#190=EDGE_LOOP('',(#246));
#191=EDGE_LOOP('',(#247));
#192=EDGE_LOOP('',(#248));
#193=EDGE_LOOP('',(#249));
#194=EDGE_LOOP('',(#250));
#195=EDGE_LOOP('',(#251));
#196=EDGE_LOOP('',(#252));
#197=EDGE_LOOP('',(#253));
#198=EDGE_LOOP('',(#254));
#199=EDGE_LOOP('',(#255));
#200=EDGE_LOOP('',(#256));
#201=EDGE_LOOP('',(#257));
#202=EDGE_LOOP('',(#258));
#203=EDGE_LOOP('',(#259));
#204=EDGE_LOOP('',(#260));
#205=EDGE_LOOP('',(#261));
#206=EDGE_LOOP('',(#262));
#207=EDGE_LOOP('',(#263));
#208=EDGE_LOOP('',(#264));
#209=EDGE_LOOP('',(#265));
#210=EDGE_LOOP('',(#266));
#211=EDGE_LOOP('',(#267));
#212=EDGE_LOOP('',(#268));
#213=EDGE_LOOP('',(#269));
#214=EDGE_LOOP('',(#270));
#215=EDGE_LOOP('',(#271));
#216=EDGE_LOOP('',(#272));
#217=EDGE_LOOP('',(#273));
#218=EDGE_LOOP('',(#274));
#219=EDGE_LOOP('',(#275));
#220=EDGE_LOOP('',(#276));
#221=EDGE_LOOP('',(#277));
#222=EDGE_LOOP('',(#278));
#223=EDGE_LOOP('',(#279));
#224=EDGE_LOOP('',(#280));
#225=EDGE_LOOP('',(#281));
#226=EDGE_LOOP('',(#282));
#227=EDGE_LOOP('',(#283));
#228=EDGE_LOOP('',(#284));
#229=EDGE_LOOP('',(#285));
#230=EDGE_LOOP('',(#286));
#231=ORIENTED_EDGE('',*,*,#315,.T.);
#232=ORIENTED_EDGE('',*,*,#316,.T.);
#233=ORIENTED_EDGE('',*,*,#317,.T.);
#234=ORIENTED_EDGE('',*,*,#315,.F.);
#235=ORIENTED_EDGE('',*,*,#318,.T.);
#236=ORIENTED_EDGE('',*,*,#317,.F.);
#237=ORIENTED_EDGE('',*,*,#319,.T.);
#238=ORIENTED_EDGE('',*,*,#318,.F.);
#239=ORIENTED_EDGE('',*,*,#320,.T.);
#240=ORIENTED_EDGE('',*,*,#319,.F.);
#241=ORIENTED_EDGE('',*,*,#321,.T.);
#242=ORIENTED_EDGE('',*,*,#320,.F.);
#243=ORIENTED_EDGE('',*,*,#322,.T.);
#244=ORIENTED_EDGE('',*,*,#321,.F.);
#245=ORIENTED_EDGE('',*,*,#323,.T.);
#246=ORIENTED_EDGE('',*,*,#322,.F.);
#247=ORIENTED_EDGE('',*,*,#324,.T.);
#248=ORIENTED_EDGE('',*,*,#323,.F.);
#249=ORIENTED_EDGE('',*,*,#325,.T.);
#250=ORIENTED_EDGE('',*,*,#324,.F.);
#251=ORIENTED_EDGE('',*,*,#326,.T.);
#252=ORIENTED_EDGE('',*,*,#325,.F.);
#253=ORIENTED_EDGE('',*,*,#327,.T.);
#254=ORIENTED_EDGE('',*,*,#326,.F.);
#255=ORIENTED_EDGE('',*,*,#316,.F.);
#256=ORIENTED_EDGE('',*,*,#328,.T.);
#257=ORIENTED_EDGE('',*,*,#327,.F.);
#258=ORIENTED_EDGE('',*,*,#329,.T.);
#259=ORIENTED_EDGE('',*,*,#328,.F.);
#260=ORIENTED_EDGE('',*,*,#330,.T.);
#261=ORIENTED_EDGE('',*,*,#329,.F.);
#262=ORIENTED_EDGE('',*,*,#331,.T.);
#263=ORIENTED_EDGE('',*,*,#330,.F.);
#264=ORIENTED_EDGE('',*,*,#332,.T.);
#265=ORIENTED_EDGE('',*,*,#331,.F.);
#266=ORIENTED_EDGE('',*,*,#333,.T.);
#267=ORIENTED_EDGE('',*,*,#332,.F.);
#268=ORIENTED_EDGE('',*,*,#334,.T.);
#269=ORIENTED_EDGE('',*,*,#333,.F.);
#270=ORIENTED_EDGE('',*,*,#334,.F.);
#271=ORIENTED_EDGE('',*,*,#335,.F.);
#272=ORIENTED_EDGE('',*,*,#336,.T.);
#273=ORIENTED_EDGE('',*,*,#337,.F.);
#274=ORIENTED_EDGE('',*,*,#338,.F.);
#275=ORIENTED_EDGE('',*,*,#339,.T.);
#276=ORIENTED_EDGE('',*,*,#336,.F.);
#277=ORIENTED_EDGE('',*,*,#340,.F.);
#278=ORIENTED_EDGE('',*,*,#337,.T.);
#279=ORIENTED_EDGE('',*,*,#341,.F.);
#280=ORIENTED_EDGE('',*,*,#340,.T.);
#281=ORIENTED_EDGE('',*,*,#339,.F.);
#282=ORIENTED_EDGE('',*,*,#341,.T.);
#283=ORIENTED_EDGE('',*,*,#342,.T.);
#284=ORIENTED_EDGE('',*,*,#338,.T.);
#285=ORIENTED_EDGE('',*,*,#342,.F.);
#286=ORIENTED_EDGE('',*,*,#335,.T.);
#287=VERTEX_POINT('',#552);
#288=VERTEX_POINT('',#554);
#289=VERTEX_POINT('',#557);
#290=VERTEX_POINT('',#560);
#291=VERTEX_POINT('',#563);
#292=VERTEX_POINT('',#566);
#293=VERTEX_POINT('',#569);
#294=VERTEX_POINT('',#572);
#295=VERTEX_POINT('',#575);
#296=VERTEX_POINT('',#578);
#297=VERTEX_POINT('',#581);
#298=VERTEX_POINT('',#584);
#299=VERTEX_POINT('',#587);
#300=VERTEX_POINT('',#591);
#301=VERTEX_POINT('',#594);
#302=VERTEX_POINT('',#597);
#303=VERTEX_POINT('',#600);
#304=VERTEX_POINT('',#603);
#305=VERTEX_POINT('',#606);
#306=VERTEX_POINT('',#609);
#307=VERTEX_POINT('',#613);
#308=VERTEX_POINT('',#616);
#309=VERTEX_POINT('',#619);
#310=VERTEX_POINT('',#621);
#311=VERTEX_POINT('',#625);
#312=VERTEX_POINT('',#629);
#313=VERTEX_POINT('',#633);
#314=VERTEX_POINT('',#639);
#315=EDGE_CURVE('',#287,#287,#343,.T.);
#316=EDGE_CURVE('',#288,#288,#344,.T.);
#317=EDGE_CURVE('',#289,#289,#345,.T.);
#318=EDGE_CURVE('',#290,#290,#346,.T.);
#319=EDGE_CURVE('',#291,#291,#347,.T.);
#320=EDGE_CURVE('',#292,#292,#348,.T.);
#321=EDGE_CURVE('',#293,#293,#349,.T.);
#322=EDGE_CURVE('',#294,#294,#350,.T.);
#323=EDGE_CURVE('',#295,#295,#351,.T.);
#324=EDGE_CURVE('',#296,#296,#352,.T.);
#325=EDGE_CURVE('',#297,#297,#353,.T.);
#326=EDGE_CURVE('',#298,#298,#354,.T.);
#327=EDGE_CURVE('',#299,#299,#355,.T.);
#328=EDGE_CURVE('',#300,#300,#356,.T.);
#329=EDGE_CURVE('',#301,#301,#357,.T.);
#330=EDGE_CURVE('',#302,#302,#358,.T.);
#331=EDGE_CURVE('',#303,#303,#359,.T.);
#332=EDGE_CURVE('',#304,#304,#360,.T.);
#333=EDGE_CURVE('',#305,#305,#361,.T.);
#334=EDGE_CURVE('',#306,#306,#362,.T.);
#335=EDGE_CURVE('',#307,#307,#363,.T.);
#336=EDGE_CURVE('',#308,#308,#364,.T.);
#337=EDGE_CURVE('',#309,#309,#365,.T.);
#338=EDGE_CURVE('',#310,#310,#366,.T.);
#339=EDGE_CURVE('',#311,#311,#367,.T.);
#340=EDGE_CURVE('',#312,#312,#368,.T.);
#341=EDGE_CURVE('',#313,#313,#370,.T.);
#342=EDGE_CURVE('',#314,#314,#372,.T.);
#343=CIRCLE('',#375,12.25);
#344=CIRCLE('',#376,11.25);
#345=CIRCLE('',#378,12.2499999999998);
#346=CIRCLE('',#380,12.3103073792139);
#347=CIRCLE('',#382,12.5);
#348=CIRCLE('',#384,12.5);
#349=CIRCLE('',#386,12.2636296694844);
#350=CIRCLE('',#388,12.25);
#351=CIRCLE('',#390,12.25);
#352=CIRCLE('',#392,12.705669240384);
#353=CIRCLE('',#394,13.5);
#354=CIRCLE('',#396,16.3);
#355=CIRCLE('',#398,17.);
#356=CIRCLE('',#401,17.);
#357=CIRCLE('',#403,16.5913367026953);
#358=CIRCLE('',#405,10.6811054955078);
#359=CIRCLE('',#407,9.99999999999999);
#360=CIRCLE('',#409,9.99999999999999);
#361=CIRCLE('',#411,9.82955229505091);
#362=CIRCLE('',#413,8.83092276029634);
#363=CIRCLE('',#416,0.0999999999999977);
#364=CIRCLE('',#418,4.97118787953491);
#365=CIRCLE('',#420,10.1430106668029);
#366=CIRCLE('',#421,5.46740475148901);
#367=CIRCLE('',#422,9.57290505085455);
#368=CIRCLE('',#423,10.4999974652013);
#369=CIRCLE('',#424,0.4);
#370=CIRCLE('',#425,10.0055782951915);
#371=CIRCLE('',#426,0.400000000000002);
#372=CIRCLE('',#427,5.16220865708191);
#373=CIRCLE('',#428,0.4);
#374=AXIS2_PLACEMENT_3D('',#550,#429,#430);
#375=AXIS2_PLACEMENT_3D('',#551,#431,#432);
#376=AXIS2_PLACEMENT_3D('',#553,#433,#434);
#377=AXIS2_PLACEMENT_3D('',#555,#435,#436);
#378=AXIS2_PLACEMENT_3D('',#556,#437,#438);
#379=AXIS2_PLACEMENT_3D('',#558,#439,#440);
#380=AXIS2_PLACEMENT_3D('',#559,#441,#442);
#381=AXIS2_PLACEMENT_3D('',#561,#443,#444);
#382=AXIS2_PLACEMENT_3D('',#562,#445,#446);
#383=AXIS2_PLACEMENT_3D('',#564,#447,#448);
#384=AXIS2_PLACEMENT_3D('',#565,#449,#450);
#385=AXIS2_PLACEMENT_3D('',#567,#451,#452);
#386=AXIS2_PLACEMENT_3D('',#568,#453,#454);
#387=AXIS2_PLACEMENT_3D('',#570,#455,#456);
#388=AXIS2_PLACEMENT_3D('',#571,#457,#458);
#389=AXIS2_PLACEMENT_3D('',#573,#459,#460);
#390=AXIS2_PLACEMENT_3D('',#574,#461,#462);
#391=AXIS2_PLACEMENT_3D('',#576,#463,#464);
#392=AXIS2_PLACEMENT_3D('',#577,#465,#466);
#393=AXIS2_PLACEMENT_3D('',#579,#467,#468);
#394=AXIS2_PLACEMENT_3D('',#580,#469,#470);
#395=AXIS2_PLACEMENT_3D('',#582,#471,#472);
#396=AXIS2_PLACEMENT_3D('',#583,#473,#474);
#397=AXIS2_PLACEMENT_3D('',#585,#475,#476);
#398=AXIS2_PLACEMENT_3D('',#586,#477,#478);
#399=AXIS2_PLACEMENT_3D('',#588,#479,#480);
#400=AXIS2_PLACEMENT_3D('',#589,#481,#482);
#401=AXIS2_PLACEMENT_3D('',#590,#483,#484);
#402=AXIS2_PLACEMENT_3D('',#592,#485,#486);
#403=AXIS2_PLACEMENT_3D('',#593,#487,#488);
#404=AXIS2_PLACEMENT_3D('',#595,#489,#490);
#405=AXIS2_PLACEMENT_3D('',#596,#491,#492);
#406=AXIS2_PLACEMENT_3D('',#598,#493,#494);
#407=AXIS2_PLACEMENT_3D('',#599,#495,#496);
#408=AXIS2_PLACEMENT_3D('',#601,#497,#498);
#409=AXIS2_PLACEMENT_3D('',#602,#499,#500);
#410=AXIS2_PLACEMENT_3D('',#604,#501,#502);
#411=AXIS2_PLACEMENT_3D('',#605,#503,#504);
#412=AXIS2_PLACEMENT_3D('',#607,#505,#506);
#413=AXIS2_PLACEMENT_3D('',#608,#507,#508);
#414=AXIS2_PLACEMENT_3D('',#610,#509,#510);
#415=AXIS2_PLACEMENT_3D('',#611,#511,#512);
#416=AXIS2_PLACEMENT_3D('',#612,#513,#514);
#417=AXIS2_PLACEMENT_3D('',#614,#515,#516);
#418=AXIS2_PLACEMENT_3D('',#615,#517,#518);
#419=AXIS2_PLACEMENT_3D('',#617,#519,#520);
#420=AXIS2_PLACEMENT_3D('',#618,#521,#522);
#421=AXIS2_PLACEMENT_3D('',#620,#523,#524);
#422=AXIS2_PLACEMENT_3D('',#624,#527,#528);
#423=AXIS2_PLACEMENT_3D('',#628,#531,#532);
#424=AXIS2_PLACEMENT_3D('',#630,#533,#534);
#425=AXIS2_PLACEMENT_3D('',#632,#536,#537);
#426=AXIS2_PLACEMENT_3D('',#636,#540,#541);
#427=AXIS2_PLACEMENT_3D('',#638,#543,#544);
#428=AXIS2_PLACEMENT_3D('',#640,#545,#546);
#429=DIRECTION('',(0.,0.,1.));
#430=DIRECTION('',(1.,0.,0.));
#431=DIRECTION('',(1.,0.,0.));
#432=DIRECTION('',(0.,0.,1.));
#433=DIRECTION('',(-1.,0.,0.));
#434=DIRECTION('',(0.,0.,1.));
#435=DIRECTION('',(-1.,0.,0.));
#436=DIRECTION('',(0.,0.,1.));
#437=DIRECTION('',(1.,0.,0.));
#438=DIRECTION('',(0.,0.,1.));
#439=DIRECTION('',(-1.,0.,0.));
#440=DIRECTION('',(0.,0.,1.));
#441=DIRECTION('',(1.,0.,0.));
#442=DIRECTION('',(0.,0.,1.));
#443=DIRECTION('',(-1.,0.,0.));
#444=DIRECTION('',(0.,0.,1.));
#445=DIRECTION('',(1.,0.,0.));
#446=DIRECTION('',(0.,0.,1.));
#447=DIRECTION('',(-1.,0.,0.));
#448=DIRECTION('',(1.47525968227101E-16,0.,1.));
#449=DIRECTION('',(1.,0.,0.));
#450=DIRECTION('',(0.,0.,1.));
#451=DIRECTION('',(-1.,0.,0.));
#452=DIRECTION('',(0.,0.,1.));
#453=DIRECTION('',(1.,0.,0.));
#454=DIRECTION('',(0.,0.,1.));
#455=DIRECTION('',(1.,0.,0.));
#456=DIRECTION('',(2.96904855118578E-16,0.,-1.));
#457=DIRECTION('',(1.,0.,0.));
#458=DIRECTION('',(0.,0.,1.));
#459=DIRECTION('',(-1.,0.,0.));
#460=DIRECTION('',(0.,0.,1.));
#461=DIRECTION('',(1.,0.,0.));
#462=DIRECTION('',(0.,0.,1.));
#463=DIRECTION('',(-1.,0.,0.));
#464=DIRECTION('',(0.,0.,1.));
#465=DIRECTION('',(1.,0.,0.));
#466=DIRECTION('',(0.,0.,1.));
#467=DIRECTION('',(-1.,0.,0.));
#468=DIRECTION('',(0.,0.,1.));
#469=DIRECTION('',(1.,0.,0.));
#470=DIRECTION('',(0.,0.,1.));
#471=DIRECTION('',(1.,0.,0.));
#472=DIRECTION('',(7.78767734366029E-18,0.,-1.));
#473=DIRECTION('',(1.,0.,0.));
#474=DIRECTION('',(0.,0.,1.));
#475=DIRECTION('',(-1.,0.,0.));
#476=DIRECTION('',(0.,0.,1.));
#477=DIRECTION('',(1.,0.,0.));
#478=DIRECTION('',(0.,0.,1.));
#479=DIRECTION('',(-1.,0.,0.));
#480=DIRECTION('',(0.,0.,1.));
#481=DIRECTION('',(-1.,0.,0.));
#482=DIRECTION('',(0.,0.,1.));
#483=DIRECTION('',(1.,0.,0.));
#484=DIRECTION('',(0.,0.,1.));
#485=DIRECTION('',(-1.,0.,0.));
#486=DIRECTION('',(0.,0.,1.));
#487=DIRECTION('',(1.,0.,0.));
#488=DIRECTION('',(0.,0.,1.));
#489=DIRECTION('',(-1.,0.,0.));
#490=DIRECTION('',(0.,0.,1.));
#491=DIRECTION('',(1.,0.,0.));
#492=DIRECTION('',(0.,0.,1.));
#493=DIRECTION('',(1.,0.,0.));
#494=DIRECTION('',(2.31325506367007E-17,0.,-1.));
#495=DIRECTION('',(1.,0.,0.));
#496=DIRECTION('',(0.,0.,1.));
#497=DIRECTION('',(-1.,0.,0.));
#498=DIRECTION('',(0.,0.,1.));
#499=DIRECTION('',(1.,0.,0.));
#500=DIRECTION('',(0.,0.,1.));
#501=DIRECTION('',(-1.,0.,0.));
#502=DIRECTION('',(0.,0.,1.));
#503=DIRECTION('',(1.,0.,0.));
#504=DIRECTION('',(0.,0.,1.));
#505=DIRECTION('',(1.,0.,0.));
#506=DIRECTION('',(-1.66779542157002E-15,0.,-1.));
#507=DIRECTION('',(1.,0.,0.));
#508=DIRECTION('',(0.,0.,1.));
#509=DIRECTION('',(-1.,0.,0.));
#510=DIRECTION('',(0.,0.,1.));
#511=DIRECTION('',(1.,0.,0.));
#512=DIRECTION('',(0.,0.,-1.));
#513=DIRECTION('',(1.,0.,0.));
#514=DIRECTION('',(0.,0.,-1.));
#515=DIRECTION('',(1.,0.,0.));
#516=DIRECTION('',(0.,0.,-1.));
#517=DIRECTION('',(1.,0.,0.));
#518=DIRECTION('',(0.,0.,-1.));
#519=DIRECTION('',(1.,0.,0.));
#520=DIRECTION('',(0.,0.,-1.));
#521=DIRECTION('',(1.,0.,0.));
#522=DIRECTION('',(0.,0.,-1.));
#523=DIRECTION('',(-1.,0.,0.));
#524=DIRECTION('',(0.,0.,-1.));
#525=DIRECTION('',(0.0958457525202249,-0.992971463256394,0.0694353287764021));
#526=DIRECTION('',(1.,0.,0.));
#527=DIRECTION('',(1.,0.,0.));
#528=DIRECTION('',(0.,0.,-1.));
#529=DIRECTION('',(-0.0958457525202247,0.992971463256394,-0.0694353287764022));
#530=DIRECTION('',(1.,0.,0.));
#531=DIRECTION('',(1.,0.,0.));
#532=DIRECTION('',(0.,0.,-1.));
#533=DIRECTION('',(1.38777878078145E-16,0.0697564737441253,0.997564050259824));
#534=DIRECTION('',(0.995396198367179,0.0956122770842758,-0.00668586171916309));
#535=DIRECTION('',(1.,0.,0.));
#536=DIRECTION('',(1.,0.,0.));
#537=DIRECTION('',(0.,0.,-1.));
#538=DIRECTION('',(0.995396198367179,0.0956122770842755,-0.00668586171916304));
#539=DIRECTION('',(1.,0.,0.));
#540=DIRECTION('',(1.38777878078145E-16,0.0697564737441253,0.997564050259824));
#541=DIRECTION('',(0.995396198367179,0.0956122770842758,-0.00668586171916309));
#542=DIRECTION('',(1.,0.,0.));
#543=DIRECTION('',(1.,0.,0.));
#544=DIRECTION('',(0.,0.,-1.));
#545=DIRECTION('',(0.,0.,-1.));
#546=DIRECTION('',(0.992546151641322,0.121869343405148,0.));
#547=DIRECTION('',(1.,0.,0.));
#548=DIRECTION('',(-0.121869343405147,0.992546151641322,0.));
#549=DIRECTION('',(1.,0.,0.));
#550=CARTESIAN_POINT('',(0.,0.,0.));
#551=CARTESIAN_POINT('',(119.,0.,0.));
#552=CARTESIAN_POINT('',(119.,0.,12.25));
#553=CARTESIAN_POINT('',(120.,0.,0.));
#554=CARTESIAN_POINT('',(120.,0.,11.25));
#555=CARTESIAN_POINT('',(119.,0.,0.));
#556=CARTESIAN_POINT('',(117.176326980709,0.,0.));
#557=CARTESIAN_POINT('',(117.176326980709,0.,12.2499999999998));
#558=CARTESIAN_POINT('',(0.,0.,0.));
#559=CARTESIAN_POINT('',(116.834306837383,0.,0.));
#560=CARTESIAN_POINT('',(116.834306837383,0.,12.3103073792139));
#561=CARTESIAN_POINT('',(117.176326980709,0.,0.));
#562=CARTESIAN_POINT('',(116.313130645136,0.,0.));
#563=CARTESIAN_POINT('',(116.313130645136,0.,12.5));
#564=CARTESIAN_POINT('',(116.834306837383,0.,0.));
#565=CARTESIAN_POINT('',(66.,0.,0.));
#566=CARTESIAN_POINT('',(66.,0.,12.5));
#567=CARTESIAN_POINT('',(0.,0.,0.));
#568=CARTESIAN_POINT('',(65.1178539171138,0.,0.));
#569=CARTESIAN_POINT('',(65.1178539171138,0.,12.2636296694844));
#570=CARTESIAN_POINT('',(66.,0.,0.));
#571=CARTESIAN_POINT('',(65.0143262990728,0.,0.));
#572=CARTESIAN_POINT('',(65.0143262990728,0.,12.25));
#573=CARTESIAN_POINT('',(65.0143262990728,0.,0.));
#574=CARTESIAN_POINT('',(64.2844713195104,0.,0.));
#575=CARTESIAN_POINT('',(64.2844713195104,0.,12.25));
#576=CARTESIAN_POINT('',(0.,0.,0.));
#577=CARTESIAN_POINT('',(63.8883640920138,0.,0.));
#578=CARTESIAN_POINT('',(63.8883640920138,0.,12.705669240384));
#579=CARTESIAN_POINT('',(64.2844713195104,0.,0.));
#580=CARTESIAN_POINT('',(64.,0.,0.));
#581=CARTESIAN_POINT('',(64.,0.,13.5));
#582=CARTESIAN_POINT('',(63.8883640920138,0.,0.));
#583=CARTESIAN_POINT('',(64.,0.,0.));
#584=CARTESIAN_POINT('',(64.,0.,16.3));
#585=CARTESIAN_POINT('',(64.,13.5,0.));
#586=CARTESIAN_POINT('',(63.5872983346207,0.,0.));
#587=CARTESIAN_POINT('',(63.5872983346207,0.,17.));
#588=CARTESIAN_POINT('',(63.2,0.,0.));
#589=CARTESIAN_POINT('',(120.,17.5,0.));
#590=CARTESIAN_POINT('',(59.8110474240499,0.,0.));
#591=CARTESIAN_POINT('',(59.8110474240499,0.,17.));
#592=CARTESIAN_POINT('',(0.,0.,0.));
#593=CARTESIAN_POINT('',(58.2994343474776,0.,0.));
#594=CARTESIAN_POINT('',(58.2994343474776,0.,16.5913367026953));
#595=CARTESIAN_POINT('',(59.8110474240499,0.,0.));
#596=CARTESIAN_POINT('',(48.1676094208706,0.,0.));
#597=CARTESIAN_POINT('',(48.1676094208706,0.,10.6811054955078));
#598=CARTESIAN_POINT('',(58.2994343474776,0.,0.));
#599=CARTESIAN_POINT('',(45.6482542932501,0.,0.));
#600=CARTESIAN_POINT('',(45.6482542932501,0.,9.99999999999999));
#601=CARTESIAN_POINT('',(45.6482542932501,0.,0.));
#602=CARTESIAN_POINT('',(5.,0.,0.));
#603=CARTESIAN_POINT('',(5.,0.,9.99999999999999));
#604=CARTESIAN_POINT('',(0.,0.,0.));
#605=CARTESIAN_POINT('',(1.74766404375706,0.,0.));
#606=CARTESIAN_POINT('',(1.74766404375706,0.,9.82955229505091));
#607=CARTESIAN_POINT('',(5.,0.,0.));
#608=CARTESIAN_POINT('',(0.799999999999998,0.,0.));
#609=CARTESIAN_POINT('',(0.799999999999998,0.,8.83092276029634));
#610=CARTESIAN_POINT('',(1.8,0.,0.));
#611=CARTESIAN_POINT('',(0.799999999999999,8.83092276029634,0.));
#612=CARTESIAN_POINT('',(0.636702125050238,0.,0.));
#613=CARTESIAN_POINT('',(0.636702125050238,0.,-0.0999999999999977));
#614=CARTESIAN_POINT('',(0.636702125050238,0.,0.));
#615=CARTESIAN_POINT('',(6.07149946554288,0.,0.));
#616=CARTESIAN_POINT('',(6.07149946554288,0.,-4.97118787953491));
#617=CARTESIAN_POINT('',(6.07149946554288,0.,0.));
#618=CARTESIAN_POINT('',(0.550239433758174,0.,0.));
#619=CARTESIAN_POINT('',(0.550239433758174,0.,-10.1430106668029));
#620=CARTESIAN_POINT('',(0.0930692275395856,0.,0.));
#621=CARTESIAN_POINT('',(0.0930692275395856,0.,-5.46740475148901));
#622=CARTESIAN_POINT('',(0.093069227539833,-5.20931981729379,1.65997040869847));
#623=CARTESIAN_POINT('',(5.,0.,0.));
#624=CARTESIAN_POINT('',(6.52261662396124,0.,0.));
#625=CARTESIAN_POINT('',(6.52261662396124,0.,-9.57290505085455));
#626=CARTESIAN_POINT('',(6.52261662396125,-9.37197464811458,1.95105159023902));
#627=CARTESIAN_POINT('',(5.,0.,0.));
#628=CARTESIAN_POINT('',(0.986736214113135,0.,0.));
#629=CARTESIAN_POINT('',(0.986736214113135,0.,-10.4999974652013));
#630=CARTESIAN_POINT('',(0.948397913105047,-9.90740339978652,1.98849241586634));
#631=CARTESIAN_POINT('',(5.,0.,0.));
#632=CARTESIAN_POINT('',(6.16279644562246,0.,0.));
#633=CARTESIAN_POINT('',(6.16279644562246,0.,-10.0055782951915));
#634=CARTESIAN_POINT('',(0.986736214113134,-10.3045919850891,2.01626654737689));
#635=CARTESIAN_POINT('',(5.,0.,0.));
#636=CARTESIAN_POINT('',(6.12445814461437,-9.41021955894829,1.95372593492669));
#637=CARTESIAN_POINT('',(5.,0.,0.));
#638=CARTESIAN_POINT('',(0.00298153934347005,0.,0.));
#639=CARTESIAN_POINT('',(0.00298153934347005,0.,-5.16220865708191));
#640=CARTESIAN_POINT('',(0.399999999999999,5.20998772589693,0.0999999999999977));
#641=CARTESIAN_POINT('',(5.,0.,0.));
#642=CARTESIAN_POINT('',(0.636702125050238,-1.3771693075811E-14,0.0999999999999977));
#643=CARTESIAN_POINT('',(5.,0.,0.));
#644=(
GEOMETRIC_REPRESENTATION_CONTEXT(3)
GLOBAL_UNCERTAINTY_ASSIGNED_CONTEXT((#645))
GLOBAL_UNIT_ASSIGNED_CONTEXT((#651,#647,#646))
REPRESENTATION_CONTEXT('ATUM-20XD2-SPGT-060204-light',
'TOP_LEVEL_ASSEMBLY_PART')
);
#645=UNCERTAINTY_MEASURE_WITH_UNIT(LENGTH_MEASURE(2.E-5),#651,
'DISTANCE_ACCURACY_VALUE','Maximum Tolerance applied to model');
#646=(
NAMED_UNIT(*)
SI_UNIT($,.STERADIAN.)
SOLID_ANGLE_UNIT()
);
#647=(
CONVERSION_BASED_UNIT('DEGREE',#649)
NAMED_UNIT(#648)
PLANE_ANGLE_UNIT()
);
#648=DIMENSIONAL_EXPONENTS(0.,0.,0.,0.,0.,0.,0.);
#649=PLANE_ANGLE_MEASURE_WITH_UNIT(PLANE_ANGLE_MEASURE(0.0174532925),#650);
#650=(
NAMED_UNIT(*)
PLANE_ANGLE_UNIT()
SI_UNIT($,.RADIAN.)
);
#651=(
LENGTH_UNIT()
NAMED_UNIT(*)
SI_UNIT(.MILLI.,.METRE.)
);
ENDSEC;
END-ISO-10303-21;
