ISO-10303-21;
HEADER;
/* Generated by software containing ST-Developer
 * from STEP Tools, Inc. (www.steptools.com) 
 */
/* OPTION: using custom schema-name function */

FILE_DESCRIPTION(
/* description */ (''),
/* implementation_level */ '2;1');

FILE_NAME(
/* name */ 'ATUM-21XD4-SPGT-050204-light.stp',
/* time_stamp */ '2023-10-05T20:23:02+03:00',
/* author */ (''),
/* organization */ (''),
/* preprocessor_version */ 'ST-DEVELOPER v19.4',
/* originating_system */ 'SIEMENS PLM Software NX2306.3001',
/* authorisation */ '');

FILE_SCHEMA (('AUTOMOTIVE_DESIGN { 1 0 10303 214 3 1 1 1 }'));
ENDSEC;

DATA;
#10=SHAPE_REPRESENTATION_RELATIONSHIP('None',
'relationship between STP_ATUM-16XD4-SPGT-060204-None and STP_ATUM-16X
D4-SPGT-060204-None',#22,#11);
#11=ADVANCED_BREP_SHAPE_REPRESENTATION(
'STP_ATUM-16XD4-SPGT-060204-None',(#65,#66),#671);
#12=SHAPE_DEFINITION_REPRESENTATION(#13,#22);
#13=PRODUCT_DEFINITION_SHAPE('','',#14);
#14=PRODUCT_DEFINITION(' ','',#16,#15);
#15=PRODUCT_DEFINITION_CONTEXT('part definition',#21,'design');
#16=PRODUCT_DEFINITION_FORMATION_WITH_SPECIFIED_SOURCE(' ',' ',#18,
 .NOT_KNOWN.);
#17=PRODUCT_RELATED_PRODUCT_CATEGORY('part','',(#18));
#18=PRODUCT('STP_ATUM-16XD4-SPGT-060204','STP_ATUM-16XD4-SPGT-060204',
' ',(#19));
#19=PRODUCT_CONTEXT(' ',#21,'mechanical');
#20=APPLICATION_PROTOCOL_DEFINITION('international standard',
'automotive_design',2010,#21);
#21=APPLICATION_CONTEXT(
'core data for automotive mechanical design processes');
#22=SHAPE_REPRESENTATION('STP_ATUM-16XD4-SPGT-060204-None',(#387),#671);
#23=DRAUGHTING_PRE_DEFINED_COLOUR('yellow');
#24=(
BOUNDED_CURVE()
B_SPLINE_CURVE(3,(#641,#642,#643,#644,#645,#646,#647),.UNSPECIFIED.,.T.,
 .F.)
B_SPLINE_CURVE_WITH_KNOTS((1,3,3,3,1),(-0.5,0.,0.5,1.,1.5),
 .UNSPECIFIED.)
CURVE()
GEOMETRIC_REPRESENTATION_ITEM()
RATIONAL_B_SPLINE_CURVE((1.,0.333333333333333,0.333333333333333,1.,0.333333333333333,
0.333333333333333,1.))
REPRESENTATION_ITEM('')
);
#25=SURFACE_OF_REVOLUTION('',#41,#33);
#26=SURFACE_OF_REVOLUTION('',#379,#34);
#27=SURFACE_OF_REVOLUTION('',#381,#35);
#28=SURFACE_OF_REVOLUTION('',#42,#36);
#29=SURFACE_OF_REVOLUTION('',#384,#37);
#30=SURFACE_OF_REVOLUTION('',#43,#38);
#31=SURFACE_OF_REVOLUTION('',#386,#39);
#32=SURFACE_OF_REVOLUTION('',#44,#40);
#33=AXIS1_PLACEMENT('',#640,#540);
#34=AXIS1_PLACEMENT('',#650,#543);
#35=AXIS1_PLACEMENT('',#654,#548);
#36=AXIS1_PLACEMENT('',#658,#552);
#37=AXIS1_PLACEMENT('',#662,#557);
#38=AXIS1_PLACEMENT('',#664,#559);
#39=AXIS1_PLACEMENT('',#668,#564);
#40=AXIS1_PLACEMENT('',#670,#566);
#41=LINE('',#639,#45);
#42=LINE('',#657,#46);
#43=LINE('',#663,#47);
#44=LINE('',#669,#48);
#45=VECTOR('',#539,4.74219676906333);
#46=VECTOR('',#551,5.2);
#47=VECTOR('',#558,5.20000000000004);
#48=VECTOR('',#565,5.2);
#49=PRESENTATION_LAYER_ASSIGNMENT('1','Layer 1',(#65,#66));
#50=STYLED_ITEM('',(#52),#65);
#51=STYLED_ITEM('',(#53),#66);
#52=PRESENTATION_STYLE_ASSIGNMENT((#54));
#53=PRESENTATION_STYLE_ASSIGNMENT((#55));
#54=SURFACE_STYLE_USAGE(.BOTH.,#56);
#55=SURFACE_STYLE_USAGE(.BOTH.,#57);
#56=SURFACE_SIDE_STYLE('',(#58));
#57=SURFACE_SIDE_STYLE('',(#59));
#58=SURFACE_STYLE_FILL_AREA(#60);
#59=SURFACE_STYLE_FILL_AREA(#61);
#60=FILL_AREA_STYLE('',(#62));
#61=FILL_AREA_STYLE('',(#63));
#62=FILL_AREA_STYLE_COLOUR('',#64);
#63=FILL_AREA_STYLE_COLOUR('',#23);
#64=COLOUR_RGB('smoke gray',0.694117647058824,0.694117647058824,0.694117647058824);
#65=MANIFOLD_SOLID_BREP('',#67);
#66=MANIFOLD_SOLID_BREP('',#68);
#67=CLOSED_SHELL('',(#88,#89,#90,#91,#92,#93,#94,#95,#96,#97,#98,#99,#100,
#101,#102,#103,#104,#105,#106,#107,#108));
#68=CLOSED_SHELL('',(#109,#110,#111,#112,#113,#114,#115,#116,#117,#118));
#69=FACE_OUTER_BOUND('',#205,.T.);
#70=FACE_OUTER_BOUND('',#220,.T.);
#71=FACE_OUTER_BOUND('',#221,.T.);
#72=FACE_OUTER_BOUND('',#222,.T.);
#73=PLANE('',#410);
#74=PLANE('',#413);
#75=PLANE('',#428);
#76=PLANE('',#430);
#77=PLANE('',#432);
#78=CONICAL_SURFACE('',#396,12.3103073792139,20.0000000000007);
#79=CONICAL_SURFACE('',#400,12.5,15.);
#80=CONICAL_SURFACE('',#408,12.7056692403838,82.0000000000012);
#81=CONICAL_SURFACE('',#419,16.5913367026953,30.2564371635293);
#82=CONICAL_SURFACE('',#425,10.,2.99999999999996);
#83=CYLINDRICAL_SURFACE('',#392,12.2499999999998);
#84=CYLINDRICAL_SURFACE('',#398,12.5);
#85=CYLINDRICAL_SURFACE('',#404,12.2499999999998);
#86=CYLINDRICAL_SURFACE('',#415,17.);
#87=CYLINDRICAL_SURFACE('',#423,10.);
#88=ADVANCED_FACE('',(#127,#128),#119,.T.);
#89=ADVANCED_FACE('',(#129,#130),#83,.T.);
#90=ADVANCED_FACE('',(#131,#132),#120,.F.);
#91=ADVANCED_FACE('',(#133,#134),#78,.T.);
#92=ADVANCED_FACE('',(#135,#136),#84,.T.);
#93=ADVANCED_FACE('',(#137,#138),#79,.T.);
#94=ADVANCED_FACE('',(#139,#140),#121,.F.);
#95=ADVANCED_FACE('',(#141,#142),#85,.T.);
#96=ADVANCED_FACE('',(#143,#144),#122,.F.);
#97=ADVANCED_FACE('',(#145,#146),#80,.F.);
#98=ADVANCED_FACE('',(#147,#148),#73,.F.);
#99=ADVANCED_FACE('',(#149,#150),#123,.T.);
#100=ADVANCED_FACE('',(#69),#74,.F.);
#101=ADVANCED_FACE('',(#151,#152),#86,.T.);
#102=ADVANCED_FACE('',(#153,#154),#124,.T.);
#103=ADVANCED_FACE('',(#155,#156),#81,.T.);
#104=ADVANCED_FACE('',(#157,#158),#125,.F.);
#105=ADVANCED_FACE('',(#159,#160),#87,.T.);
#106=ADVANCED_FACE('',(#161,#162),#82,.T.);
#107=ADVANCED_FACE('',(#163,#164),#126,.T.);
#108=ADVANCED_FACE('',(#70),#75,.F.);
#109=ADVANCED_FACE('',(#71),#76,.F.);
#110=ADVANCED_FACE('',(#72),#77,.T.);
#111=ADVANCED_FACE('',(#165,#166),#25,.T.);
#112=ADVANCED_FACE('',(#167,#168),#26,.T.);
#113=ADVANCED_FACE('',(#169,#170),#27,.T.);
#114=ADVANCED_FACE('',(#171,#172),#28,.T.);
#115=ADVANCED_FACE('',(#173,#174),#29,.T.);
#116=ADVANCED_FACE('',(#175,#176),#30,.T.);
#117=ADVANCED_FACE('',(#177,#178),#31,.T.);
#118=ADVANCED_FACE('',(#179,#180),#32,.T.);
#119=TOROIDAL_SURFACE('',#390,11.2499999999998,1.);
#120=TOROIDAL_SURFACE('',#394,13.2499999999998,1.);
#121=TOROIDAL_SURFACE('',#402,12.6499999999998,0.4);
#122=TOROIDAL_SURFACE('',#406,12.6499999999998,0.4);
#123=TOROIDAL_SURFACE('',#412,16.3,0.799999999999997);
#124=TOROIDAL_SURFACE('',#417,14.,3.);
#125=TOROIDAL_SURFACE('',#421,15.,5.);
#126=TOROIDAL_SURFACE('',#427,8.83092276029635,1.);
#127=FACE_BOUND('',#181,.T.);
#128=FACE_BOUND('',#182,.T.);
#129=FACE_BOUND('',#183,.T.);
#130=FACE_BOUND('',#184,.T.);
#131=FACE_BOUND('',#185,.T.);
#132=FACE_BOUND('',#186,.T.);
#133=FACE_BOUND('',#187,.T.);
#134=FACE_BOUND('',#188,.T.);
#135=FACE_BOUND('',#189,.T.);
#136=FACE_BOUND('',#190,.T.);
#137=FACE_BOUND('',#191,.T.);
#138=FACE_BOUND('',#192,.T.);
#139=FACE_BOUND('',#193,.T.);
#140=FACE_BOUND('',#194,.T.);
#141=FACE_BOUND('',#195,.T.);
#142=FACE_BOUND('',#196,.T.);
#143=FACE_BOUND('',#197,.T.);
#144=FACE_BOUND('',#198,.T.);
#145=FACE_BOUND('',#199,.T.);
#146=FACE_BOUND('',#200,.T.);
#147=FACE_BOUND('',#201,.T.);
#148=FACE_BOUND('',#202,.T.);
#149=FACE_BOUND('',#203,.T.);
#150=FACE_BOUND('',#204,.T.);
#151=FACE_BOUND('',#206,.T.);
#152=FACE_BOUND('',#207,.T.);
#153=FACE_BOUND('',#208,.T.);
#154=FACE_BOUND('',#209,.T.);
#155=FACE_BOUND('',#210,.T.);
#156=FACE_BOUND('',#211,.T.);
#157=FACE_BOUND('',#212,.T.);
#158=FACE_BOUND('',#213,.T.);
#159=FACE_BOUND('',#214,.T.);
#160=FACE_BOUND('',#215,.T.);
#161=FACE_BOUND('',#216,.T.);
#162=FACE_BOUND('',#217,.T.);
#163=FACE_BOUND('',#218,.T.);
#164=FACE_BOUND('',#219,.T.);
#165=FACE_BOUND('',#223,.T.);
#166=FACE_BOUND('',#224,.T.);
#167=FACE_BOUND('',#225,.T.);
#168=FACE_BOUND('',#226,.T.);
#169=FACE_BOUND('',#227,.T.);
#170=FACE_BOUND('',#228,.T.);
#171=FACE_BOUND('',#229,.T.);
#172=FACE_BOUND('',#230,.T.);
#173=FACE_BOUND('',#231,.T.);
#174=FACE_BOUND('',#232,.T.);
#175=FACE_BOUND('',#233,.T.);
#176=FACE_BOUND('',#234,.T.);
#177=FACE_BOUND('',#235,.T.);
#178=FACE_BOUND('',#236,.T.);
#179=FACE_BOUND('',#237,.T.);
#180=FACE_BOUND('',#238,.T.);
#181=EDGE_LOOP('',(#239));
#182=EDGE_LOOP('',(#240));
#183=EDGE_LOOP('',(#241));
#184=EDGE_LOOP('',(#242));
#185=EDGE_LOOP('',(#243));
#186=EDGE_LOOP('',(#244));
#187=EDGE_LOOP('',(#245));
#188=EDGE_LOOP('',(#246));
#189=EDGE_LOOP('',(#247));
#190=EDGE_LOOP('',(#248));
#191=EDGE_LOOP('',(#249));
#192=EDGE_LOOP('',(#250));
#193=EDGE_LOOP('',(#251));
#194=EDGE_LOOP('',(#252));
#195=EDGE_LOOP('',(#253));
#196=EDGE_LOOP('',(#254));
#197=EDGE_LOOP('',(#255));
#198=EDGE_LOOP('',(#256));
#199=EDGE_LOOP('',(#257));
#200=EDGE_LOOP('',(#258));
#201=EDGE_LOOP('',(#259));
#202=EDGE_LOOP('',(#260));
#203=EDGE_LOOP('',(#261));
#204=EDGE_LOOP('',(#262));
#205=EDGE_LOOP('',(#263));
#206=EDGE_LOOP('',(#264));
#207=EDGE_LOOP('',(#265));
#208=EDGE_LOOP('',(#266));
#209=EDGE_LOOP('',(#267));
#210=EDGE_LOOP('',(#268));
#211=EDGE_LOOP('',(#269));
#212=EDGE_LOOP('',(#270));
#213=EDGE_LOOP('',(#271));
#214=EDGE_LOOP('',(#272));
#215=EDGE_LOOP('',(#273));
#216=EDGE_LOOP('',(#274));
#217=EDGE_LOOP('',(#275));
#218=EDGE_LOOP('',(#276));
#219=EDGE_LOOP('',(#277));
#220=EDGE_LOOP('',(#278));
#221=EDGE_LOOP('',(#279));
#222=EDGE_LOOP('',(#280));
#223=EDGE_LOOP('',(#281));
#224=EDGE_LOOP('',(#282));
#225=EDGE_LOOP('',(#283));
#226=EDGE_LOOP('',(#284));
#227=EDGE_LOOP('',(#285));
#228=EDGE_LOOP('',(#286));
#229=EDGE_LOOP('',(#287));
#230=EDGE_LOOP('',(#288));
#231=EDGE_LOOP('',(#289));
#232=EDGE_LOOP('',(#290));
#233=EDGE_LOOP('',(#291));
#234=EDGE_LOOP('',(#292));
#235=EDGE_LOOP('',(#293));
#236=EDGE_LOOP('',(#294));
#237=EDGE_LOOP('',(#295));
#238=EDGE_LOOP('',(#296));
#239=ORIENTED_EDGE('',*,*,#326,.T.);
#240=ORIENTED_EDGE('',*,*,#327,.T.);
#241=ORIENTED_EDGE('',*,*,#328,.T.);
#242=ORIENTED_EDGE('',*,*,#326,.F.);
#243=ORIENTED_EDGE('',*,*,#329,.T.);
#244=ORIENTED_EDGE('',*,*,#328,.F.);
#245=ORIENTED_EDGE('',*,*,#330,.T.);
#246=ORIENTED_EDGE('',*,*,#329,.F.);
#247=ORIENTED_EDGE('',*,*,#331,.T.);
#248=ORIENTED_EDGE('',*,*,#330,.F.);
#249=ORIENTED_EDGE('',*,*,#332,.T.);
#250=ORIENTED_EDGE('',*,*,#331,.F.);
#251=ORIENTED_EDGE('',*,*,#333,.T.);
#252=ORIENTED_EDGE('',*,*,#332,.F.);
#253=ORIENTED_EDGE('',*,*,#334,.T.);
#254=ORIENTED_EDGE('',*,*,#333,.F.);
#255=ORIENTED_EDGE('',*,*,#335,.T.);
#256=ORIENTED_EDGE('',*,*,#334,.F.);
#257=ORIENTED_EDGE('',*,*,#336,.T.);
#258=ORIENTED_EDGE('',*,*,#335,.F.);
#259=ORIENTED_EDGE('',*,*,#337,.T.);
#260=ORIENTED_EDGE('',*,*,#336,.F.);
#261=ORIENTED_EDGE('',*,*,#338,.T.);
#262=ORIENTED_EDGE('',*,*,#337,.F.);
#263=ORIENTED_EDGE('',*,*,#327,.F.);
#264=ORIENTED_EDGE('',*,*,#339,.T.);
#265=ORIENTED_EDGE('',*,*,#338,.F.);
#266=ORIENTED_EDGE('',*,*,#340,.T.);
#267=ORIENTED_EDGE('',*,*,#339,.F.);
#268=ORIENTED_EDGE('',*,*,#341,.T.);
#269=ORIENTED_EDGE('',*,*,#340,.F.);
#270=ORIENTED_EDGE('',*,*,#342,.T.);
#271=ORIENTED_EDGE('',*,*,#341,.F.);
#272=ORIENTED_EDGE('',*,*,#343,.T.);
#273=ORIENTED_EDGE('',*,*,#342,.F.);
#274=ORIENTED_EDGE('',*,*,#344,.T.);
#275=ORIENTED_EDGE('',*,*,#343,.F.);
#276=ORIENTED_EDGE('',*,*,#345,.T.);
#277=ORIENTED_EDGE('',*,*,#344,.F.);
#278=ORIENTED_EDGE('',*,*,#345,.F.);
#279=ORIENTED_EDGE('',*,*,#346,.F.);
#280=ORIENTED_EDGE('',*,*,#347,.T.);
#281=ORIENTED_EDGE('',*,*,#348,.F.);
#282=ORIENTED_EDGE('',*,*,#349,.F.);
#283=ORIENTED_EDGE('',*,*,#350,.T.);
#284=ORIENTED_EDGE('',*,*,#347,.F.);
#285=ORIENTED_EDGE('',*,*,#351,.F.);
#286=ORIENTED_EDGE('',*,*,#348,.T.);
#287=ORIENTED_EDGE('',*,*,#352,.F.);
#288=ORIENTED_EDGE('',*,*,#351,.T.);
#289=ORIENTED_EDGE('',*,*,#353,.F.);
#290=ORIENTED_EDGE('',*,*,#352,.T.);
#291=ORIENTED_EDGE('',*,*,#350,.F.);
#292=ORIENTED_EDGE('',*,*,#353,.T.);
#293=ORIENTED_EDGE('',*,*,#354,.T.);
#294=ORIENTED_EDGE('',*,*,#349,.T.);
#295=ORIENTED_EDGE('',*,*,#354,.F.);
#296=ORIENTED_EDGE('',*,*,#346,.T.);
#297=VERTEX_POINT('',#569);
#298=VERTEX_POINT('',#571);
#299=VERTEX_POINT('',#574);
#300=VERTEX_POINT('',#577);
#301=VERTEX_POINT('',#580);
#302=VERTEX_POINT('',#583);
#303=VERTEX_POINT('',#586);
#304=VERTEX_POINT('',#589);
#305=VERTEX_POINT('',#592);
#306=VERTEX_POINT('',#595);
#307=VERTEX_POINT('',#598);
#308=VERTEX_POINT('',#601);
#309=VERTEX_POINT('',#604);
#310=VERTEX_POINT('',#608);
#311=VERTEX_POINT('',#611);
#312=VERTEX_POINT('',#614);
#313=VERTEX_POINT('',#617);
#314=VERTEX_POINT('',#620);
#315=VERTEX_POINT('',#623);
#316=VERTEX_POINT('',#626);
#317=VERTEX_POINT('',#630);
#318=VERTEX_POINT('',#633);
#319=VERTEX_POINT('',#636);
#320=VERTEX_POINT('',#638);
#321=VERTEX_POINT('',#648);
#322=VERTEX_POINT('',#652);
#323=VERTEX_POINT('',#656);
#324=VERTEX_POINT('',#660);
#325=VERTEX_POINT('',#666);
#326=EDGE_CURVE('',#297,#297,#355,.T.);
#327=EDGE_CURVE('',#298,#298,#356,.T.);
#328=EDGE_CURVE('',#299,#299,#357,.T.);
#329=EDGE_CURVE('',#300,#300,#358,.T.);
#330=EDGE_CURVE('',#301,#301,#359,.T.);
#331=EDGE_CURVE('',#302,#302,#360,.T.);
#332=EDGE_CURVE('',#303,#303,#361,.T.);
#333=EDGE_CURVE('',#304,#304,#362,.T.);
#334=EDGE_CURVE('',#305,#305,#363,.T.);
#335=EDGE_CURVE('',#306,#306,#364,.T.);
#336=EDGE_CURVE('',#307,#307,#365,.T.);
#337=EDGE_CURVE('',#308,#308,#366,.T.);
#338=EDGE_CURVE('',#309,#309,#367,.T.);
#339=EDGE_CURVE('',#310,#310,#368,.T.);
#340=EDGE_CURVE('',#311,#311,#369,.T.);
#341=EDGE_CURVE('',#312,#312,#370,.T.);
#342=EDGE_CURVE('',#313,#313,#371,.T.);
#343=EDGE_CURVE('',#314,#314,#372,.T.);
#344=EDGE_CURVE('',#315,#315,#373,.T.);
#345=EDGE_CURVE('',#316,#316,#374,.T.);
#346=EDGE_CURVE('',#317,#317,#375,.T.);
#347=EDGE_CURVE('',#318,#318,#376,.T.);
#348=EDGE_CURVE('',#319,#319,#377,.T.);
#349=EDGE_CURVE('',#320,#320,#378,.T.);
#350=EDGE_CURVE('',#321,#321,#24,.T.);
#351=EDGE_CURVE('',#322,#322,#380,.T.);
#352=EDGE_CURVE('',#323,#323,#382,.T.);
#353=EDGE_CURVE('',#324,#324,#383,.T.);
#354=EDGE_CURVE('',#325,#325,#385,.T.);
#355=CIRCLE('',#388,12.2499999999998);
#356=CIRCLE('',#389,11.2499999999998);
#357=CIRCLE('',#391,12.2499999999998);
#358=CIRCLE('',#393,12.3103073792139);
#359=CIRCLE('',#395,12.5);
#360=CIRCLE('',#397,12.5);
#361=CIRCLE('',#399,12.2636296694842);
#362=CIRCLE('',#401,12.2499999999998);
#363=CIRCLE('',#403,12.2499999999998);
#364=CIRCLE('',#405,12.7056692403838);
#365=CIRCLE('',#407,13.5);
#366=CIRCLE('',#409,16.3);
#367=CIRCLE('',#411,17.);
#368=CIRCLE('',#414,17.);
#369=CIRCLE('',#416,16.5913367026953);
#370=CIRCLE('',#418,10.6811054955078);
#371=CIRCLE('',#420,10.);
#372=CIRCLE('',#422,10.);
#373=CIRCLE('',#424,9.82955229505092);
#374=CIRCLE('',#426,8.83092276029634);
#375=CIRCLE('',#429,0.101178851545171);
#376=CIRCLE('',#431,4.72400181187742);
#377=CIRCLE('',#433,10.1175129776568);
#378=CIRCLE('',#434,5.42350932494503);
#379=CIRCLE('',#435,0.400000000000001);
#380=CIRCLE('',#436,10.4999983064556);
#381=CIRCLE('',#437,0.400000000000001);
#382=CIRCLE('',#438,10.3013328346648);
#383=CIRCLE('',#439,9.88837287226339);
#384=CIRCLE('',#440,0.4);
#385=CIRCLE('',#441,5.17413407064788);
#386=CIRCLE('',#442,0.4);
#387=AXIS2_PLACEMENT_3D('',#567,#443,#444);
#388=AXIS2_PLACEMENT_3D('',#568,#445,#446);
#389=AXIS2_PLACEMENT_3D('',#570,#447,#448);
#390=AXIS2_PLACEMENT_3D('',#572,#449,#450);
#391=AXIS2_PLACEMENT_3D('',#573,#451,#452);
#392=AXIS2_PLACEMENT_3D('',#575,#453,#454);
#393=AXIS2_PLACEMENT_3D('',#576,#455,#456);
#394=AXIS2_PLACEMENT_3D('',#578,#457,#458);
#395=AXIS2_PLACEMENT_3D('',#579,#459,#460);
#396=AXIS2_PLACEMENT_3D('',#581,#461,#462);
#397=AXIS2_PLACEMENT_3D('',#582,#463,#464);
#398=AXIS2_PLACEMENT_3D('',#584,#465,#466);
#399=AXIS2_PLACEMENT_3D('',#585,#467,#468);
#400=AXIS2_PLACEMENT_3D('',#587,#469,#470);
#401=AXIS2_PLACEMENT_3D('',#588,#471,#472);
#402=AXIS2_PLACEMENT_3D('',#590,#473,#474);
#403=AXIS2_PLACEMENT_3D('',#591,#475,#476);
#404=AXIS2_PLACEMENT_3D('',#593,#477,#478);
#405=AXIS2_PLACEMENT_3D('',#594,#479,#480);
#406=AXIS2_PLACEMENT_3D('',#596,#481,#482);
#407=AXIS2_PLACEMENT_3D('',#597,#483,#484);
#408=AXIS2_PLACEMENT_3D('',#599,#485,#486);
#409=AXIS2_PLACEMENT_3D('',#600,#487,#488);
#410=AXIS2_PLACEMENT_3D('',#602,#489,#490);
#411=AXIS2_PLACEMENT_3D('',#603,#491,#492);
#412=AXIS2_PLACEMENT_3D('',#605,#493,#494);
#413=AXIS2_PLACEMENT_3D('',#606,#495,#496);
#414=AXIS2_PLACEMENT_3D('',#607,#497,#498);
#415=AXIS2_PLACEMENT_3D('',#609,#499,#500);
#416=AXIS2_PLACEMENT_3D('',#610,#501,#502);
#417=AXIS2_PLACEMENT_3D('',#612,#503,#504);
#418=AXIS2_PLACEMENT_3D('',#613,#505,#506);
#419=AXIS2_PLACEMENT_3D('',#615,#507,#508);
#420=AXIS2_PLACEMENT_3D('',#616,#509,#510);
#421=AXIS2_PLACEMENT_3D('',#618,#511,#512);
#422=AXIS2_PLACEMENT_3D('',#619,#513,#514);
#423=AXIS2_PLACEMENT_3D('',#621,#515,#516);
#424=AXIS2_PLACEMENT_3D('',#622,#517,#518);
#425=AXIS2_PLACEMENT_3D('',#624,#519,#520);
#426=AXIS2_PLACEMENT_3D('',#625,#521,#522);
#427=AXIS2_PLACEMENT_3D('',#627,#523,#524);
#428=AXIS2_PLACEMENT_3D('',#628,#525,#526);
#429=AXIS2_PLACEMENT_3D('',#629,#527,#528);
#430=AXIS2_PLACEMENT_3D('',#631,#529,#530);
#431=AXIS2_PLACEMENT_3D('',#632,#531,#532);
#432=AXIS2_PLACEMENT_3D('',#634,#533,#534);
#433=AXIS2_PLACEMENT_3D('',#635,#535,#536);
#434=AXIS2_PLACEMENT_3D('',#637,#537,#538);
#435=AXIS2_PLACEMENT_3D('',#649,#541,#542);
#436=AXIS2_PLACEMENT_3D('',#651,#544,#545);
#437=AXIS2_PLACEMENT_3D('',#653,#546,#547);
#438=AXIS2_PLACEMENT_3D('',#655,#549,#550);
#439=AXIS2_PLACEMENT_3D('',#659,#553,#554);
#440=AXIS2_PLACEMENT_3D('',#661,#555,#556);
#441=AXIS2_PLACEMENT_3D('',#665,#560,#561);
#442=AXIS2_PLACEMENT_3D('',#667,#562,#563);
#443=DIRECTION('',(0.,0.,1.));
#444=DIRECTION('',(1.,0.,0.));
#445=DIRECTION('',(1.,0.,0.));
#446=DIRECTION('',(0.,0.,1.));
#447=DIRECTION('',(-1.,0.,0.));
#448=DIRECTION('',(0.,0.,1.));
#449=DIRECTION('',(-1.,0.,0.));
#450=DIRECTION('',(0.,0.,1.));
#451=DIRECTION('',(1.,0.,0.));
#452=DIRECTION('',(0.,0.,1.));
#453=DIRECTION('',(-1.,0.,0.));
#454=DIRECTION('',(0.,0.,1.));
#455=DIRECTION('',(1.,0.,0.));
#456=DIRECTION('',(0.,0.,1.));
#457=DIRECTION('',(-1.,0.,0.));
#458=DIRECTION('',(0.,0.,1.));
#459=DIRECTION('',(1.,0.,0.));
#460=DIRECTION('',(0.,0.,1.));
#461=DIRECTION('',(-1.,0.,0.));
#462=DIRECTION('',(0.,0.,1.));
#463=DIRECTION('',(1.,0.,0.));
#464=DIRECTION('',(0.,0.,1.));
#465=DIRECTION('',(-1.,0.,0.));
#466=DIRECTION('',(0.,0.,1.));
#467=DIRECTION('',(1.,0.,0.));
#468=DIRECTION('',(0.,0.,1.));
#469=DIRECTION('',(1.,0.,0.));
#470=DIRECTION('',(3.46388997638349E-16,0.,-1.));
#471=DIRECTION('',(1.,0.,0.));
#472=DIRECTION('',(0.,0.,1.));
#473=DIRECTION('',(-1.,0.,0.));
#474=DIRECTION('',(0.,0.,1.));
#475=DIRECTION('',(1.,0.,0.));
#476=DIRECTION('',(0.,0.,1.));
#477=DIRECTION('',(-1.,0.,0.));
#478=DIRECTION('',(0.,0.,1.));
#479=DIRECTION('',(1.,0.,0.));
#480=DIRECTION('',(0.,0.,1.));
#481=DIRECTION('',(-1.,0.,0.));
#482=DIRECTION('',(0.,0.,1.));
#483=DIRECTION('',(1.,0.,0.));
#484=DIRECTION('',(0.,0.,1.));
#485=DIRECTION('',(1.,0.,0.));
#486=DIRECTION('',(1.16815160154887E-17,0.,-1.));
#487=DIRECTION('',(1.,0.,0.));
#488=DIRECTION('',(0.,0.,1.));
#489=DIRECTION('',(-1.,0.,0.));
#490=DIRECTION('',(0.,0.,1.));
#491=DIRECTION('',(1.,0.,0.));
#492=DIRECTION('',(0.,0.,1.));
#493=DIRECTION('',(-1.,0.,0.));
#494=DIRECTION('',(0.,0.,1.));
#495=DIRECTION('',(-1.,0.,0.));
#496=DIRECTION('',(0.,0.,1.));
#497=DIRECTION('',(1.,0.,0.));
#498=DIRECTION('',(0.,0.,1.));
#499=DIRECTION('',(-1.,0.,0.));
#500=DIRECTION('',(0.,0.,1.));
#501=DIRECTION('',(1.,0.,0.));
#502=DIRECTION('',(0.,0.,1.));
#503=DIRECTION('',(-1.,0.,0.));
#504=DIRECTION('',(0.,0.,1.));
#505=DIRECTION('',(1.,0.,0.));
#506=DIRECTION('',(0.,0.,1.));
#507=DIRECTION('',(1.,0.,0.));
#508=DIRECTION('',(4.62651012734016E-17,0.,-1.));
#509=DIRECTION('',(1.,0.,0.));
#510=DIRECTION('',(0.,0.,1.));
#511=DIRECTION('',(-1.,0.,0.));
#512=DIRECTION('',(0.,0.,1.));
#513=DIRECTION('',(1.,0.,0.));
#514=DIRECTION('',(0.,0.,1.));
#515=DIRECTION('',(-1.,0.,0.));
#516=DIRECTION('',(0.,0.,1.));
#517=DIRECTION('',(1.,0.,0.));
#518=DIRECTION('',(0.,0.,1.));
#519=DIRECTION('',(1.,0.,0.));
#520=DIRECTION('',(-1.77898178300804E-15,0.,-1.));
#521=DIRECTION('',(1.,0.,0.));
#522=DIRECTION('',(0.,0.,1.));
#523=DIRECTION('',(-1.,0.,0.));
#524=DIRECTION('',(0.,0.,1.));
#525=DIRECTION('',(1.,0.,0.));
#526=DIRECTION('',(0.,0.,-1.));
#527=DIRECTION('',(1.,0.,0.));
#528=DIRECTION('',(0.,0.,-1.));
#529=DIRECTION('',(1.,0.,0.));
#530=DIRECTION('',(0.,0.,-1.));
#531=DIRECTION('',(1.,0.,0.));
#532=DIRECTION('',(0.,0.,-1.));
#533=DIRECTION('',(1.,0.,0.));
#534=DIRECTION('',(0.,0.,-1.));
#535=DIRECTION('',(1.,0.,0.));
#536=DIRECTION('',(0.,0.,-1.));
#537=DIRECTION('',(-1.,0.,0.));
#538=DIRECTION('',(0.,0.,-1.));
#539=DIRECTION('',(0.0383878090875199,-0.993788849599919,0.104451417052756));
#540=DIRECTION('',(1.,0.,0.));
#541=DIRECTION('',(5.55111512312578E-17,0.104528463267653,0.994521895368273));
#542=DIRECTION('',(0.999262916410621,0.038177516652756,-0.00401261869213057));
#543=DIRECTION('',(1.,0.,0.));
#544=DIRECTION('',(1.,0.,0.));
#545=DIRECTION('',(0.,0.,-1.));
#546=DIRECTION('',(5.55111512312578E-17,0.104528463267653,0.994521895368273));
#547=DIRECTION('',(0.999262916410621,0.038177516652756,-0.00401261869213057));
#548=DIRECTION('',(1.,0.,0.));
#549=DIRECTION('',(1.,0.,0.));
#550=DIRECTION('',(0.,0.,-1.));
#551=DIRECTION('',(0.999262916410621,0.038177516652755,-0.00401261869213063));
#552=DIRECTION('',(1.,0.,0.));
#553=DIRECTION('',(1.,0.,0.));
#554=DIRECTION('',(0.,0.,-1.));
#555=DIRECTION('',(5.55111512312578E-17,0.104528463267653,0.994521895368273));
#556=DIRECTION('',(0.999262916410621,0.038177516652756,-0.00401261869213057));
#557=DIRECTION('',(1.,0.,0.));
#558=DIRECTION('',(-0.0383878090875193,0.993788849599919,-0.104451417052756));
#559=DIRECTION('',(1.,0.,0.));
#560=DIRECTION('',(1.,0.,0.));
#561=DIRECTION('',(0.,0.,-1.));
#562=DIRECTION('',(0.,0.,-1.));
#563=DIRECTION('',(0.99780146829205,0.0662739004000023,0.));
#564=DIRECTION('',(1.,0.,0.));
#565=DIRECTION('',(-0.0662739003999998,0.99780146829205,0.));
#566=DIRECTION('',(1.,0.,0.));
#567=CARTESIAN_POINT('',(0.,0.,0.));
#568=CARTESIAN_POINT('',(161.,0.,0.));
#569=CARTESIAN_POINT('',(161.,0.,12.2499999999998));
#570=CARTESIAN_POINT('',(162.,0.,0.));
#571=CARTESIAN_POINT('',(162.,0.,11.2499999999998));
#572=CARTESIAN_POINT('',(161.,0.,0.));
#573=CARTESIAN_POINT('',(159.176326980709,0.,0.));
#574=CARTESIAN_POINT('',(159.176326980709,0.,12.2499999999998));
#575=CARTESIAN_POINT('',(0.,0.,0.));
#576=CARTESIAN_POINT('',(158.834306837383,0.,0.));
#577=CARTESIAN_POINT('',(158.834306837383,0.,12.3103073792139));
#578=CARTESIAN_POINT('',(159.176326980709,0.,0.));
#579=CARTESIAN_POINT('',(158.313130645136,0.,0.));
#580=CARTESIAN_POINT('',(158.313130645136,0.,12.5));
#581=CARTESIAN_POINT('',(158.834306837383,0.,0.));
#582=CARTESIAN_POINT('',(108.,0.,0.));
#583=CARTESIAN_POINT('',(108.,0.,12.5));
#584=CARTESIAN_POINT('',(0.,0.,0.));
#585=CARTESIAN_POINT('',(107.117853917113,0.,0.));
#586=CARTESIAN_POINT('',(107.117853917113,0.,12.2636296694842));
#587=CARTESIAN_POINT('',(108.,0.,0.));
#588=CARTESIAN_POINT('',(107.014326299072,0.,0.));
#589=CARTESIAN_POINT('',(107.014326299072,0.,12.2499999999998));
#590=CARTESIAN_POINT('',(107.014326299072,0.,0.));
#591=CARTESIAN_POINT('',(106.28447131951,0.,0.));
#592=CARTESIAN_POINT('',(106.28447131951,0.,12.2499999999998));
#593=CARTESIAN_POINT('',(0.,0.,0.));
#594=CARTESIAN_POINT('',(105.888364092014,0.,0.));
#595=CARTESIAN_POINT('',(105.888364092014,0.,12.7056692403838));
#596=CARTESIAN_POINT('',(106.28447131951,0.,0.));
#597=CARTESIAN_POINT('',(106.,0.,0.));
#598=CARTESIAN_POINT('',(106.,0.,13.5));
#599=CARTESIAN_POINT('',(105.888364092014,0.,0.));
#600=CARTESIAN_POINT('',(106.,0.,0.));
#601=CARTESIAN_POINT('',(106.,0.,16.3));
#602=CARTESIAN_POINT('',(106.,13.5,0.));
#603=CARTESIAN_POINT('',(105.587298334621,0.,0.));
#604=CARTESIAN_POINT('',(105.587298334621,0.,17.));
#605=CARTESIAN_POINT('',(105.2,0.,0.));
#606=CARTESIAN_POINT('',(162.,17.5,0.));
#607=CARTESIAN_POINT('',(101.81104742405,0.,0.));
#608=CARTESIAN_POINT('',(101.81104742405,0.,17.));
#609=CARTESIAN_POINT('',(0.,0.,0.));
#610=CARTESIAN_POINT('',(100.299434347478,0.,0.));
#611=CARTESIAN_POINT('',(100.299434347478,0.,16.5913367026953));
#612=CARTESIAN_POINT('',(101.81104742405,0.,0.));
#613=CARTESIAN_POINT('',(90.1676094208706,0.,0.));
#614=CARTESIAN_POINT('',(90.1676094208706,0.,10.6811054955078));
#615=CARTESIAN_POINT('',(100.299434347478,0.,0.));
#616=CARTESIAN_POINT('',(87.6482542932501,0.,0.));
#617=CARTESIAN_POINT('',(87.6482542932501,0.,10.));
#618=CARTESIAN_POINT('',(87.6482542932501,0.,0.));
#619=CARTESIAN_POINT('',(5.,0.,0.));
#620=CARTESIAN_POINT('',(5.,0.,10.));
#621=CARTESIAN_POINT('',(0.,0.,0.));
#622=CARTESIAN_POINT('',(1.74766404375706,0.,0.));
#623=CARTESIAN_POINT('',(1.74766404375706,0.,9.82955229505092));
#624=CARTESIAN_POINT('',(5.,0.,0.));
#625=CARTESIAN_POINT('',(0.799999999999998,0.,0.));
#626=CARTESIAN_POINT('',(0.799999999999998,0.,8.83092276029634));
#627=CARTESIAN_POINT('',(1.8,0.,0.));
#628=CARTESIAN_POINT('',(0.799999999999999,8.83092276029634,0.));
#629=CARTESIAN_POINT('',(0.345503694763183,0.,0.));
#630=CARTESIAN_POINT('',(0.345503694763183,0.,-0.101178851545171));
#631=CARTESIAN_POINT('',(0.345503694763183,0.,0.));
#632=CARTESIAN_POINT('',(6.04400353750955,0.,0.));
#633=CARTESIAN_POINT('',(6.04400353750955,0.,-4.72400181187742));
#634=CARTESIAN_POINT('',(6.04400353750955,0.,0.));
#635=CARTESIAN_POINT('',(0.249911440690863,0.,0.));
#636=CARTESIAN_POINT('',(0.249911440690863,0.,-10.1175129776568));
#637=CARTESIAN_POINT('',(0.0678688964645454,0.,0.));
#638=CARTESIAN_POINT('',(0.0678688964645454,0.,-5.42350932494503));
#639=CARTESIAN_POINT('',(0.0678688964646064,-5.1926811509676,1.56541236169626));
#640=CARTESIAN_POINT('',(1.74766404375706,0.,0.));
#641=CARTESIAN_POINT('',(6.0458723318995,-8.67361737988404E-16,-4.74958725002514));
#642=CARTESIAN_POINT('',(6.0458723318995,9.49917450005028,-4.74958725002514));
#643=CARTESIAN_POINT('',(6.0458723318995,9.49917450005028,4.74958725002514));
#644=CARTESIAN_POINT('',(6.0458723318995,1.95156391047391E-15,4.74958725002514));
#645=CARTESIAN_POINT('',(6.0458723318995,-9.49917450005028,4.74958725002515));
#646=CARTESIAN_POINT('',(6.0458723318995,-9.49917450005028,-4.74958725002514));
#647=CARTESIAN_POINT('',(6.0458723318995,-8.67361737988404E-16,-4.74958725002514));
#648=CARTESIAN_POINT('',(6.0458723318995,0.,-4.74958725002514));
#649=CARTESIAN_POINT('',(5.64616716533525,-4.5239273114965,1.49512350081767));
#650=CARTESIAN_POINT('',(1.74766404375706,0.,0.));
#651=CARTESIAN_POINT('',(0.664971730890135,0.,0.));
#652=CARTESIAN_POINT('',(0.664971730890135,0.,-10.4999983064556));
#653=CARTESIAN_POINT('',(0.64961660725513,-9.89015241601044,2.05913648669108));
#654=CARTESIAN_POINT('',(1.74766404375706,0.,0.));
#655=CARTESIAN_POINT('',(5.86113889622536,0.,0.));
#656=CARTESIAN_POINT('',(5.86113889622536,0.,-10.3013328346648));
#657=CARTESIAN_POINT('',(0.664971730890134,-10.2876679558504,2.10091705351218));
#658=CARTESIAN_POINT('',(1.74766404375706,0.,0.));
#659=CARTESIAN_POINT('',(6.24548893915462,0.,0.));
#660=CARTESIAN_POINT('',(6.24548893915462,0.,-9.88837287226339));
#661=CARTESIAN_POINT('',(5.84578377259037,-9.6916293294161,2.038270869492));
#662=CARTESIAN_POINT('',(1.74766404375706,0.,0.));
#663=CARTESIAN_POINT('',(6.24548893915461,-9.676358322755,2.03666582201515));
#664=CARTESIAN_POINT('',(1.74766404375706,0.,0.));
#665=CARTESIAN_POINT('',(0.000879412683184137,0.,0.));
#666=CARTESIAN_POINT('',(0.000879412683184137,0.,-5.17413407064788));
#667=CARTESIAN_POINT('',(0.399999999999992,5.19967719527867,0.0999999999999981));
#668=CARTESIAN_POINT('',(5.,0.,0.));
#669=CARTESIAN_POINT('',(0.345503694763183,-0.0154000000000053,0.0999999999999981));
#670=CARTESIAN_POINT('',(5.,0.,0.));
#671=(
GEOMETRIC_REPRESENTATION_CONTEXT(3)
GLOBAL_UNCERTAINTY_ASSIGNED_CONTEXT((#672))
GLOBAL_UNIT_ASSIGNED_CONTEXT((#678,#674,#673))
REPRESENTATION_CONTEXT('ATUM-21XD4-SPGT-050204-light',
'TOP_LEVEL_ASSEMBLY_PART')
);
#672=UNCERTAINTY_MEASURE_WITH_UNIT(LENGTH_MEASURE(0.0508),#678,
'DISTANCE_ACCURACY_VALUE','Maximum Tolerance applied to model');
#673=(
NAMED_UNIT(*)
SI_UNIT($,.STERADIAN.)
SOLID_ANGLE_UNIT()
);
#674=(
CONVERSION_BASED_UNIT('DEGREE',#676)
NAMED_UNIT(#675)
PLANE_ANGLE_UNIT()
);
#675=DIMENSIONAL_EXPONENTS(0.,0.,0.,0.,0.,0.,0.);
#676=PLANE_ANGLE_MEASURE_WITH_UNIT(PLANE_ANGLE_MEASURE(0.0174532925),#677);
#677=(
NAMED_UNIT(*)
PLANE_ANGLE_UNIT()
SI_UNIT($,.RADIAN.)
);
#678=(
LENGTH_UNIT()
NAMED_UNIT(*)
SI_UNIT(.MILLI.,.METRE.)
);
ENDSEC;
END-ISO-10303-21;
