ISO-10303-21;
HEADER;
/* Generated by software containing ST-Developer
 * from STEP Tools, Inc. (www.steptools.com) 
 */
/* OPTION: using custom schema-name function */

FILE_DESCRIPTION(
/* description */ (''),
/* implementation_level */ '2;1');

FILE_NAME(
/* name */ 'ATUM-26XD3-SP-07T308-32-light.stp',
/* time_stamp */ '2023-10-19T19:00:30+03:00',
/* author */ (''),
/* organization */ (''),
/* preprocessor_version */ 'ST-DEVELOPER v19.4',
/* originating_system */ 'SIEMENS PLM Software NX2306.3001',
/* authorisation */ '');

FILE_SCHEMA (('AUTOMOTIVE_DESIGN { 1 0 10303 214 3 1 1 1 }'));
ENDSEC;

DATA;
#10=SHAPE_REPRESENTATION_RELATIONSHIP('None',
'relationship between STP_ATUM 23XD3 SP.. 07T308-32-None and STP_ATUM 
23XD3 SP.. 07T308-32-None',#22,#11);
#11=ADVANCED_BREP_SHAPE_REPRESENTATION(
'STP_ATUM 23XD3 SP.. 07T308-32-None',(#65,#66),#653);
#12=SHAPE_DEFINITION_REPRESENTATION(#13,#22);
#13=PRODUCT_DEFINITION_SHAPE('','',#14);
#14=PRODUCT_DEFINITION(' ','',#16,#15);
#15=PRODUCT_DEFINITION_CONTEXT('part definition',#21,'design');
#16=PRODUCT_DEFINITION_FORMATION_WITH_SPECIFIED_SOURCE(' ',' ',#18,
 .NOT_KNOWN.);
#17=PRODUCT_RELATED_PRODUCT_CATEGORY('part','',(#18));
#18=PRODUCT('STP_ATUM 23XD3 SP.. 07T308-32',
'STP_ATUM 23XD3 SP.. 07T308-32',' ',(#19));
#19=PRODUCT_CONTEXT(' ',#21,'mechanical');
#20=APPLICATION_PROTOCOL_DEFINITION('international standard',
'automotive_design',2010,#21);
#21=APPLICATION_CONTEXT(
'core data for automotive mechanical design processes');
#22=SHAPE_REPRESENTATION('STP_ATUM 23XD3 SP.. 07T308-32-None',(#374),#653);
#23=DRAUGHTING_PRE_DEFINED_COLOUR('yellow');
#24=B_SPLINE_CURVE_WITH_KNOTS('',3,(#621,#622,#623,#624,#625,#626,#627),
 .UNSPECIFIED.,.F.,.F.,(4,1,1,1,4),(0.,0.25,0.5,0.75,1.),.UNSPECIFIED.);
#25=B_SPLINE_CURVE_WITH_KNOTS('',3,(#633,#634,#635,#636,#637,#638,#639),
 .UNSPECIFIED.,.F.,.F.,(4,1,1,1,4),(0.,0.25,0.5,0.75,1.),.UNSPECIFIED.);
#26=B_SPLINE_CURVE_WITH_KNOTS('',3,(#645,#646,#647,#648,#649,#650,#651),
 .UNSPECIFIED.,.F.,.F.,(4,1,1,1,4),(0.,0.25,0.5,0.75,1.),.UNSPECIFIED.);
#27=SURFACE_OF_REVOLUTION('',#41,#34);
#28=SURFACE_OF_REVOLUTION('',#42,#35);
#29=SURFACE_OF_REVOLUTION('',#24,#36);
#30=SURFACE_OF_REVOLUTION('',#43,#37);
#31=SURFACE_OF_REVOLUTION('',#25,#38);
#32=SURFACE_OF_REVOLUTION('',#44,#39);
#33=SURFACE_OF_REVOLUTION('',#26,#40);
#34=AXIS1_PLACEMENT('',#614,#523);
#35=AXIS1_PLACEMENT('',#618,#527);
#36=AXIS1_PLACEMENT('',#628,#530);
#37=AXIS1_PLACEMENT('',#632,#534);
#38=AXIS1_PLACEMENT('',#640,#535);
#39=AXIS1_PLACEMENT('',#644,#539);
#40=AXIS1_PLACEMENT('',#652,#540);
#41=LINE('',#613,#45);
#42=LINE('',#617,#46);
#43=LINE('',#631,#47);
#44=LINE('',#643,#48);
#45=VECTOR('',#522,5.53359429233714);
#46=VECTOR('',#526,5.69845158379427);
#47=VECTOR('',#533,6.37496383882591);
#48=VECTOR('',#538,6.3749638388259);
#49=PRESENTATION_LAYER_ASSIGNMENT('1','Layer 1',(#65,#66));
#50=STYLED_ITEM('',(#52),#65);
#51=STYLED_ITEM('',(#53),#66);
#52=PRESENTATION_STYLE_ASSIGNMENT((#54));
#53=PRESENTATION_STYLE_ASSIGNMENT((#55));
#54=SURFACE_STYLE_USAGE(.BOTH.,#56);
#55=SURFACE_STYLE_USAGE(.BOTH.,#57);
#56=SURFACE_SIDE_STYLE('',(#58));
#57=SURFACE_SIDE_STYLE('',(#59));
#58=SURFACE_STYLE_FILL_AREA(#60);
#59=SURFACE_STYLE_FILL_AREA(#61);
#60=FILL_AREA_STYLE('',(#62));
#61=FILL_AREA_STYLE('',(#63));
#62=FILL_AREA_STYLE_COLOUR('',#64);
#63=FILL_AREA_STYLE_COLOUR('',#23);
#64=COLOUR_RGB('smoke gray',0.694117647058824,0.694117647058824,0.694117647058824);
#65=MANIFOLD_SOLID_BREP('',#67);
#66=MANIFOLD_SOLID_BREP('',#68);
#67=CLOSED_SHELL('',(#88,#89,#90,#91,#92,#93,#94,#95,#96,#97,#98,#99,#100,
#101,#102,#103,#104,#105,#106,#107,#108));
#68=CLOSED_SHELL('',(#109,#110,#111,#112,#113,#114,#115,#116,#117));
#69=FACE_OUTER_BOUND('',#202,.T.);
#70=FACE_OUTER_BOUND('',#217,.T.);
#71=FACE_OUTER_BOUND('',#218,.T.);
#72=FACE_OUTER_BOUND('',#219,.T.);
#73=PLANE('',#397);
#74=PLANE('',#400);
#75=PLANE('',#415);
#76=PLANE('',#417);
#77=PLANE('',#419);
#78=CONICAL_SURFACE('',#383,15.8103073792144,19.9999999962345);
#79=CONICAL_SURFACE('',#387,16.,14.9999999999956);
#80=CONICAL_SURFACE('',#395,16.205669240384,82.0000000000198);
#81=CONICAL_SURFACE('',#406,21.6188304464118,29.1974860460645);
#82=CONICAL_SURFACE('',#412,12.5,3.00000000000003);
#83=CYLINDRICAL_SURFACE('',#379,15.7500000000001);
#84=CYLINDRICAL_SURFACE('',#385,15.999999999983);
#85=CYLINDRICAL_SURFACE('',#391,15.7500000000003);
#86=CYLINDRICAL_SURFACE('',#402,22.);
#87=CYLINDRICAL_SURFACE('',#410,12.5);
#88=ADVANCED_FACE('',(#126,#127),#118,.T.);
#89=ADVANCED_FACE('',(#128,#129),#83,.T.);
#90=ADVANCED_FACE('',(#130,#131),#119,.F.);
#91=ADVANCED_FACE('',(#132,#133),#78,.T.);
#92=ADVANCED_FACE('',(#134,#135),#84,.T.);
#93=ADVANCED_FACE('',(#136,#137),#79,.T.);
#94=ADVANCED_FACE('',(#138,#139),#120,.F.);
#95=ADVANCED_FACE('',(#140,#141),#85,.T.);
#96=ADVANCED_FACE('',(#142,#143),#121,.F.);
#97=ADVANCED_FACE('',(#144,#145),#80,.F.);
#98=ADVANCED_FACE('',(#146,#147),#73,.F.);
#99=ADVANCED_FACE('',(#148,#149),#122,.T.);
#100=ADVANCED_FACE('',(#69),#74,.F.);
#101=ADVANCED_FACE('',(#150,#151),#86,.T.);
#102=ADVANCED_FACE('',(#152,#153),#123,.T.);
#103=ADVANCED_FACE('',(#154,#155),#81,.T.);
#104=ADVANCED_FACE('',(#156,#157),#124,.F.);
#105=ADVANCED_FACE('',(#158,#159),#87,.T.);
#106=ADVANCED_FACE('',(#160,#161),#82,.T.);
#107=ADVANCED_FACE('',(#162,#163),#125,.T.);
#108=ADVANCED_FACE('',(#70),#75,.F.);
#109=ADVANCED_FACE('',(#71),#76,.F.);
#110=ADVANCED_FACE('',(#72),#77,.T.);
#111=ADVANCED_FACE('',(#164,#165),#27,.F.);
#112=ADVANCED_FACE('',(#166,#167),#28,.F.);
#113=ADVANCED_FACE('',(#168,#169),#29,.F.);
#114=ADVANCED_FACE('',(#170,#171),#30,.F.);
#115=ADVANCED_FACE('',(#172,#173),#31,.F.);
#116=ADVANCED_FACE('',(#174,#175),#32,.F.);
#117=ADVANCED_FACE('',(#176,#177),#33,.F.);
#118=TOROIDAL_SURFACE('',#377,14.7500000000001,0.999999999999972);
#119=TOROIDAL_SURFACE('',#381,16.7500000000001,1.00000000000011);
#120=TOROIDAL_SURFACE('',#389,16.1500000000003,0.4);
#121=TOROIDAL_SURFACE('',#393,16.1500000000001,0.400000000000015);
#122=TOROIDAL_SURFACE('',#399,21.3000000000001,0.799999999999997);
#123=TOROIDAL_SURFACE('',#404,19.,3.);
#124=TOROIDAL_SURFACE('',#408,17.5,5.);
#125=TOROIDAL_SURFACE('',#414,11.1164981906903,1.2);
#126=FACE_BOUND('',#178,.T.);
#127=FACE_BOUND('',#179,.T.);
#128=FACE_BOUND('',#180,.T.);
#129=FACE_BOUND('',#181,.T.);
#130=FACE_BOUND('',#182,.T.);
#131=FACE_BOUND('',#183,.T.);
#132=FACE_BOUND('',#184,.T.);
#133=FACE_BOUND('',#185,.T.);
#134=FACE_BOUND('',#186,.T.);
#135=FACE_BOUND('',#187,.T.);
#136=FACE_BOUND('',#188,.T.);
#137=FACE_BOUND('',#189,.T.);
#138=FACE_BOUND('',#190,.T.);
#139=FACE_BOUND('',#191,.T.);
#140=FACE_BOUND('',#192,.T.);
#141=FACE_BOUND('',#193,.T.);
#142=FACE_BOUND('',#194,.T.);
#143=FACE_BOUND('',#195,.T.);
#144=FACE_BOUND('',#196,.T.);
#145=FACE_BOUND('',#197,.T.);
#146=FACE_BOUND('',#198,.T.);
#147=FACE_BOUND('',#199,.T.);
#148=FACE_BOUND('',#200,.T.);
#149=FACE_BOUND('',#201,.T.);
#150=FACE_BOUND('',#203,.T.);
#151=FACE_BOUND('',#204,.T.);
#152=FACE_BOUND('',#205,.T.);
#153=FACE_BOUND('',#206,.T.);
#154=FACE_BOUND('',#207,.T.);
#155=FACE_BOUND('',#208,.T.);
#156=FACE_BOUND('',#209,.T.);
#157=FACE_BOUND('',#210,.T.);
#158=FACE_BOUND('',#211,.T.);
#159=FACE_BOUND('',#212,.T.);
#160=FACE_BOUND('',#213,.T.);
#161=FACE_BOUND('',#214,.T.);
#162=FACE_BOUND('',#215,.T.);
#163=FACE_BOUND('',#216,.T.);
#164=FACE_BOUND('',#220,.T.);
#165=FACE_BOUND('',#221,.T.);
#166=FACE_BOUND('',#222,.T.);
#167=FACE_BOUND('',#223,.T.);
#168=FACE_BOUND('',#224,.T.);
#169=FACE_BOUND('',#225,.T.);
#170=FACE_BOUND('',#226,.T.);
#171=FACE_BOUND('',#227,.T.);
#172=FACE_BOUND('',#228,.T.);
#173=FACE_BOUND('',#229,.T.);
#174=FACE_BOUND('',#230,.T.);
#175=FACE_BOUND('',#231,.T.);
#176=FACE_BOUND('',#232,.T.);
#177=FACE_BOUND('',#233,.T.);
#178=EDGE_LOOP('',(#234));
#179=EDGE_LOOP('',(#235));
#180=EDGE_LOOP('',(#236));
#181=EDGE_LOOP('',(#237));
#182=EDGE_LOOP('',(#238));
#183=EDGE_LOOP('',(#239));
#184=EDGE_LOOP('',(#240));
#185=EDGE_LOOP('',(#241));
#186=EDGE_LOOP('',(#242));
#187=EDGE_LOOP('',(#243));
#188=EDGE_LOOP('',(#244));
#189=EDGE_LOOP('',(#245));
#190=EDGE_LOOP('',(#246));
#191=EDGE_LOOP('',(#247));
#192=EDGE_LOOP('',(#248));
#193=EDGE_LOOP('',(#249));
#194=EDGE_LOOP('',(#250));
#195=EDGE_LOOP('',(#251));
#196=EDGE_LOOP('',(#252));
#197=EDGE_LOOP('',(#253));
#198=EDGE_LOOP('',(#254));
#199=EDGE_LOOP('',(#255));
#200=EDGE_LOOP('',(#256));
#201=EDGE_LOOP('',(#257));
#202=EDGE_LOOP('',(#258));
#203=EDGE_LOOP('',(#259));
#204=EDGE_LOOP('',(#260));
#205=EDGE_LOOP('',(#261));
#206=EDGE_LOOP('',(#262));
#207=EDGE_LOOP('',(#263));
#208=EDGE_LOOP('',(#264));
#209=EDGE_LOOP('',(#265));
#210=EDGE_LOOP('',(#266));
#211=EDGE_LOOP('',(#267));
#212=EDGE_LOOP('',(#268));
#213=EDGE_LOOP('',(#269));
#214=EDGE_LOOP('',(#270));
#215=EDGE_LOOP('',(#271));
#216=EDGE_LOOP('',(#272));
#217=EDGE_LOOP('',(#273));
#218=EDGE_LOOP('',(#274));
#219=EDGE_LOOP('',(#275));
#220=EDGE_LOOP('',(#276));
#221=EDGE_LOOP('',(#277));
#222=EDGE_LOOP('',(#278));
#223=EDGE_LOOP('',(#279));
#224=EDGE_LOOP('',(#280));
#225=EDGE_LOOP('',(#281));
#226=EDGE_LOOP('',(#282));
#227=EDGE_LOOP('',(#283));
#228=EDGE_LOOP('',(#284));
#229=EDGE_LOOP('',(#285));
#230=EDGE_LOOP('',(#286));
#231=EDGE_LOOP('',(#287));
#232=EDGE_LOOP('',(#288));
#233=EDGE_LOOP('',(#289));
#234=ORIENTED_EDGE('',*,*,#318,.T.);
#235=ORIENTED_EDGE('',*,*,#319,.T.);
#236=ORIENTED_EDGE('',*,*,#320,.T.);
#237=ORIENTED_EDGE('',*,*,#318,.F.);
#238=ORIENTED_EDGE('',*,*,#321,.T.);
#239=ORIENTED_EDGE('',*,*,#320,.F.);
#240=ORIENTED_EDGE('',*,*,#322,.T.);
#241=ORIENTED_EDGE('',*,*,#321,.F.);
#242=ORIENTED_EDGE('',*,*,#323,.T.);
#243=ORIENTED_EDGE('',*,*,#322,.F.);
#244=ORIENTED_EDGE('',*,*,#324,.T.);
#245=ORIENTED_EDGE('',*,*,#323,.F.);
#246=ORIENTED_EDGE('',*,*,#325,.T.);
#247=ORIENTED_EDGE('',*,*,#324,.F.);
#248=ORIENTED_EDGE('',*,*,#326,.T.);
#249=ORIENTED_EDGE('',*,*,#325,.F.);
#250=ORIENTED_EDGE('',*,*,#327,.T.);
#251=ORIENTED_EDGE('',*,*,#326,.F.);
#252=ORIENTED_EDGE('',*,*,#328,.T.);
#253=ORIENTED_EDGE('',*,*,#327,.F.);
#254=ORIENTED_EDGE('',*,*,#329,.T.);
#255=ORIENTED_EDGE('',*,*,#328,.F.);
#256=ORIENTED_EDGE('',*,*,#330,.T.);
#257=ORIENTED_EDGE('',*,*,#329,.F.);
#258=ORIENTED_EDGE('',*,*,#319,.F.);
#259=ORIENTED_EDGE('',*,*,#331,.T.);
#260=ORIENTED_EDGE('',*,*,#330,.F.);
#261=ORIENTED_EDGE('',*,*,#332,.T.);
#262=ORIENTED_EDGE('',*,*,#331,.F.);
#263=ORIENTED_EDGE('',*,*,#333,.T.);
#264=ORIENTED_EDGE('',*,*,#332,.F.);
#265=ORIENTED_EDGE('',*,*,#334,.T.);
#266=ORIENTED_EDGE('',*,*,#333,.F.);
#267=ORIENTED_EDGE('',*,*,#335,.T.);
#268=ORIENTED_EDGE('',*,*,#334,.F.);
#269=ORIENTED_EDGE('',*,*,#336,.T.);
#270=ORIENTED_EDGE('',*,*,#335,.F.);
#271=ORIENTED_EDGE('',*,*,#337,.T.);
#272=ORIENTED_EDGE('',*,*,#336,.F.);
#273=ORIENTED_EDGE('',*,*,#337,.F.);
#274=ORIENTED_EDGE('',*,*,#338,.F.);
#275=ORIENTED_EDGE('',*,*,#339,.T.);
#276=ORIENTED_EDGE('',*,*,#340,.F.);
#277=ORIENTED_EDGE('',*,*,#341,.F.);
#278=ORIENTED_EDGE('',*,*,#339,.F.);
#279=ORIENTED_EDGE('',*,*,#342,.T.);
#280=ORIENTED_EDGE('',*,*,#343,.T.);
#281=ORIENTED_EDGE('',*,*,#342,.F.);
#282=ORIENTED_EDGE('',*,*,#344,.T.);
#283=ORIENTED_EDGE('',*,*,#343,.F.);
#284=ORIENTED_EDGE('',*,*,#341,.T.);
#285=ORIENTED_EDGE('',*,*,#344,.F.);
#286=ORIENTED_EDGE('',*,*,#338,.T.);
#287=ORIENTED_EDGE('',*,*,#345,.F.);
#288=ORIENTED_EDGE('',*,*,#340,.T.);
#289=ORIENTED_EDGE('',*,*,#345,.T.);
#290=VERTEX_POINT('',#543);
#291=VERTEX_POINT('',#545);
#292=VERTEX_POINT('',#548);
#293=VERTEX_POINT('',#551);
#294=VERTEX_POINT('',#554);
#295=VERTEX_POINT('',#557);
#296=VERTEX_POINT('',#560);
#297=VERTEX_POINT('',#563);
#298=VERTEX_POINT('',#566);
#299=VERTEX_POINT('',#569);
#300=VERTEX_POINT('',#572);
#301=VERTEX_POINT('',#575);
#302=VERTEX_POINT('',#578);
#303=VERTEX_POINT('',#582);
#304=VERTEX_POINT('',#585);
#305=VERTEX_POINT('',#588);
#306=VERTEX_POINT('',#591);
#307=VERTEX_POINT('',#594);
#308=VERTEX_POINT('',#597);
#309=VERTEX_POINT('',#600);
#310=VERTEX_POINT('',#604);
#311=VERTEX_POINT('',#607);
#312=VERTEX_POINT('',#610);
#313=VERTEX_POINT('',#612);
#314=VERTEX_POINT('',#616);
#315=VERTEX_POINT('',#620);
#316=VERTEX_POINT('',#630);
#317=VERTEX_POINT('',#642);
#318=EDGE_CURVE('',#290,#290,#346,.T.);
#319=EDGE_CURVE('',#291,#291,#347,.T.);
#320=EDGE_CURVE('',#292,#292,#348,.T.);
#321=EDGE_CURVE('',#293,#293,#349,.T.);
#322=EDGE_CURVE('',#294,#294,#350,.T.);
#323=EDGE_CURVE('',#295,#295,#351,.T.);
#324=EDGE_CURVE('',#296,#296,#352,.T.);
#325=EDGE_CURVE('',#297,#297,#353,.T.);
#326=EDGE_CURVE('',#298,#298,#354,.T.);
#327=EDGE_CURVE('',#299,#299,#355,.T.);
#328=EDGE_CURVE('',#300,#300,#356,.T.);
#329=EDGE_CURVE('',#301,#301,#357,.T.);
#330=EDGE_CURVE('',#302,#302,#358,.T.);
#331=EDGE_CURVE('',#303,#303,#359,.T.);
#332=EDGE_CURVE('',#304,#304,#360,.T.);
#333=EDGE_CURVE('',#305,#305,#361,.T.);
#334=EDGE_CURVE('',#306,#306,#362,.T.);
#335=EDGE_CURVE('',#307,#307,#363,.T.);
#336=EDGE_CURVE('',#308,#308,#364,.T.);
#337=EDGE_CURVE('',#309,#309,#365,.T.);
#338=EDGE_CURVE('',#310,#310,#366,.T.);
#339=EDGE_CURVE('',#311,#311,#367,.T.);
#340=EDGE_CURVE('',#312,#312,#368,.T.);
#341=EDGE_CURVE('',#313,#313,#369,.T.);
#342=EDGE_CURVE('',#314,#314,#370,.T.);
#343=EDGE_CURVE('',#315,#315,#371,.T.);
#344=EDGE_CURVE('',#316,#316,#372,.T.);
#345=EDGE_CURVE('',#317,#317,#373,.T.);
#346=CIRCLE('',#375,15.7500000000001);
#347=CIRCLE('',#376,14.7500000000001);
#348=CIRCLE('',#378,15.7500000000002);
#349=CIRCLE('',#380,15.8103073792144);
#350=CIRCLE('',#382,15.999999999966);
#351=CIRCLE('',#384,16.);
#352=CIRCLE('',#386,15.7636296694844);
#353=CIRCLE('',#388,15.7500000000003);
#354=CIRCLE('',#390,15.7500000000003);
#355=CIRCLE('',#392,16.205669240384);
#356=CIRCLE('',#394,17.);
#357=CIRCLE('',#396,21.3);
#358=CIRCLE('',#398,22.);
#359=CIRCLE('',#401,22.);
#360=CIRCLE('',#403,21.6188304464118);
#361=CIRCLE('',#405,13.1352825893137);
#362=CIRCLE('',#407,12.5);
#363=CIRCLE('',#409,12.5);
#364=CIRCLE('',#411,12.3148536323958);
#365=CIRCLE('',#413,11.1164981906903);
#366=CIRCLE('',#416,0.100000000074065);
#367=CIRCLE('',#418,6.02074036314132);
#368=CIRCLE('',#420,6.85379931860883);
#369=CIRCLE('',#421,12.2935821436023);
#370=CIRCLE('',#422,11.6069312638873);
#371=CIRCLE('',#423,12.4481813153495);
#372=CIRCLE('',#424,12.9999991308151);
#373=CIRCLE('',#425,6.34083355716036);
#374=AXIS2_PLACEMENT_3D('',#541,#426,#427);
#375=AXIS2_PLACEMENT_3D('',#542,#428,#429);
#376=AXIS2_PLACEMENT_3D('',#544,#430,#431);
#377=AXIS2_PLACEMENT_3D('',#546,#432,#433);
#378=AXIS2_PLACEMENT_3D('',#547,#434,#435);
#379=AXIS2_PLACEMENT_3D('',#549,#436,#437);
#380=AXIS2_PLACEMENT_3D('',#550,#438,#439);
#381=AXIS2_PLACEMENT_3D('',#552,#440,#441);
#382=AXIS2_PLACEMENT_3D('',#553,#442,#443);
#383=AXIS2_PLACEMENT_3D('',#555,#444,#445);
#384=AXIS2_PLACEMENT_3D('',#556,#446,#447);
#385=AXIS2_PLACEMENT_3D('',#558,#448,#449);
#386=AXIS2_PLACEMENT_3D('',#559,#450,#451);
#387=AXIS2_PLACEMENT_3D('',#561,#452,#453);
#388=AXIS2_PLACEMENT_3D('',#562,#454,#455);
#389=AXIS2_PLACEMENT_3D('',#564,#456,#457);
#390=AXIS2_PLACEMENT_3D('',#565,#458,#459);
#391=AXIS2_PLACEMENT_3D('',#567,#460,#461);
#392=AXIS2_PLACEMENT_3D('',#568,#462,#463);
#393=AXIS2_PLACEMENT_3D('',#570,#464,#465);
#394=AXIS2_PLACEMENT_3D('',#571,#466,#467);
#395=AXIS2_PLACEMENT_3D('',#573,#468,#469);
#396=AXIS2_PLACEMENT_3D('',#574,#470,#471);
#397=AXIS2_PLACEMENT_3D('',#576,#472,#473);
#398=AXIS2_PLACEMENT_3D('',#577,#474,#475);
#399=AXIS2_PLACEMENT_3D('',#579,#476,#477);
#400=AXIS2_PLACEMENT_3D('',#580,#478,#479);
#401=AXIS2_PLACEMENT_3D('',#581,#480,#481);
#402=AXIS2_PLACEMENT_3D('',#583,#482,#483);
#403=AXIS2_PLACEMENT_3D('',#584,#484,#485);
#404=AXIS2_PLACEMENT_3D('',#586,#486,#487);
#405=AXIS2_PLACEMENT_3D('',#587,#488,#489);
#406=AXIS2_PLACEMENT_3D('',#589,#490,#491);
#407=AXIS2_PLACEMENT_3D('',#590,#492,#493);
#408=AXIS2_PLACEMENT_3D('',#592,#494,#495);
#409=AXIS2_PLACEMENT_3D('',#593,#496,#497);
#410=AXIS2_PLACEMENT_3D('',#595,#498,#499);
#411=AXIS2_PLACEMENT_3D('',#596,#500,#501);
#412=AXIS2_PLACEMENT_3D('',#598,#502,#503);
#413=AXIS2_PLACEMENT_3D('',#599,#504,#505);
#414=AXIS2_PLACEMENT_3D('',#601,#506,#507);
#415=AXIS2_PLACEMENT_3D('',#602,#508,#509);
#416=AXIS2_PLACEMENT_3D('',#603,#510,#511);
#417=AXIS2_PLACEMENT_3D('',#605,#512,#513);
#418=AXIS2_PLACEMENT_3D('',#606,#514,#515);
#419=AXIS2_PLACEMENT_3D('',#608,#516,#517);
#420=AXIS2_PLACEMENT_3D('',#609,#518,#519);
#421=AXIS2_PLACEMENT_3D('',#611,#520,#521);
#422=AXIS2_PLACEMENT_3D('',#615,#524,#525);
#423=AXIS2_PLACEMENT_3D('',#619,#528,#529);
#424=AXIS2_PLACEMENT_3D('',#629,#531,#532);
#425=AXIS2_PLACEMENT_3D('',#641,#536,#537);
#426=DIRECTION('',(0.,0.,1.));
#427=DIRECTION('',(1.,0.,0.));
#428=DIRECTION('',(1.,0.,0.));
#429=DIRECTION('',(0.,0.,1.));
#430=DIRECTION('',(-1.,0.,0.));
#431=DIRECTION('',(0.,0.,1.));
#432=DIRECTION('',(-1.,0.,0.));
#433=DIRECTION('',(0.,0.,1.));
#434=DIRECTION('',(1.,0.,0.));
#435=DIRECTION('',(0.,0.,1.));
#436=DIRECTION('',(-1.,0.,0.));
#437=DIRECTION('',(0.,0.,1.));
#438=DIRECTION('',(1.,0.,0.));
#439=DIRECTION('',(0.,0.,1.));
#440=DIRECTION('',(-1.,0.,0.));
#441=DIRECTION('',(0.,0.,1.));
#442=DIRECTION('',(1.,0.,0.));
#443=DIRECTION('',(0.,0.,1.));
#444=DIRECTION('',(-1.,0.,0.));
#445=DIRECTION('',(0.,0.,1.));
#446=DIRECTION('',(1.,0.,0.));
#447=DIRECTION('',(0.,0.,1.));
#448=DIRECTION('',(-1.,0.,0.));
#449=DIRECTION('',(0.,0.,1.));
#450=DIRECTION('',(1.,0.,0.));
#451=DIRECTION('',(0.,0.,1.));
#452=DIRECTION('',(1.,0.,0.));
#453=DIRECTION('',(-9.77483872308231E-17,0.,-1.));
#454=DIRECTION('',(1.,0.,0.));
#455=DIRECTION('',(0.,0.,1.));
#456=DIRECTION('',(-1.,0.,0.));
#457=DIRECTION('',(0.,0.,1.));
#458=DIRECTION('',(1.,0.,0.));
#459=DIRECTION('',(0.,0.,1.));
#460=DIRECTION('',(-1.,0.,0.));
#461=DIRECTION('',(0.,0.,1.));
#462=DIRECTION('',(1.,0.,0.));
#463=DIRECTION('',(0.,0.,1.));
#464=DIRECTION('',(-1.,0.,0.));
#465=DIRECTION('',(0.,0.,1.));
#466=DIRECTION('',(1.,0.,0.));
#467=DIRECTION('',(0.,0.,1.));
#468=DIRECTION('',(1.,0.,0.));
#469=DIRECTION('',(9.72981918138176E-18,0.,-1.));
#470=DIRECTION('',(1.,0.,0.));
#471=DIRECTION('',(0.,0.,1.));
#472=DIRECTION('',(-1.,0.,0.));
#473=DIRECTION('',(0.,0.,1.));
#474=DIRECTION('',(1.,0.,0.));
#475=DIRECTION('',(0.,0.,1.));
#476=DIRECTION('',(-1.,0.,0.));
#477=DIRECTION('',(0.,0.,1.));
#478=DIRECTION('',(-1.,0.,0.));
#479=DIRECTION('',(0.,0.,1.));
#480=DIRECTION('',(1.,0.,0.));
#481=DIRECTION('',(0.,0.,1.));
#482=DIRECTION('',(-1.,0.,0.));
#483=DIRECTION('',(0.,0.,1.));
#484=DIRECTION('',(1.,0.,0.));
#485=DIRECTION('',(0.,0.,1.));
#486=DIRECTION('',(-1.,0.,0.));
#487=DIRECTION('',(0.,0.,1.));
#488=DIRECTION('',(1.,0.,0.));
#489=DIRECTION('',(0.,0.,1.));
#490=DIRECTION('',(1.,0.,0.));
#491=DIRECTION('',(1.67362896599134E-16,0.,-1.));
#492=DIRECTION('',(1.,0.,0.));
#493=DIRECTION('',(0.,0.,1.));
#494=DIRECTION('',(-1.,0.,0.));
#495=DIRECTION('',(0.,0.,1.));
#496=DIRECTION('',(1.,0.,0.));
#497=DIRECTION('',(0.,0.,1.));
#498=DIRECTION('',(-1.,0.,0.));
#499=DIRECTION('',(0.,0.,1.));
#500=DIRECTION('',(1.,0.,0.));
#501=DIRECTION('',(0.,0.,1.));
#502=DIRECTION('',(1.,0.,0.));
#503=DIRECTION('',(0.,0.,-1.));
#504=DIRECTION('',(1.,0.,0.));
#505=DIRECTION('',(0.,0.,1.));
#506=DIRECTION('',(-1.,0.,0.));
#507=DIRECTION('',(0.,0.,1.));
#508=DIRECTION('',(1.,0.,0.));
#509=DIRECTION('',(0.,0.,-1.));
#510=DIRECTION('',(1.,0.,0.));
#511=DIRECTION('',(0.,0.,-1.));
#512=DIRECTION('',(1.,0.,0.));
#513=DIRECTION('',(0.,0.,-1.));
#514=DIRECTION('',(1.,0.,0.));
#515=DIRECTION('',(0.,0.,-1.));
#516=DIRECTION('',(1.,0.,0.));
#517=DIRECTION('',(0.,0.,-1.));
#518=DIRECTION('',(-1.,0.,0.));
#519=DIRECTION('',(0.,0.,-1.));
#520=DIRECTION('',(1.,0.,0.));
#521=DIRECTION('',(0.,0.,-1.));
#522=DIRECTION('',(-0.0871557427476587,0.993768017875764,-0.0694910293014742));
#523=DIRECTION('',(1.,0.,0.));
#524=DIRECTION('',(1.,0.,0.));
#525=DIRECTION('',(0.,0.,-1.));
#526=DIRECTION('',(0.0871557427476585,-0.993768017875764,0.0694910293014741));
#527=DIRECTION('',(1.,0.,0.));
#528=DIRECTION('',(1.,0.,0.));
#529=DIRECTION('',(0.,0.,-1.));
#530=DIRECTION('',(1.,0.,0.));
#531=DIRECTION('',(1.,0.,0.));
#532=DIRECTION('',(0.,0.,-1.));
#533=DIRECTION('',(-0.996194698091746,-0.0869434357387573,0.00607967728062667));
#534=DIRECTION('',(1.,0.,0.));
#535=DIRECTION('',(1.,0.,0.));
#536=DIRECTION('',(1.,0.,0.));
#537=DIRECTION('',(0.,0.,-1.));
#538=DIRECTION('',(0.104528463267654,-0.994521895368273,4.25179734307788E-18));
#539=DIRECTION('',(1.,0.,0.));
#540=DIRECTION('',(1.,0.,0.));
#541=CARTESIAN_POINT('',(0.,0.,0.));
#542=CARTESIAN_POINT('',(164.,0.,0.));
#543=CARTESIAN_POINT('',(164.,0.,15.7500000000001));
#544=CARTESIAN_POINT('',(165.000000000002,0.,0.));
#545=CARTESIAN_POINT('',(165.000000000002,0.,14.7500000000001));
#546=CARTESIAN_POINT('',(164.000000000002,0.,0.));
#547=CARTESIAN_POINT('',(162.176326980708,0.,0.));
#548=CARTESIAN_POINT('',(162.176326980708,0.,15.7500000000002));
#549=CARTESIAN_POINT('',(0.,0.,0.));
#550=CARTESIAN_POINT('',(161.834306837384,0.,0.));
#551=CARTESIAN_POINT('',(161.834306837384,0.,15.8103073792144));
#552=CARTESIAN_POINT('',(162.17632698071,0.,0.));
#553=CARTESIAN_POINT('',(161.313130645125,0.,0.));
#554=CARTESIAN_POINT('',(161.313130645125,0.,15.999999999966));
#555=CARTESIAN_POINT('',(161.834306837384,0.,0.));
#556=CARTESIAN_POINT('',(107.,0.,0.));
#557=CARTESIAN_POINT('',(107.,0.,16.));
#558=CARTESIAN_POINT('',(0.,0.,0.));
#559=CARTESIAN_POINT('',(106.117853917114,0.,0.));
#560=CARTESIAN_POINT('',(106.117853917114,0.,15.7636296694844));
#561=CARTESIAN_POINT('',(107.,0.,0.));
#562=CARTESIAN_POINT('',(106.014326299073,0.,0.));
#563=CARTESIAN_POINT('',(106.014326299073,0.,15.7500000000003));
#564=CARTESIAN_POINT('',(106.014326299074,0.,0.));
#565=CARTESIAN_POINT('',(105.28447131951,0.,0.));
#566=CARTESIAN_POINT('',(105.28447131951,0.,15.7500000000003));
#567=CARTESIAN_POINT('',(0.,0.,0.));
#568=CARTESIAN_POINT('',(104.888364092014,0.,0.));
#569=CARTESIAN_POINT('',(104.888364092014,0.,16.205669240384));
#570=CARTESIAN_POINT('',(105.284471319511,0.,0.));
#571=CARTESIAN_POINT('',(105.,0.,0.));
#572=CARTESIAN_POINT('',(105.,0.,17.));
#573=CARTESIAN_POINT('',(104.888364092014,0.,0.));
#574=CARTESIAN_POINT('',(105.,0.,0.));
#575=CARTESIAN_POINT('',(105.,0.,21.3));
#576=CARTESIAN_POINT('',(105.,17.,0.));
#577=CARTESIAN_POINT('',(104.587298334621,0.,0.));
#578=CARTESIAN_POINT('',(104.587298334621,0.,22.));
#579=CARTESIAN_POINT('',(104.2,0.,0.));
#580=CARTESIAN_POINT('',(165.,22.5,0.));
#581=CARTESIAN_POINT('',(100.781371187626,0.,0.));
#582=CARTESIAN_POINT('',(100.781371187626,0.,22.));
#583=CARTESIAN_POINT('',(0.,0.,0.));
#584=CARTESIAN_POINT('',(99.3179071146316,0.,0.));
#585=CARTESIAN_POINT('',(99.3179071146316,0.,21.6188304464118));
#586=CARTESIAN_POINT('',(100.781371187626,0.,0.));
#587=CARTESIAN_POINT('',(84.1368214756139,0.,0.));
#588=CARTESIAN_POINT('',(84.1368214756139,0.,13.1352825893137));
#589=CARTESIAN_POINT('',(99.3179071146316,0.,0.));
#590=CARTESIAN_POINT('',(81.6977146872892,0.,0.));
#591=CARTESIAN_POINT('',(81.6977146872892,0.,12.5));
#592=CARTESIAN_POINT('',(81.6977146872892,0.,0.));
#593=CARTESIAN_POINT('',(6.00000000000001,0.,0.));
#594=CARTESIAN_POINT('',(6.00000000000001,0.,12.5));
#595=CARTESIAN_POINT('',(0.,0.,0.));
#596=CARTESIAN_POINT('',(2.46719685250847,0.,0.));
#597=CARTESIAN_POINT('',(2.46719685250847,0.,12.3148536323958));
#598=CARTESIAN_POINT('',(6.00000000000001,0.,0.));
#599=CARTESIAN_POINT('',(1.33,0.,0.));
#600=CARTESIAN_POINT('',(1.33,0.,11.1164981906903));
#601=CARTESIAN_POINT('',(2.53,0.,0.));
#602=CARTESIAN_POINT('',(1.33,11.1164981906903,0.));
#603=CARTESIAN_POINT('',(0.670820298993503,0.,0.));
#604=CARTESIAN_POINT('',(0.670820298993503,0.,-0.100000000074065));
#605=CARTESIAN_POINT('',(0.670820298993503,0.,0.));
#606=CARTESIAN_POINT('',(8.02183842276914,0.,0.));
#607=CARTESIAN_POINT('',(8.02183842276914,0.,-6.02074036314132));
#608=CARTESIAN_POINT('',(8.02183842276914,0.,0.));
#609=CARTESIAN_POINT('',(0.126420779604989,0.,0.));
#610=CARTESIAN_POINT('',(0.126420779604989,0.,-6.85379931860883));
#611=CARTESIAN_POINT('',(0.608705300217837,0.,0.));
#612=CARTESIAN_POINT('',(0.608705300217837,0.,-12.2935821436023));
#613=CARTESIAN_POINT('',(0.608705300217837,-12.070314913676,2.33230782835095));
#614=CARTESIAN_POINT('',(6.00000000000001,0.,0.));
#615=CARTESIAN_POINT('',(8.5184912030663,0.,0.));
#616=CARTESIAN_POINT('',(8.5184912030663,0.,-11.6069312638873));
#617=CARTESIAN_POINT('',(8.02183842276914,-5.71704509852203,1.88804392476029));
#618=CARTESIAN_POINT('',(6.00000000000001,0.,0.));
#619=CARTESIAN_POINT('',(7.80715178455159,0.,0.));
#620=CARTESIAN_POINT('',(7.80715178455159,0.,-12.4481813153495));
#621=CARTESIAN_POINT('',(8.5184912030663,-11.3799840339103,2.28403519074277));
#622=CARTESIAN_POINT('',(8.52742937604429,-11.4818989526952,2.29116177610288));
#623=CARTESIAN_POINT('',(8.50555126613129,-11.6924804780297,2.30588707082373));
#624=CARTESIAN_POINT('',(8.35612272922885,-11.9646260468321,2.32491734283463));
#625=CARTESIAN_POINT('',(8.11340520054087,-12.158683540156,2.33848716467652));
#626=CARTESIAN_POINT('',(7.90931556918119,-12.2167438862233,2.34254713957734));
#627=CARTESIAN_POINT('',(7.80715178455159,-12.2256602862611,2.343170635006));
#628=CARTESIAN_POINT('',(6.00000000000001,0.,0.));
#629=CARTESIAN_POINT('',(1.45644660778662,0.,0.));
#630=CARTESIAN_POINT('',(1.45644660778662,0.,-12.9999991308151));
#631=CARTESIAN_POINT('',(7.80715178455159,-12.2256602862611,2.343170635006));
#632=CARTESIAN_POINT('',(6.00000000000001,0.,0.));
#633=CARTESIAN_POINT('',(1.45644660778662,-12.779921545119,2.38192835782173));
#634=CARTESIAN_POINT('',(1.35428282315702,-12.7888379451569,2.38255185325039));
#635=CARTESIAN_POINT('',(1.14318707919988,-12.76701312922,2.38102571345067));
#636=CARTESIAN_POINT('',(0.870376958655271,-12.6179485927232,2.37060210563961));
#637=CARTESIAN_POINT('',(0.675845596710815,-12.3758223117362,2.35367098672245));
#638=CARTESIAN_POINT('',(0.617643473195834,-12.172229832461,2.33943441371106));
#639=CARTESIAN_POINT('',(0.60870530021784,-12.070314913676,2.33230782835095));
#640=CARTESIAN_POINT('',(6.00000000000001,0.,0.));
#641=CARTESIAN_POINT('',(0.00445512553416509,0.,0.));
#642=CARTESIAN_POINT('',(0.00445512553416509,0.,-6.34083355716036));
#643=CARTESIAN_POINT('',(0.00445512553416495,6.3400449682641,0.100000000000016));
#644=CARTESIAN_POINT('',(6.00000000000001,0.,0.));
#645=CARTESIAN_POINT('',(0.700891077756618,7.20007174537239,0.100000000000015));
#646=CARTESIAN_POINT('',(0.598898845793876,7.18935192982891,0.100000000000015));
#647=CARTESIAN_POINT('',(0.395856065388676,7.12759681558312,0.100000000000015));
#648=CARTESIAN_POINT('',(0.1565705441494,6.9288590767472,0.100000000000015));
#649=CARTESIAN_POINT('',(0.0119259590408531,6.65348261894599,0.100000000000016));
#650=CARTESIAN_POINT('',(-0.00626469000931795,6.44203720022684,0.100000000000016));
#651=CARTESIAN_POINT('',(0.00445512553416583,6.3400449682641,0.100000000000016));
#652=CARTESIAN_POINT('',(6.00000000000001,0.,0.));
#653=(
GEOMETRIC_REPRESENTATION_CONTEXT(3)
GLOBAL_UNCERTAINTY_ASSIGNED_CONTEXT((#654))
GLOBAL_UNIT_ASSIGNED_CONTEXT((#660,#656,#655))
REPRESENTATION_CONTEXT('ATUM-26XD3-SP-07T308-32-light',
'TOP_LEVEL_ASSEMBLY_PART')
);
#654=UNCERTAINTY_MEASURE_WITH_UNIT(LENGTH_MEASURE(2.E-5),#660,
'DISTANCE_ACCURACY_VALUE','Maximum Tolerance applied to model');
#655=(
NAMED_UNIT(*)
SI_UNIT($,.STERADIAN.)
SOLID_ANGLE_UNIT()
);
#656=(
CONVERSION_BASED_UNIT('DEGREE',#658)
NAMED_UNIT(#657)
PLANE_ANGLE_UNIT()
);
#657=DIMENSIONAL_EXPONENTS(0.,0.,0.,0.,0.,0.,0.);
#658=PLANE_ANGLE_MEASURE_WITH_UNIT(PLANE_ANGLE_MEASURE(0.0174532925),#659);
#659=(
NAMED_UNIT(*)
PLANE_ANGLE_UNIT()
SI_UNIT($,.RADIAN.)
);
#660=(
LENGTH_UNIT()
NAMED_UNIT(*)
SI_UNIT(.MILLI.,.METRE.)
);
ENDSEC;
END-ISO-10303-21;
