ISO-10303-21;
HEADER;
/* Generated by software containing ST-Developer
 * from STEP Tools, Inc. (www.steptools.com) 
 */
/* OPTION: using custom schema-name function */

FILE_DESCRIPTION(
/* description */ (''),
/* implementation_level */ '2;1');

FILE_NAME(
/* name */ 'ATUM-27.5XD3-SP-07T308-light.stp',
/* time_stamp */ '2023-10-11T21:43:34+03:00',
/* author */ (''),
/* organization */ (''),
/* preprocessor_version */ 'ST-DEVELOPER v19.4',
/* originating_system */ 'SIEMENS PLM Software NX2306.3001',
/* authorisation */ '');

FILE_SCHEMA (('AUTOMOTIVE_DESIGN { 1 0 10303 214 3 1 1 1 }'));
ENDSEC;

DATA;
#10=SHAPE_REPRESENTATION_RELATIONSHIP('None',
'relationship between STP_ATUM 22.5XD3 SP.. 07T308-None and STP_ATUM 2
2.5XD3 SP.. 07T308-None',#22,#11);
#11=ADVANCED_BREP_SHAPE_REPRESENTATION(
'STP_ATUM 22.5XD3 SP.. 07T308-None',(#66,#67),#656);
#12=SHAPE_DEFINITION_REPRESENTATION(#13,#22);
#13=PRODUCT_DEFINITION_SHAPE('','',#14);
#14=PRODUCT_DEFINITION(' ','',#16,#15);
#15=PRODUCT_DEFINITION_CONTEXT('part definition',#21,'design');
#16=PRODUCT_DEFINITION_FORMATION_WITH_SPECIFIED_SOURCE(' ',' ',#18,
 .NOT_KNOWN.);
#17=PRODUCT_RELATED_PRODUCT_CATEGORY('part','',(#18));
#18=PRODUCT('STP_ATUM 22.5XD3 SP.. 07T308',
'STP_ATUM 22.5XD3 SP.. 07T308',' ',(#19));
#19=PRODUCT_CONTEXT(' ',#21,'mechanical');
#20=APPLICATION_PROTOCOL_DEFINITION('international standard',
'automotive_design',2010,#21);
#21=APPLICATION_CONTEXT(
'core data for automotive mechanical design processes');
#22=SHAPE_REPRESENTATION('STP_ATUM 22.5XD3 SP.. 07T308-None',(#374),#656);
#23=DRAUGHTING_PRE_DEFINED_COLOUR('yellow');
#24=B_SPLINE_CURVE_WITH_KNOTS('',3,(#624,#625,#626,#627,#628,#629,#630),
 .UNSPECIFIED.,.F.,.F.,(4,1,1,1,4),(0.,0.25,0.5,0.75,1.),.UNSPECIFIED.);
#25=B_SPLINE_CURVE_WITH_KNOTS('',3,(#636,#637,#638,#639,#640,#641,#642),
 .UNSPECIFIED.,.F.,.F.,(4,1,1,1,4),(0.,0.25,0.5,0.75,1.),.UNSPECIFIED.);
#26=B_SPLINE_CURVE_WITH_KNOTS('',3,(#646,#647,#648,#649,#650,#651,#652),
 .UNSPECIFIED.,.F.,.F.,(4,1,1,1,4),(0.,0.25,0.5,0.75,1.),.UNSPECIFIED.);
#27=SURFACE_OF_REVOLUTION('',#41,#34);
#28=SURFACE_OF_REVOLUTION('',#42,#35);
#29=SURFACE_OF_REVOLUTION('',#24,#36);
#30=SURFACE_OF_REVOLUTION('',#43,#37);
#31=SURFACE_OF_REVOLUTION('',#25,#38);
#32=SURFACE_OF_REVOLUTION('',#26,#39);
#33=SURFACE_OF_REVOLUTION('',#44,#40);
#34=AXIS1_PLACEMENT('',#617,#520);
#35=AXIS1_PLACEMENT('',#621,#524);
#36=AXIS1_PLACEMENT('',#631,#527);
#37=AXIS1_PLACEMENT('',#635,#531);
#38=AXIS1_PLACEMENT('',#643,#532);
#39=AXIS1_PLACEMENT('',#653,#535);
#40=AXIS1_PLACEMENT('',#655,#537);
#41=LINE('',#616,#45);
#42=LINE('',#620,#46);
#43=LINE('',#634,#47);
#44=LINE('',#654,#48);
#45=VECTOR('',#519,6.37496383882593);
#46=VECTOR('',#523,6.2609534452071);
#47=VECTOR('',#530,6.37496383882591);
#48=VECTOR('',#536,6.37496383882591);
#49=(
BOUNDED_CURVE()
B_SPLINE_CURVE(3,(#606,#607,#608,#609,#610,#611,#612),.UNSPECIFIED.,.T.,
 .F.)
B_SPLINE_CURVE_WITH_KNOTS((1,3,3,3,1),(-0.5,0.,0.5,1.,1.5),
 .UNSPECIFIED.)
CURVE()
GEOMETRIC_REPRESENTATION_ITEM()
RATIONAL_B_SPLINE_CURVE((1.,0.333333333333333,0.333333333333333,1.,0.333333333333333,
0.333333333333333,1.))
REPRESENTATION_ITEM('')
);
#50=PRESENTATION_LAYER_ASSIGNMENT('1','Layer 1',(#66,#67));
#51=STYLED_ITEM('',(#53),#66);
#52=STYLED_ITEM('',(#54),#67);
#53=PRESENTATION_STYLE_ASSIGNMENT((#55));
#54=PRESENTATION_STYLE_ASSIGNMENT((#56));
#55=SURFACE_STYLE_USAGE(.BOTH.,#57);
#56=SURFACE_STYLE_USAGE(.BOTH.,#58);
#57=SURFACE_SIDE_STYLE('',(#59));
#58=SURFACE_SIDE_STYLE('',(#60));
#59=SURFACE_STYLE_FILL_AREA(#61);
#60=SURFACE_STYLE_FILL_AREA(#62);
#61=FILL_AREA_STYLE('',(#63));
#62=FILL_AREA_STYLE('',(#64));
#63=FILL_AREA_STYLE_COLOUR('',#65);
#64=FILL_AREA_STYLE_COLOUR('',#23);
#65=COLOUR_RGB('smoke gray',0.694117647058824,0.694117647058824,0.694117647058824);
#66=MANIFOLD_SOLID_BREP('',#68);
#67=MANIFOLD_SOLID_BREP('',#69);
#68=CLOSED_SHELL('',(#89,#90,#91,#92,#93,#94,#95,#96,#97,#98,#99,#100,#101,
#102,#103,#104,#105,#106,#107,#108,#109));
#69=CLOSED_SHELL('',(#110,#111,#112,#113,#114,#115,#116,#117,#118));
#70=FACE_OUTER_BOUND('',#203,.T.);
#71=FACE_OUTER_BOUND('',#218,.T.);
#72=FACE_OUTER_BOUND('',#219,.T.);
#73=FACE_OUTER_BOUND('',#220,.T.);
#74=PLANE('',#397);
#75=PLANE('',#400);
#76=PLANE('',#415);
#77=PLANE('',#417);
#78=PLANE('',#419);
#79=CONICAL_SURFACE('',#383,12.3103073792138,20.0000000000008);
#80=CONICAL_SURFACE('',#387,12.5,15.0000000000006);
#81=CONICAL_SURFACE('',#395,12.7056692403838,82.0000000000006);
#82=CONICAL_SURFACE('',#406,16.8634399341051,17.3540246362613);
#83=CONICAL_SURFACE('',#412,13.25,3.00000000000001);
#84=CYLINDRICAL_SURFACE('',#379,12.2499999999998);
#85=CYLINDRICAL_SURFACE('',#385,12.5);
#86=CYLINDRICAL_SURFACE('',#391,12.2499999999998);
#87=CYLINDRICAL_SURFACE('',#402,17.);
#88=CYLINDRICAL_SURFACE('',#410,13.25);
#89=ADVANCED_FACE('',(#127,#128),#119,.T.);
#90=ADVANCED_FACE('',(#129,#130),#84,.T.);
#91=ADVANCED_FACE('',(#131,#132),#120,.F.);
#92=ADVANCED_FACE('',(#133,#134),#79,.T.);
#93=ADVANCED_FACE('',(#135,#136),#85,.T.);
#94=ADVANCED_FACE('',(#137,#138),#80,.T.);
#95=ADVANCED_FACE('',(#139,#140),#121,.F.);
#96=ADVANCED_FACE('',(#141,#142),#86,.T.);
#97=ADVANCED_FACE('',(#143,#144),#122,.F.);
#98=ADVANCED_FACE('',(#145,#146),#81,.F.);
#99=ADVANCED_FACE('',(#147,#148),#74,.F.);
#100=ADVANCED_FACE('',(#149,#150),#123,.T.);
#101=ADVANCED_FACE('',(#70),#75,.F.);
#102=ADVANCED_FACE('',(#151,#152),#87,.T.);
#103=ADVANCED_FACE('',(#153,#154),#124,.T.);
#104=ADVANCED_FACE('',(#155,#156),#82,.T.);
#105=ADVANCED_FACE('',(#157,#158),#125,.F.);
#106=ADVANCED_FACE('',(#159,#160),#88,.T.);
#107=ADVANCED_FACE('',(#161,#162),#83,.T.);
#108=ADVANCED_FACE('',(#163,#164),#126,.T.);
#109=ADVANCED_FACE('',(#71),#76,.F.);
#110=ADVANCED_FACE('',(#72),#77,.F.);
#111=ADVANCED_FACE('',(#73),#78,.T.);
#112=ADVANCED_FACE('',(#165,#166),#27,.F.);
#113=ADVANCED_FACE('',(#167,#168),#28,.F.);
#114=ADVANCED_FACE('',(#169,#170),#29,.F.);
#115=ADVANCED_FACE('',(#171,#172),#30,.F.);
#116=ADVANCED_FACE('',(#173,#174),#31,.F.);
#117=ADVANCED_FACE('',(#175,#176),#32,.F.);
#118=ADVANCED_FACE('',(#177,#178),#33,.F.);
#119=TOROIDAL_SURFACE('',#377,11.2499999999998,1.00000000000003);
#120=TOROIDAL_SURFACE('',#381,13.2499999999998,1.00000000000002);
#121=TOROIDAL_SURFACE('',#389,12.6499999999998,0.4);
#122=TOROIDAL_SURFACE('',#393,12.6499999999998,0.399999999999986);
#123=TOROIDAL_SURFACE('',#399,16.3,0.799999999999997);
#124=TOROIDAL_SURFACE('',#404,14.,3.);
#125=TOROIDAL_SURFACE('',#408,18.25,5.);
#126=TOROIDAL_SURFACE('',#414,11.8649259573118,1.2);
#127=FACE_BOUND('',#179,.T.);
#128=FACE_BOUND('',#180,.T.);
#129=FACE_BOUND('',#181,.T.);
#130=FACE_BOUND('',#182,.T.);
#131=FACE_BOUND('',#183,.T.);
#132=FACE_BOUND('',#184,.T.);
#133=FACE_BOUND('',#185,.T.);
#134=FACE_BOUND('',#186,.T.);
#135=FACE_BOUND('',#187,.T.);
#136=FACE_BOUND('',#188,.T.);
#137=FACE_BOUND('',#189,.T.);
#138=FACE_BOUND('',#190,.T.);
#139=FACE_BOUND('',#191,.T.);
#140=FACE_BOUND('',#192,.T.);
#141=FACE_BOUND('',#193,.T.);
#142=FACE_BOUND('',#194,.T.);
#143=FACE_BOUND('',#195,.T.);
#144=FACE_BOUND('',#196,.T.);
#145=FACE_BOUND('',#197,.T.);
#146=FACE_BOUND('',#198,.T.);
#147=FACE_BOUND('',#199,.T.);
#148=FACE_BOUND('',#200,.T.);
#149=FACE_BOUND('',#201,.T.);
#150=FACE_BOUND('',#202,.T.);
#151=FACE_BOUND('',#204,.T.);
#152=FACE_BOUND('',#205,.T.);
#153=FACE_BOUND('',#206,.T.);
#154=FACE_BOUND('',#207,.T.);
#155=FACE_BOUND('',#208,.T.);
#156=FACE_BOUND('',#209,.T.);
#157=FACE_BOUND('',#210,.T.);
#158=FACE_BOUND('',#211,.T.);
#159=FACE_BOUND('',#212,.T.);
#160=FACE_BOUND('',#213,.T.);
#161=FACE_BOUND('',#214,.T.);
#162=FACE_BOUND('',#215,.T.);
#163=FACE_BOUND('',#216,.T.);
#164=FACE_BOUND('',#217,.T.);
#165=FACE_BOUND('',#221,.T.);
#166=FACE_BOUND('',#222,.T.);
#167=FACE_BOUND('',#223,.T.);
#168=FACE_BOUND('',#224,.T.);
#169=FACE_BOUND('',#225,.T.);
#170=FACE_BOUND('',#226,.T.);
#171=FACE_BOUND('',#227,.T.);
#172=FACE_BOUND('',#228,.T.);
#173=FACE_BOUND('',#229,.T.);
#174=FACE_BOUND('',#230,.T.);
#175=FACE_BOUND('',#231,.T.);
#176=FACE_BOUND('',#232,.T.);
#177=FACE_BOUND('',#233,.T.);
#178=FACE_BOUND('',#234,.T.);
#179=EDGE_LOOP('',(#235));
#180=EDGE_LOOP('',(#236));
#181=EDGE_LOOP('',(#237));
#182=EDGE_LOOP('',(#238));
#183=EDGE_LOOP('',(#239));
#184=EDGE_LOOP('',(#240));
#185=EDGE_LOOP('',(#241));
#186=EDGE_LOOP('',(#242));
#187=EDGE_LOOP('',(#243));
#188=EDGE_LOOP('',(#244));
#189=EDGE_LOOP('',(#245));
#190=EDGE_LOOP('',(#246));
#191=EDGE_LOOP('',(#247));
#192=EDGE_LOOP('',(#248));
#193=EDGE_LOOP('',(#249));
#194=EDGE_LOOP('',(#250));
#195=EDGE_LOOP('',(#251));
#196=EDGE_LOOP('',(#252));
#197=EDGE_LOOP('',(#253));
#198=EDGE_LOOP('',(#254));
#199=EDGE_LOOP('',(#255));
#200=EDGE_LOOP('',(#256));
#201=EDGE_LOOP('',(#257));
#202=EDGE_LOOP('',(#258));
#203=EDGE_LOOP('',(#259));
#204=EDGE_LOOP('',(#260));
#205=EDGE_LOOP('',(#261));
#206=EDGE_LOOP('',(#262));
#207=EDGE_LOOP('',(#263));
#208=EDGE_LOOP('',(#264));
#209=EDGE_LOOP('',(#265));
#210=EDGE_LOOP('',(#266));
#211=EDGE_LOOP('',(#267));
#212=EDGE_LOOP('',(#268));
#213=EDGE_LOOP('',(#269));
#214=EDGE_LOOP('',(#270));
#215=EDGE_LOOP('',(#271));
#216=EDGE_LOOP('',(#272));
#217=EDGE_LOOP('',(#273));
#218=EDGE_LOOP('',(#274));
#219=EDGE_LOOP('',(#275));
#220=EDGE_LOOP('',(#276));
#221=EDGE_LOOP('',(#277));
#222=EDGE_LOOP('',(#278));
#223=EDGE_LOOP('',(#279));
#224=EDGE_LOOP('',(#280));
#225=EDGE_LOOP('',(#281));
#226=EDGE_LOOP('',(#282));
#227=EDGE_LOOP('',(#283));
#228=EDGE_LOOP('',(#284));
#229=EDGE_LOOP('',(#285));
#230=EDGE_LOOP('',(#286));
#231=EDGE_LOOP('',(#287));
#232=EDGE_LOOP('',(#288));
#233=EDGE_LOOP('',(#289));
#234=EDGE_LOOP('',(#290));
#235=ORIENTED_EDGE('',*,*,#319,.T.);
#236=ORIENTED_EDGE('',*,*,#320,.T.);
#237=ORIENTED_EDGE('',*,*,#321,.T.);
#238=ORIENTED_EDGE('',*,*,#319,.F.);
#239=ORIENTED_EDGE('',*,*,#322,.T.);
#240=ORIENTED_EDGE('',*,*,#321,.F.);
#241=ORIENTED_EDGE('',*,*,#323,.T.);
#242=ORIENTED_EDGE('',*,*,#322,.F.);
#243=ORIENTED_EDGE('',*,*,#324,.T.);
#244=ORIENTED_EDGE('',*,*,#323,.F.);
#245=ORIENTED_EDGE('',*,*,#325,.T.);
#246=ORIENTED_EDGE('',*,*,#324,.F.);
#247=ORIENTED_EDGE('',*,*,#326,.T.);
#248=ORIENTED_EDGE('',*,*,#325,.F.);
#249=ORIENTED_EDGE('',*,*,#327,.T.);
#250=ORIENTED_EDGE('',*,*,#326,.F.);
#251=ORIENTED_EDGE('',*,*,#328,.T.);
#252=ORIENTED_EDGE('',*,*,#327,.F.);
#253=ORIENTED_EDGE('',*,*,#329,.T.);
#254=ORIENTED_EDGE('',*,*,#328,.F.);
#255=ORIENTED_EDGE('',*,*,#330,.T.);
#256=ORIENTED_EDGE('',*,*,#329,.F.);
#257=ORIENTED_EDGE('',*,*,#331,.T.);
#258=ORIENTED_EDGE('',*,*,#330,.F.);
#259=ORIENTED_EDGE('',*,*,#320,.F.);
#260=ORIENTED_EDGE('',*,*,#332,.T.);
#261=ORIENTED_EDGE('',*,*,#331,.F.);
#262=ORIENTED_EDGE('',*,*,#333,.T.);
#263=ORIENTED_EDGE('',*,*,#332,.F.);
#264=ORIENTED_EDGE('',*,*,#334,.T.);
#265=ORIENTED_EDGE('',*,*,#333,.F.);
#266=ORIENTED_EDGE('',*,*,#335,.T.);
#267=ORIENTED_EDGE('',*,*,#334,.F.);
#268=ORIENTED_EDGE('',*,*,#336,.T.);
#269=ORIENTED_EDGE('',*,*,#335,.F.);
#270=ORIENTED_EDGE('',*,*,#337,.T.);
#271=ORIENTED_EDGE('',*,*,#336,.F.);
#272=ORIENTED_EDGE('',*,*,#338,.T.);
#273=ORIENTED_EDGE('',*,*,#337,.F.);
#274=ORIENTED_EDGE('',*,*,#338,.F.);
#275=ORIENTED_EDGE('',*,*,#339,.F.);
#276=ORIENTED_EDGE('',*,*,#340,.T.);
#277=ORIENTED_EDGE('',*,*,#341,.F.);
#278=ORIENTED_EDGE('',*,*,#342,.F.);
#279=ORIENTED_EDGE('',*,*,#340,.F.);
#280=ORIENTED_EDGE('',*,*,#343,.T.);
#281=ORIENTED_EDGE('',*,*,#344,.T.);
#282=ORIENTED_EDGE('',*,*,#343,.F.);
#283=ORIENTED_EDGE('',*,*,#345,.T.);
#284=ORIENTED_EDGE('',*,*,#344,.F.);
#285=ORIENTED_EDGE('',*,*,#342,.T.);
#286=ORIENTED_EDGE('',*,*,#345,.F.);
#287=ORIENTED_EDGE('',*,*,#346,.T.);
#288=ORIENTED_EDGE('',*,*,#341,.T.);
#289=ORIENTED_EDGE('',*,*,#339,.T.);
#290=ORIENTED_EDGE('',*,*,#346,.F.);
#291=VERTEX_POINT('',#540);
#292=VERTEX_POINT('',#542);
#293=VERTEX_POINT('',#545);
#294=VERTEX_POINT('',#548);
#295=VERTEX_POINT('',#551);
#296=VERTEX_POINT('',#554);
#297=VERTEX_POINT('',#557);
#298=VERTEX_POINT('',#560);
#299=VERTEX_POINT('',#563);
#300=VERTEX_POINT('',#566);
#301=VERTEX_POINT('',#569);
#302=VERTEX_POINT('',#572);
#303=VERTEX_POINT('',#575);
#304=VERTEX_POINT('',#579);
#305=VERTEX_POINT('',#582);
#306=VERTEX_POINT('',#585);
#307=VERTEX_POINT('',#588);
#308=VERTEX_POINT('',#591);
#309=VERTEX_POINT('',#594);
#310=VERTEX_POINT('',#597);
#311=VERTEX_POINT('',#601);
#312=VERTEX_POINT('',#604);
#313=VERTEX_POINT('',#613);
#314=VERTEX_POINT('',#615);
#315=VERTEX_POINT('',#619);
#316=VERTEX_POINT('',#623);
#317=VERTEX_POINT('',#633);
#318=VERTEX_POINT('',#645);
#319=EDGE_CURVE('',#291,#291,#347,.T.);
#320=EDGE_CURVE('',#292,#292,#348,.T.);
#321=EDGE_CURVE('',#293,#293,#349,.T.);
#322=EDGE_CURVE('',#294,#294,#350,.T.);
#323=EDGE_CURVE('',#295,#295,#351,.T.);
#324=EDGE_CURVE('',#296,#296,#352,.T.);
#325=EDGE_CURVE('',#297,#297,#353,.T.);
#326=EDGE_CURVE('',#298,#298,#354,.T.);
#327=EDGE_CURVE('',#299,#299,#355,.T.);
#328=EDGE_CURVE('',#300,#300,#356,.T.);
#329=EDGE_CURVE('',#301,#301,#357,.T.);
#330=EDGE_CURVE('',#302,#302,#358,.T.);
#331=EDGE_CURVE('',#303,#303,#359,.T.);
#332=EDGE_CURVE('',#304,#304,#360,.T.);
#333=EDGE_CURVE('',#305,#305,#361,.T.);
#334=EDGE_CURVE('',#306,#306,#362,.T.);
#335=EDGE_CURVE('',#307,#307,#363,.T.);
#336=EDGE_CURVE('',#308,#308,#364,.T.);
#337=EDGE_CURVE('',#309,#309,#365,.T.);
#338=EDGE_CURVE('',#310,#310,#366,.T.);
#339=EDGE_CURVE('',#311,#311,#367,.T.);
#340=EDGE_CURVE('',#312,#312,#368,.T.);
#341=EDGE_CURVE('',#313,#313,#49,.T.);
#342=EDGE_CURVE('',#314,#314,#369,.T.);
#343=EDGE_CURVE('',#315,#315,#370,.T.);
#344=EDGE_CURVE('',#316,#316,#371,.T.);
#345=EDGE_CURVE('',#317,#317,#372,.T.);
#346=EDGE_CURVE('',#318,#318,#373,.T.);
#347=CIRCLE('',#375,12.2499999999998);
#348=CIRCLE('',#376,11.2499999999998);
#349=CIRCLE('',#378,12.2499999999998);
#350=CIRCLE('',#380,12.3103073792138);
#351=CIRCLE('',#382,12.5);
#352=CIRCLE('',#384,12.5);
#353=CIRCLE('',#386,12.2636296694841);
#354=CIRCLE('',#388,12.2499999999998);
#355=CIRCLE('',#390,12.2499999999998);
#356=CIRCLE('',#392,12.7056692403838);
#357=CIRCLE('',#394,13.5);
#358=CIRCLE('',#396,16.3);
#359=CIRCLE('',#398,17.);
#360=CIRCLE('',#401,17.);
#361=CIRCLE('',#403,16.8634399341051);
#362=CIRCLE('',#405,13.4776001098248);
#363=CIRCLE('',#407,13.25);
#364=CIRCLE('',#409,13.25);
#365=CIRCLE('',#411,13.0632813990173);
#366=CIRCLE('',#413,12.5282509153829);
#367=CIRCLE('',#416,0.100000000106003);
#368=CIRCLE('',#418,6.2695458290087);
#369=CIRCLE('',#420,13.0260622109169);
#370=CIRCLE('',#421,12.4739524659825);
#371=CIRCLE('',#422,13.3065570559346);
#372=CIRCLE('',#423,13.7499997345266);
#373=CIRCLE('',#424,6.35149704610832);
#374=AXIS2_PLACEMENT_3D('',#538,#425,#426);
#375=AXIS2_PLACEMENT_3D('',#539,#427,#428);
#376=AXIS2_PLACEMENT_3D('',#541,#429,#430);
#377=AXIS2_PLACEMENT_3D('',#543,#431,#432);
#378=AXIS2_PLACEMENT_3D('',#544,#433,#434);
#379=AXIS2_PLACEMENT_3D('',#546,#435,#436);
#380=AXIS2_PLACEMENT_3D('',#547,#437,#438);
#381=AXIS2_PLACEMENT_3D('',#549,#439,#440);
#382=AXIS2_PLACEMENT_3D('',#550,#441,#442);
#383=AXIS2_PLACEMENT_3D('',#552,#443,#444);
#384=AXIS2_PLACEMENT_3D('',#553,#445,#446);
#385=AXIS2_PLACEMENT_3D('',#555,#447,#448);
#386=AXIS2_PLACEMENT_3D('',#556,#449,#450);
#387=AXIS2_PLACEMENT_3D('',#558,#451,#452);
#388=AXIS2_PLACEMENT_3D('',#559,#453,#454);
#389=AXIS2_PLACEMENT_3D('',#561,#455,#456);
#390=AXIS2_PLACEMENT_3D('',#562,#457,#458);
#391=AXIS2_PLACEMENT_3D('',#564,#459,#460);
#392=AXIS2_PLACEMENT_3D('',#565,#461,#462);
#393=AXIS2_PLACEMENT_3D('',#567,#463,#464);
#394=AXIS2_PLACEMENT_3D('',#568,#465,#466);
#395=AXIS2_PLACEMENT_3D('',#570,#467,#468);
#396=AXIS2_PLACEMENT_3D('',#571,#469,#470);
#397=AXIS2_PLACEMENT_3D('',#573,#471,#472);
#398=AXIS2_PLACEMENT_3D('',#574,#473,#474);
#399=AXIS2_PLACEMENT_3D('',#576,#475,#476);
#400=AXIS2_PLACEMENT_3D('',#577,#477,#478);
#401=AXIS2_PLACEMENT_3D('',#578,#479,#480);
#402=AXIS2_PLACEMENT_3D('',#580,#481,#482);
#403=AXIS2_PLACEMENT_3D('',#581,#483,#484);
#404=AXIS2_PLACEMENT_3D('',#583,#485,#486);
#405=AXIS2_PLACEMENT_3D('',#584,#487,#488);
#406=AXIS2_PLACEMENT_3D('',#586,#489,#490);
#407=AXIS2_PLACEMENT_3D('',#587,#491,#492);
#408=AXIS2_PLACEMENT_3D('',#589,#493,#494);
#409=AXIS2_PLACEMENT_3D('',#590,#495,#496);
#410=AXIS2_PLACEMENT_3D('',#592,#497,#498);
#411=AXIS2_PLACEMENT_3D('',#593,#499,#500);
#412=AXIS2_PLACEMENT_3D('',#595,#501,#502);
#413=AXIS2_PLACEMENT_3D('',#596,#503,#504);
#414=AXIS2_PLACEMENT_3D('',#598,#505,#506);
#415=AXIS2_PLACEMENT_3D('',#599,#507,#508);
#416=AXIS2_PLACEMENT_3D('',#600,#509,#510);
#417=AXIS2_PLACEMENT_3D('',#602,#511,#512);
#418=AXIS2_PLACEMENT_3D('',#603,#513,#514);
#419=AXIS2_PLACEMENT_3D('',#605,#515,#516);
#420=AXIS2_PLACEMENT_3D('',#614,#517,#518);
#421=AXIS2_PLACEMENT_3D('',#618,#521,#522);
#422=AXIS2_PLACEMENT_3D('',#622,#525,#526);
#423=AXIS2_PLACEMENT_3D('',#632,#528,#529);
#424=AXIS2_PLACEMENT_3D('',#644,#533,#534);
#425=DIRECTION('',(0.,0.,1.));
#426=DIRECTION('',(1.,0.,0.));
#427=DIRECTION('',(1.,0.,0.));
#428=DIRECTION('',(0.,0.,1.));
#429=DIRECTION('',(-1.,0.,0.));
#430=DIRECTION('',(0.,0.,1.));
#431=DIRECTION('',(-1.,0.,0.));
#432=DIRECTION('',(0.,0.,1.));
#433=DIRECTION('',(1.,0.,0.));
#434=DIRECTION('',(0.,0.,1.));
#435=DIRECTION('',(-1.,0.,0.));
#436=DIRECTION('',(0.,0.,1.));
#437=DIRECTION('',(1.,0.,0.));
#438=DIRECTION('',(0.,0.,1.));
#439=DIRECTION('',(-1.,0.,0.));
#440=DIRECTION('',(0.,0.,1.));
#441=DIRECTION('',(1.,0.,0.));
#442=DIRECTION('',(0.,0.,1.));
#443=DIRECTION('',(-1.,0.,0.));
#444=DIRECTION('',(1.47525968227095E-16,0.,1.));
#445=DIRECTION('',(1.,0.,0.));
#446=DIRECTION('',(0.,0.,1.));
#447=DIRECTION('',(-1.,0.,0.));
#448=DIRECTION('',(0.,0.,1.));
#449=DIRECTION('',(1.,0.,0.));
#450=DIRECTION('',(0.,0.,1.));
#451=DIRECTION('',(1.,0.,0.));
#452=DIRECTION('',(-4.94841425197621E-17,0.,-1.));
#453=DIRECTION('',(1.,0.,0.));
#454=DIRECTION('',(0.,0.,1.));
#455=DIRECTION('',(-1.,0.,0.));
#456=DIRECTION('',(0.,0.,1.));
#457=DIRECTION('',(1.,0.,0.));
#458=DIRECTION('',(0.,0.,1.));
#459=DIRECTION('',(-1.,0.,0.));
#460=DIRECTION('',(0.,0.,1.));
#461=DIRECTION('',(1.,0.,0.));
#462=DIRECTION('',(0.,0.,1.));
#463=DIRECTION('',(-1.,0.,0.));
#464=DIRECTION('',(0.,0.,1.));
#465=DIRECTION('',(1.,0.,0.));
#466=DIRECTION('',(0.,0.,1.));
#467=DIRECTION('',(1.,0.,0.));
#468=DIRECTION('',(-3.8938386718299E-18,0.,-1.));
#469=DIRECTION('',(1.,0.,0.));
#470=DIRECTION('',(0.,0.,1.));
#471=DIRECTION('',(-1.,0.,0.));
#472=DIRECTION('',(0.,0.,1.));
#473=DIRECTION('',(1.,0.,0.));
#474=DIRECTION('',(0.,0.,1.));
#475=DIRECTION('',(-1.,0.,0.));
#476=DIRECTION('',(0.,0.,1.));
#477=DIRECTION('',(-1.,0.,0.));
#478=DIRECTION('',(0.,0.,1.));
#479=DIRECTION('',(1.,0.,0.));
#480=DIRECTION('',(0.,0.,1.));
#481=DIRECTION('',(-1.,0.,0.));
#482=DIRECTION('',(0.,0.,1.));
#483=DIRECTION('',(1.,0.,0.));
#484=DIRECTION('',(0.,0.,1.));
#485=DIRECTION('',(-1.,0.,0.));
#486=DIRECTION('',(0.,0.,1.));
#487=DIRECTION('',(1.,0.,0.));
#488=DIRECTION('',(0.,0.,1.));
#489=DIRECTION('',(1.,0.,0.));
#490=DIRECTION('',(4.21351799416199E-17,0.,-1.));
#491=DIRECTION('',(1.,0.,0.));
#492=DIRECTION('',(0.,0.,1.));
#493=DIRECTION('',(-1.,0.,0.));
#494=DIRECTION('',(0.,0.,1.));
#495=DIRECTION('',(1.,0.,0.));
#496=DIRECTION('',(0.,0.,1.));
#497=DIRECTION('',(-1.,0.,0.));
#498=DIRECTION('',(0.,0.,1.));
#499=DIRECTION('',(1.,0.,0.));
#500=DIRECTION('',(0.,0.,1.));
#501=DIRECTION('',(1.,0.,0.));
#502=DIRECTION('',(0.,0.,-1.));
#503=DIRECTION('',(1.,0.,0.));
#504=DIRECTION('',(0.,0.,-1.));
#505=DIRECTION('',(-1.,0.,0.));
#506=DIRECTION('',(0.,0.,1.));
#507=DIRECTION('',(1.,0.,0.));
#508=DIRECTION('',(0.,0.,-1.));
#509=DIRECTION('',(1.,0.,0.));
#510=DIRECTION('',(0.,0.,-1.));
#511=DIRECTION('',(1.,0.,0.));
#512=DIRECTION('',(0.,0.,-1.));
#513=DIRECTION('',(1.,0.,0.));
#514=DIRECTION('',(0.,0.,-1.));
#515=DIRECTION('',(1.,0.,0.));
#516=DIRECTION('',(0.,0.,-1.));
#517=DIRECTION('',(1.,0.,0.));
#518=DIRECTION('',(0.,0.,-1.));
#519=DIRECTION('',(-0.0697564737441255,0.992099290015652,-0.104273837184717));
#520=DIRECTION('',(1.,0.,0.));
#521=DIRECTION('',(1.,0.,0.));
#522=DIRECTION('',(0.,0.,-1.));
#523=DIRECTION('',(0.0697564737441248,-0.992099290015652,0.104273837184717));
#524=DIRECTION('',(1.,0.,0.));
#525=DIRECTION('',(1.,0.,0.));
#526=DIRECTION('',(0.,0.,-1.));
#527=DIRECTION('',(1.,0.,0.));
#528=DIRECTION('',(1.,0.,0.));
#529=DIRECTION('',(0.,0.,-1.));
#530=DIRECTION('',(-0.997564050259824,-0.0693743404822142,0.00729153700344296));
#531=DIRECTION('',(1.,0.,0.));
#532=DIRECTION('',(1.,0.,0.));
#533=DIRECTION('',(1.,0.,0.));
#534=DIRECTION('',(0.,0.,-1.));
#535=DIRECTION('',(1.,0.,0.));
#536=DIRECTION('',(0.0871557427476588,-0.996194698091745,1.65820096380037E-16));
#537=DIRECTION('',(1.,0.,0.));
#538=CARTESIAN_POINT('',(0.,0.,0.));
#539=CARTESIAN_POINT('',(158.,0.,0.));
#540=CARTESIAN_POINT('',(158.,0.,12.2499999999998));
#541=CARTESIAN_POINT('',(159.,0.,0.));
#542=CARTESIAN_POINT('',(159.,0.,11.2499999999998));
#543=CARTESIAN_POINT('',(158.,0.,0.));
#544=CARTESIAN_POINT('',(156.176326980708,0.,0.));
#545=CARTESIAN_POINT('',(156.176326980708,0.,12.2499999999998));
#546=CARTESIAN_POINT('',(0.,0.,0.));
#547=CARTESIAN_POINT('',(155.834306837383,0.,0.));
#548=CARTESIAN_POINT('',(155.834306837383,0.,12.3103073792138));
#549=CARTESIAN_POINT('',(156.176326980708,0.,0.));
#550=CARTESIAN_POINT('',(155.313130645136,0.,0.));
#551=CARTESIAN_POINT('',(155.313130645136,0.,12.5));
#552=CARTESIAN_POINT('',(155.834306837383,0.,0.));
#553=CARTESIAN_POINT('',(105.,0.,0.));
#554=CARTESIAN_POINT('',(105.,0.,12.5));
#555=CARTESIAN_POINT('',(0.,0.,0.));
#556=CARTESIAN_POINT('',(104.117853917113,0.,0.));
#557=CARTESIAN_POINT('',(104.117853917113,0.,12.2636296694841));
#558=CARTESIAN_POINT('',(105.,0.,0.));
#559=CARTESIAN_POINT('',(104.014326299072,0.,0.));
#560=CARTESIAN_POINT('',(104.014326299072,0.,12.2499999999998));
#561=CARTESIAN_POINT('',(104.014326299072,0.,0.));
#562=CARTESIAN_POINT('',(103.28447131951,0.,0.));
#563=CARTESIAN_POINT('',(103.28447131951,0.,12.2499999999998));
#564=CARTESIAN_POINT('',(0.,0.,0.));
#565=CARTESIAN_POINT('',(102.888364092014,0.,0.));
#566=CARTESIAN_POINT('',(102.888364092014,0.,12.7056692403838));
#567=CARTESIAN_POINT('',(103.28447131951,0.,0.));
#568=CARTESIAN_POINT('',(103.,0.,0.));
#569=CARTESIAN_POINT('',(103.,0.,13.5));
#570=CARTESIAN_POINT('',(102.888364092014,0.,0.));
#571=CARTESIAN_POINT('',(103.,0.,0.));
#572=CARTESIAN_POINT('',(103.,0.,16.3));
#573=CARTESIAN_POINT('',(103.,13.5,0.));
#574=CARTESIAN_POINT('',(102.587298334621,0.,0.));
#575=CARTESIAN_POINT('',(102.587298334621,0.,17.));
#576=CARTESIAN_POINT('',(102.2,0.,0.));
#577=CARTESIAN_POINT('',(159.,17.5,0.));
#578=CARTESIAN_POINT('',(98.4578327685441,0.,0.));
#579=CARTESIAN_POINT('',(98.4578327685441,0.,17.));
#580=CARTESIAN_POINT('',(0.,0.,0.));
#581=CARTESIAN_POINT('',(97.5630077891363,0.,0.));
#582=CARTESIAN_POINT('',(97.5630077891363,0.,16.8634399341051));
#583=CARTESIAN_POINT('',(98.4578327685441,0.,0.));
#584=CARTESIAN_POINT('',(86.7283203514395,0.,0.));
#585=CARTESIAN_POINT('',(86.7283203514395,0.,13.4776001098248));
#586=CARTESIAN_POINT('',(97.5630077891363,0.,0.));
#587=CARTESIAN_POINT('',(85.2369453857598,0.,0.));
#588=CARTESIAN_POINT('',(85.2369453857598,0.,13.25));
#589=CARTESIAN_POINT('',(85.2369453857598,0.,0.));
#590=CARTESIAN_POINT('',(6.00000000000001,0.,0.));
#591=CARTESIAN_POINT('',(6.00000000000001,0.,13.25));
#592=CARTESIAN_POINT('',(0.,0.,0.));
#593=CARTESIAN_POINT('',(2.43719685250847,0.,0.));
#594=CARTESIAN_POINT('',(2.43719685250847,0.,13.0632813990173));
#595=CARTESIAN_POINT('',(6.00000000000001,0.,0.));
#596=CARTESIAN_POINT('',(1.5,0.,0.));
#597=CARTESIAN_POINT('',(1.5,0.,-12.5282509153829));
#598=CARTESIAN_POINT('',(2.5,0.,0.));
#599=CARTESIAN_POINT('',(1.5,0.,0.));
#600=CARTESIAN_POINT('',(0.558705300217852,0.,0.));
#601=CARTESIAN_POINT('',(0.558705300217852,0.,-0.100000000106003));
#602=CARTESIAN_POINT('',(0.558705300217852,0.,0.));
#603=CARTESIAN_POINT('',(7.98059080483157,0.,0.));
#604=CARTESIAN_POINT('',(7.98059080483157,0.,-6.2695458290087));
#605=CARTESIAN_POINT('',(7.98059080483157,0.,0.));
#606=CARTESIAN_POINT('',(0.051672458631971,-6.64073830647371E-15,-6.70437542343895));
#607=CARTESIAN_POINT('',(0.0516724586319715,-13.4087508468779,-6.70437542343893));
#608=CARTESIAN_POINT('',(0.0516724586319715,-13.4087508468779,6.70437542343896));
#609=CARTESIAN_POINT('',(0.0516724586319709,5.81403414995352E-15,6.70437542343895));
#610=CARTESIAN_POINT('',(0.0516724586319704,13.4087508468779,6.70437542343894));
#611=CARTESIAN_POINT('',(0.0516724586319704,13.4087508468779,-6.70437542343896));
#612=CARTESIAN_POINT('',(0.051672458631971,-6.64073830647371E-15,-6.70437542343895));
#613=CARTESIAN_POINT('',(0.0518258706857518,-1.09775469964157E-15,-6.70431685370841));
#614=CARTESIAN_POINT('',(0.496674280382343,0.,0.));
#615=CARTESIAN_POINT('',(0.496674280382343,0.,-13.0260622109169));
#616=CARTESIAN_POINT('',(0.496674280382343,-12.8093247574132,2.36632541756186));
#617=CARTESIAN_POINT('',(6.00000000000001,0.,0.));
#618=CARTESIAN_POINT('',(8.41733283944535,0.,0.));
#619=CARTESIAN_POINT('',(8.41733283944535,0.,-12.4739524659825));
#620=CARTESIAN_POINT('',(7.98059080483157,-6.04700502617336,1.6555769735879));
#621=CARTESIAN_POINT('',(6.00000000000001,0.,0.));
#622=CARTESIAN_POINT('',(7.69130663551617,0.,0.));
#623=CARTESIAN_POINT('',(7.69130663551617,0.,-13.3065570559346));
#624=CARTESIAN_POINT('',(8.41733283944535,-12.2584924939844,2.30843061375452));
#625=CARTESIAN_POINT('',(8.42448664720377,-12.3602362779962,2.31912431636612));
#626=CARTESIAN_POINT('',(8.39892774071217,-12.569763908617,2.34114655774955));
#627=CARTESIAN_POINT('',(8.24476076939572,-12.8384446228124,2.3693860387457));
#628=CARTESIAN_POINT('',(7.99868516736954,-13.0276680561573,2.38927422300175));
#629=CARTESIAN_POINT('',(7.79361085273415,-13.0820001834643,2.39498475969272));
#630=CARTESIAN_POINT('',(7.69130663551617,-13.0891148019153,2.39573253622422));
#631=CARTESIAN_POINT('',(6.00000000000001,0.,0.));
#632=CARTESIAN_POINT('',(1.33187188819707,0.,0.));
#633=CARTESIAN_POINT('',(1.33187188819707,0.,-13.7499997345266));
#634=CARTESIAN_POINT('',(7.69130663551617,-13.0891148019153,2.39573253622422));
#635=CARTESIAN_POINT('',(6.00000000000001,0.,0.));
#636=CARTESIAN_POINT('',(1.33187188819707,-13.5313737138318,2.44221582095063));
#637=CARTESIAN_POINT('',(1.22956767097909,-13.5384883322829,2.44296359748213));
#638=CARTESIAN_POINT('',(1.01888590359251,-13.5130694401553,2.44029196426376));
#639=CARTESIAN_POINT('',(0.748725220909993,-13.3597470116385,2.42417712766542));
#640=CARTESIAN_POINT('',(0.558459491994306,-13.1150194375075,2.39845522313796));
#641=CARTESIAN_POINT('',(0.503828088140773,-12.9110685414249,2.37701912017346));
#642=CARTESIAN_POINT('',(0.496674280382343,-12.8093247574132,2.36632541756186));
#643=CARTESIAN_POINT('',(6.00000000000001,0.,0.));
#644=CARTESIAN_POINT('',(0.00309059185551325,0.,0.));
#645=CARTESIAN_POINT('',(0.00309059185551325,0.,-6.35149704610832));
#646=CARTESIAN_POINT('',(0.71443001037022,7.1984510889021,0.0999999999999908));
#647=CARTESIAN_POINT('',(0.612266225740619,7.18951291592411,0.0999999999999909));
#648=CARTESIAN_POINT('',(0.408176594380936,7.13131079240913,0.099999999999991));
#649=CARTESIAN_POINT('',(0.165459065692959,6.93677943046467,0.0999999999999912));
#650=CARTESIAN_POINT('',(0.0160305287905198,6.66396930992006,0.0999999999999913));
#651=CARTESIAN_POINT('',(-0.00584758112248029,6.45287356596292,0.0999999999999913));
#652=CARTESIAN_POINT('',(0.00309059185551397,6.35070978133332,0.0999999999999914));
#653=CARTESIAN_POINT('',(6.00000000000001,0.,0.));
#654=CARTESIAN_POINT('',(0.00309059185551352,6.35070978133332,0.0999999999999914));
#655=CARTESIAN_POINT('',(6.00000000000001,0.,0.));
#656=(
GEOMETRIC_REPRESENTATION_CONTEXT(3)
GLOBAL_UNCERTAINTY_ASSIGNED_CONTEXT((#657))
GLOBAL_UNIT_ASSIGNED_CONTEXT((#663,#659,#658))
REPRESENTATION_CONTEXT('ATUM-27','TOP_LEVEL_ASSEMBLY_PART')
);
#657=UNCERTAINTY_MEASURE_WITH_UNIT(LENGTH_MEASURE(0.0508),#663,
'DISTANCE_ACCURACY_VALUE','Maximum Tolerance applied to model');
#658=(
NAMED_UNIT(*)
SI_UNIT($,.STERADIAN.)
SOLID_ANGLE_UNIT()
);
#659=(
CONVERSION_BASED_UNIT('DEGREE',#661)
NAMED_UNIT(#660)
PLANE_ANGLE_UNIT()
);
#660=DIMENSIONAL_EXPONENTS(0.,0.,0.,0.,0.,0.,0.);
#661=PLANE_ANGLE_MEASURE_WITH_UNIT(PLANE_ANGLE_MEASURE(0.0174532925),#662);
#662=(
NAMED_UNIT(*)
PLANE_ANGLE_UNIT()
SI_UNIT($,.RADIAN.)
);
#663=(
LENGTH_UNIT()
NAMED_UNIT(*)
SI_UNIT(.MILLI.,.METRE.)
);
ENDSEC;
END-ISO-10303-21;
