ISO-10303-21;
HEADER;
/* Generated by software containing ST-Developer
 * from STEP Tools, Inc. (www.steptools.com) 
 */
/* OPTION: using custom schema-name function */

FILE_DESCRIPTION(
/* description */ (''),
/* implementation_level */ '2;1');

FILE_NAME(
/* name */ 'ATUM-27XD3-SPGT-07T308-light.stp',
/* time_stamp */ '2023-10-02T19:22:32+03:00',
/* author */ (''),
/* organization */ (''),
/* preprocessor_version */ 'ST-DEVELOPER v19.4',
/* originating_system */ 'SIEMENS PLM Software NX2306.3001',
/* authorisation */ '');

FILE_SCHEMA (('AUTOMOTIVE_DESIGN { 1 0 10303 214 3 1 1 1 }'));
ENDSEC;

DATA;
#10=SHAPE_REPRESENTATION_RELATIONSHIP('None',
'relationship between STEP-ATUM 22XD3 SPGT 07T308-None and STEP-ATUM 2
2XD3 SPGT 07T308-None',#22,#11);
#11=ADVANCED_BREP_SHAPE_REPRESENTATION(
'STEP-ATUM 22XD3 SPGT 07T308-None',(#66,#67),#667);
#12=SHAPE_DEFINITION_REPRESENTATION(#13,#22);
#13=PRODUCT_DEFINITION_SHAPE('','',#14);
#14=PRODUCT_DEFINITION(' ','',#16,#15);
#15=PRODUCT_DEFINITION_CONTEXT('part definition',#21,'design');
#16=PRODUCT_DEFINITION_FORMATION_WITH_SPECIFIED_SOURCE(' ',' ',#18,
 .NOT_KNOWN.);
#17=PRODUCT_RELATED_PRODUCT_CATEGORY('part','',(#18));
#18=PRODUCT('STEP-ATUM 22XD3 SPGT 07T308','STEP-ATUM 22XD3 SPGT 07T308',
' ',(#19));
#19=PRODUCT_CONTEXT(' ',#21,'mechanical');
#20=APPLICATION_PROTOCOL_DEFINITION('international standard',
'automotive_design',2010,#21);
#21=APPLICATION_CONTEXT(
'core data for automotive mechanical design processes');
#22=SHAPE_REPRESENTATION('STEP-ATUM 22XD3 SPGT 07T308-None',(#388),#667);
#23=DRAUGHTING_PRE_DEFINED_COLOUR('yellow');
#24=SURFACE_OF_REVOLUTION('',#40,#32);
#25=SURFACE_OF_REVOLUTION('',#41,#33);
#26=SURFACE_OF_REVOLUTION('',#383,#34);
#27=SURFACE_OF_REVOLUTION('',#42,#35);
#28=SURFACE_OF_REVOLUTION('',#385,#36);
#29=SURFACE_OF_REVOLUTION('',#387,#37);
#30=SURFACE_OF_REVOLUTION('',#43,#38);
#31=SURFACE_OF_REVOLUTION('',#44,#39);
#32=AXIS1_PLACEMENT('',#642,#541);
#33=AXIS1_PLACEMENT('',#648,#547);
#34=AXIS1_PLACEMENT('',#652,#552);
#35=AXIS1_PLACEMENT('',#656,#556);
#36=AXIS1_PLACEMENT('',#658,#559);
#37=AXIS1_PLACEMENT('',#662,#564);
#38=AXIS1_PLACEMENT('',#664,#566);
#39=AXIS1_PLACEMENT('',#666,#568);
#40=LINE('',#641,#45);
#41=LINE('',#647,#46);
#42=LINE('',#655,#47);
#43=LINE('',#663,#48);
#44=LINE('',#665,#49);
#45=VECTOR('',#540,6.09939483536533);
#46=VECTOR('',#546,6.11621740484814);
#47=VECTOR('',#555,6.34000000000001);
#48=VECTOR('',#565,5.47502591086131);
#49=VECTOR('',#567,6.34000000000001);
#50=PRESENTATION_LAYER_ASSIGNMENT('1','Layer 1',(#66,#67));
#51=STYLED_ITEM('',(#53),#66);
#52=STYLED_ITEM('',(#54),#67);
#53=PRESENTATION_STYLE_ASSIGNMENT((#55));
#54=PRESENTATION_STYLE_ASSIGNMENT((#56));
#55=SURFACE_STYLE_USAGE(.BOTH.,#57);
#56=SURFACE_STYLE_USAGE(.BOTH.,#58);
#57=SURFACE_SIDE_STYLE('',(#59));
#58=SURFACE_SIDE_STYLE('',(#60));
#59=SURFACE_STYLE_FILL_AREA(#61);
#60=SURFACE_STYLE_FILL_AREA(#62);
#61=FILL_AREA_STYLE('',(#63));
#62=FILL_AREA_STYLE('',(#64));
#63=FILL_AREA_STYLE_COLOUR('',#65);
#64=FILL_AREA_STYLE_COLOUR('',#23);
#65=COLOUR_RGB('smoke gray',0.694117647058824,0.694117647058824,0.694117647058824);
#66=MANIFOLD_SOLID_BREP('',#68);
#67=MANIFOLD_SOLID_BREP('',#69);
#68=CLOSED_SHELL('',(#89,#90,#91,#92,#93,#94,#95,#96,#97,#98,#99,#100,#101,
#102,#103,#104,#105,#106,#107,#108,#109));
#69=CLOSED_SHELL('',(#110,#111,#112,#113,#114,#115,#116,#117,#118,#119));
#70=FACE_OUTER_BOUND('',#206,.T.);
#71=FACE_OUTER_BOUND('',#221,.T.);
#72=FACE_OUTER_BOUND('',#222,.T.);
#73=FACE_OUTER_BOUND('',#223,.T.);
#74=PLANE('',#411);
#75=PLANE('',#414);
#76=PLANE('',#429);
#77=PLANE('',#431);
#78=PLANE('',#433);
#79=CONICAL_SURFACE('',#397,12.3103073792139,19.9999999999999);
#80=CONICAL_SURFACE('',#401,12.5,15.0000000000004);
#81=CONICAL_SURFACE('',#409,12.7056692403838,82.0000000000001);
#82=CONICAL_SURFACE('',#420,16.8460498941515,18.434948822922);
#83=CONICAL_SURFACE('',#426,13.,3.00000000000001);
#84=CYLINDRICAL_SURFACE('',#393,12.2499999999998);
#85=CYLINDRICAL_SURFACE('',#399,12.5);
#86=CYLINDRICAL_SURFACE('',#405,12.2499999999998);
#87=CYLINDRICAL_SURFACE('',#416,17.);
#88=CYLINDRICAL_SURFACE('',#424,13.);
#89=ADVANCED_FACE('',(#128,#129),#120,.T.);
#90=ADVANCED_FACE('',(#130,#131),#84,.T.);
#91=ADVANCED_FACE('',(#132,#133),#121,.F.);
#92=ADVANCED_FACE('',(#134,#135),#79,.T.);
#93=ADVANCED_FACE('',(#136,#137),#85,.T.);
#94=ADVANCED_FACE('',(#138,#139),#80,.T.);
#95=ADVANCED_FACE('',(#140,#141),#122,.F.);
#96=ADVANCED_FACE('',(#142,#143),#86,.T.);
#97=ADVANCED_FACE('',(#144,#145),#123,.F.);
#98=ADVANCED_FACE('',(#146,#147),#81,.F.);
#99=ADVANCED_FACE('',(#148,#149),#74,.F.);
#100=ADVANCED_FACE('',(#150,#151),#124,.T.);
#101=ADVANCED_FACE('',(#70),#75,.F.);
#102=ADVANCED_FACE('',(#152,#153),#87,.T.);
#103=ADVANCED_FACE('',(#154,#155),#125,.T.);
#104=ADVANCED_FACE('',(#156,#157),#82,.T.);
#105=ADVANCED_FACE('',(#158,#159),#126,.F.);
#106=ADVANCED_FACE('',(#160,#161),#88,.T.);
#107=ADVANCED_FACE('',(#162,#163),#83,.T.);
#108=ADVANCED_FACE('',(#164,#165),#127,.T.);
#109=ADVANCED_FACE('',(#71),#76,.F.);
#110=ADVANCED_FACE('',(#72),#77,.T.);
#111=ADVANCED_FACE('',(#73),#78,.F.);
#112=ADVANCED_FACE('',(#166,#167),#24,.T.);
#113=ADVANCED_FACE('',(#168,#169),#25,.T.);
#114=ADVANCED_FACE('',(#170,#171),#26,.T.);
#115=ADVANCED_FACE('',(#172,#173),#27,.T.);
#116=ADVANCED_FACE('',(#174,#175),#28,.T.);
#117=ADVANCED_FACE('',(#176,#177),#29,.T.);
#118=ADVANCED_FACE('',(#178,#179),#30,.T.);
#119=ADVANCED_FACE('',(#180,#181),#31,.T.);
#120=TOROIDAL_SURFACE('',#391,11.2499999999998,1.00000000000003);
#121=TOROIDAL_SURFACE('',#395,13.2499999999998,0.99999999999999);
#122=TOROIDAL_SURFACE('',#403,12.6499999999998,0.4);
#123=TOROIDAL_SURFACE('',#407,12.6499999999998,0.399999999999986);
#124=TOROIDAL_SURFACE('',#413,16.3,0.799999999999997);
#125=TOROIDAL_SURFACE('',#418,14.,3.);
#126=TOROIDAL_SURFACE('',#422,18.,5.);
#127=TOROIDAL_SURFACE('',#428,11.6149259573118,1.2);
#128=FACE_BOUND('',#182,.T.);
#129=FACE_BOUND('',#183,.T.);
#130=FACE_BOUND('',#184,.T.);
#131=FACE_BOUND('',#185,.T.);
#132=FACE_BOUND('',#186,.T.);
#133=FACE_BOUND('',#187,.T.);
#134=FACE_BOUND('',#188,.T.);
#135=FACE_BOUND('',#189,.T.);
#136=FACE_BOUND('',#190,.T.);
#137=FACE_BOUND('',#191,.T.);
#138=FACE_BOUND('',#192,.T.);
#139=FACE_BOUND('',#193,.T.);
#140=FACE_BOUND('',#194,.T.);
#141=FACE_BOUND('',#195,.T.);
#142=FACE_BOUND('',#196,.T.);
#143=FACE_BOUND('',#197,.T.);
#144=FACE_BOUND('',#198,.T.);
#145=FACE_BOUND('',#199,.T.);
#146=FACE_BOUND('',#200,.T.);
#147=FACE_BOUND('',#201,.T.);
#148=FACE_BOUND('',#202,.T.);
#149=FACE_BOUND('',#203,.T.);
#150=FACE_BOUND('',#204,.T.);
#151=FACE_BOUND('',#205,.T.);
#152=FACE_BOUND('',#207,.T.);
#153=FACE_BOUND('',#208,.T.);
#154=FACE_BOUND('',#209,.T.);
#155=FACE_BOUND('',#210,.T.);
#156=FACE_BOUND('',#211,.T.);
#157=FACE_BOUND('',#212,.T.);
#158=FACE_BOUND('',#213,.T.);
#159=FACE_BOUND('',#214,.T.);
#160=FACE_BOUND('',#215,.T.);
#161=FACE_BOUND('',#216,.T.);
#162=FACE_BOUND('',#217,.T.);
#163=FACE_BOUND('',#218,.T.);
#164=FACE_BOUND('',#219,.T.);
#165=FACE_BOUND('',#220,.T.);
#166=FACE_BOUND('',#224,.T.);
#167=FACE_BOUND('',#225,.T.);
#168=FACE_BOUND('',#226,.T.);
#169=FACE_BOUND('',#227,.T.);
#170=FACE_BOUND('',#228,.T.);
#171=FACE_BOUND('',#229,.T.);
#172=FACE_BOUND('',#230,.T.);
#173=FACE_BOUND('',#231,.T.);
#174=FACE_BOUND('',#232,.T.);
#175=FACE_BOUND('',#233,.T.);
#176=FACE_BOUND('',#234,.T.);
#177=FACE_BOUND('',#235,.T.);
#178=FACE_BOUND('',#236,.T.);
#179=FACE_BOUND('',#237,.T.);
#180=FACE_BOUND('',#238,.T.);
#181=FACE_BOUND('',#239,.T.);
#182=EDGE_LOOP('',(#240));
#183=EDGE_LOOP('',(#241));
#184=EDGE_LOOP('',(#242));
#185=EDGE_LOOP('',(#243));
#186=EDGE_LOOP('',(#244));
#187=EDGE_LOOP('',(#245));
#188=EDGE_LOOP('',(#246));
#189=EDGE_LOOP('',(#247));
#190=EDGE_LOOP('',(#248));
#191=EDGE_LOOP('',(#249));
#192=EDGE_LOOP('',(#250));
#193=EDGE_LOOP('',(#251));
#194=EDGE_LOOP('',(#252));
#195=EDGE_LOOP('',(#253));
#196=EDGE_LOOP('',(#254));
#197=EDGE_LOOP('',(#255));
#198=EDGE_LOOP('',(#256));
#199=EDGE_LOOP('',(#257));
#200=EDGE_LOOP('',(#258));
#201=EDGE_LOOP('',(#259));
#202=EDGE_LOOP('',(#260));
#203=EDGE_LOOP('',(#261));
#204=EDGE_LOOP('',(#262));
#205=EDGE_LOOP('',(#263));
#206=EDGE_LOOP('',(#264));
#207=EDGE_LOOP('',(#265));
#208=EDGE_LOOP('',(#266));
#209=EDGE_LOOP('',(#267));
#210=EDGE_LOOP('',(#268));
#211=EDGE_LOOP('',(#269));
#212=EDGE_LOOP('',(#270));
#213=EDGE_LOOP('',(#271));
#214=EDGE_LOOP('',(#272));
#215=EDGE_LOOP('',(#273));
#216=EDGE_LOOP('',(#274));
#217=EDGE_LOOP('',(#275));
#218=EDGE_LOOP('',(#276));
#219=EDGE_LOOP('',(#277));
#220=EDGE_LOOP('',(#278));
#221=EDGE_LOOP('',(#279));
#222=EDGE_LOOP('',(#280));
#223=EDGE_LOOP('',(#281));
#224=EDGE_LOOP('',(#282));
#225=EDGE_LOOP('',(#283));
#226=EDGE_LOOP('',(#284));
#227=EDGE_LOOP('',(#285));
#228=EDGE_LOOP('',(#286));
#229=EDGE_LOOP('',(#287));
#230=EDGE_LOOP('',(#288));
#231=EDGE_LOOP('',(#289));
#232=EDGE_LOOP('',(#290));
#233=EDGE_LOOP('',(#291));
#234=EDGE_LOOP('',(#292));
#235=EDGE_LOOP('',(#293));
#236=EDGE_LOOP('',(#294));
#237=EDGE_LOOP('',(#295));
#238=EDGE_LOOP('',(#296));
#239=EDGE_LOOP('',(#297));
#240=ORIENTED_EDGE('',*,*,#327,.T.);
#241=ORIENTED_EDGE('',*,*,#328,.T.);
#242=ORIENTED_EDGE('',*,*,#329,.T.);
#243=ORIENTED_EDGE('',*,*,#327,.F.);
#244=ORIENTED_EDGE('',*,*,#330,.T.);
#245=ORIENTED_EDGE('',*,*,#329,.F.);
#246=ORIENTED_EDGE('',*,*,#331,.T.);
#247=ORIENTED_EDGE('',*,*,#330,.F.);
#248=ORIENTED_EDGE('',*,*,#332,.T.);
#249=ORIENTED_EDGE('',*,*,#331,.F.);
#250=ORIENTED_EDGE('',*,*,#333,.T.);
#251=ORIENTED_EDGE('',*,*,#332,.F.);
#252=ORIENTED_EDGE('',*,*,#334,.T.);
#253=ORIENTED_EDGE('',*,*,#333,.F.);
#254=ORIENTED_EDGE('',*,*,#335,.T.);
#255=ORIENTED_EDGE('',*,*,#334,.F.);
#256=ORIENTED_EDGE('',*,*,#336,.T.);
#257=ORIENTED_EDGE('',*,*,#335,.F.);
#258=ORIENTED_EDGE('',*,*,#337,.T.);
#259=ORIENTED_EDGE('',*,*,#336,.F.);
#260=ORIENTED_EDGE('',*,*,#338,.T.);
#261=ORIENTED_EDGE('',*,*,#337,.F.);
#262=ORIENTED_EDGE('',*,*,#339,.T.);
#263=ORIENTED_EDGE('',*,*,#338,.F.);
#264=ORIENTED_EDGE('',*,*,#328,.F.);
#265=ORIENTED_EDGE('',*,*,#340,.T.);
#266=ORIENTED_EDGE('',*,*,#339,.F.);
#267=ORIENTED_EDGE('',*,*,#341,.T.);
#268=ORIENTED_EDGE('',*,*,#340,.F.);
#269=ORIENTED_EDGE('',*,*,#342,.T.);
#270=ORIENTED_EDGE('',*,*,#341,.F.);
#271=ORIENTED_EDGE('',*,*,#343,.T.);
#272=ORIENTED_EDGE('',*,*,#342,.F.);
#273=ORIENTED_EDGE('',*,*,#344,.T.);
#274=ORIENTED_EDGE('',*,*,#343,.F.);
#275=ORIENTED_EDGE('',*,*,#345,.T.);
#276=ORIENTED_EDGE('',*,*,#344,.F.);
#277=ORIENTED_EDGE('',*,*,#346,.T.);
#278=ORIENTED_EDGE('',*,*,#345,.F.);
#279=ORIENTED_EDGE('',*,*,#346,.F.);
#280=ORIENTED_EDGE('',*,*,#347,.T.);
#281=ORIENTED_EDGE('',*,*,#348,.F.);
#282=ORIENTED_EDGE('',*,*,#349,.F.);
#283=ORIENTED_EDGE('',*,*,#350,.F.);
#284=ORIENTED_EDGE('',*,*,#351,.T.);
#285=ORIENTED_EDGE('',*,*,#352,.F.);
#286=ORIENTED_EDGE('',*,*,#353,.F.);
#287=ORIENTED_EDGE('',*,*,#349,.T.);
#288=ORIENTED_EDGE('',*,*,#354,.F.);
#289=ORIENTED_EDGE('',*,*,#353,.T.);
#290=ORIENTED_EDGE('',*,*,#351,.F.);
#291=ORIENTED_EDGE('',*,*,#354,.T.);
#292=ORIENTED_EDGE('',*,*,#355,.T.);
#293=ORIENTED_EDGE('',*,*,#350,.T.);
#294=ORIENTED_EDGE('',*,*,#347,.F.);
#295=ORIENTED_EDGE('',*,*,#352,.T.);
#296=ORIENTED_EDGE('',*,*,#355,.F.);
#297=ORIENTED_EDGE('',*,*,#348,.T.);
#298=VERTEX_POINT('',#571);
#299=VERTEX_POINT('',#573);
#300=VERTEX_POINT('',#576);
#301=VERTEX_POINT('',#579);
#302=VERTEX_POINT('',#582);
#303=VERTEX_POINT('',#585);
#304=VERTEX_POINT('',#588);
#305=VERTEX_POINT('',#591);
#306=VERTEX_POINT('',#594);
#307=VERTEX_POINT('',#597);
#308=VERTEX_POINT('',#600);
#309=VERTEX_POINT('',#603);
#310=VERTEX_POINT('',#606);
#311=VERTEX_POINT('',#610);
#312=VERTEX_POINT('',#613);
#313=VERTEX_POINT('',#616);
#314=VERTEX_POINT('',#619);
#315=VERTEX_POINT('',#622);
#316=VERTEX_POINT('',#625);
#317=VERTEX_POINT('',#628);
#318=VERTEX_POINT('',#632);
#319=VERTEX_POINT('',#635);
#320=VERTEX_POINT('',#638);
#321=VERTEX_POINT('',#640);
#322=VERTEX_POINT('',#644);
#323=VERTEX_POINT('',#646);
#324=VERTEX_POINT('',#650);
#325=VERTEX_POINT('',#654);
#326=VERTEX_POINT('',#660);
#327=EDGE_CURVE('',#298,#298,#356,.T.);
#328=EDGE_CURVE('',#299,#299,#357,.T.);
#329=EDGE_CURVE('',#300,#300,#358,.T.);
#330=EDGE_CURVE('',#301,#301,#359,.T.);
#331=EDGE_CURVE('',#302,#302,#360,.T.);
#332=EDGE_CURVE('',#303,#303,#361,.T.);
#333=EDGE_CURVE('',#304,#304,#362,.T.);
#334=EDGE_CURVE('',#305,#305,#363,.T.);
#335=EDGE_CURVE('',#306,#306,#364,.T.);
#336=EDGE_CURVE('',#307,#307,#365,.T.);
#337=EDGE_CURVE('',#308,#308,#366,.T.);
#338=EDGE_CURVE('',#309,#309,#367,.T.);
#339=EDGE_CURVE('',#310,#310,#368,.T.);
#340=EDGE_CURVE('',#311,#311,#369,.T.);
#341=EDGE_CURVE('',#312,#312,#370,.T.);
#342=EDGE_CURVE('',#313,#313,#371,.T.);
#343=EDGE_CURVE('',#314,#314,#372,.T.);
#344=EDGE_CURVE('',#315,#315,#373,.T.);
#345=EDGE_CURVE('',#316,#316,#374,.T.);
#346=EDGE_CURVE('',#317,#317,#375,.T.);
#347=EDGE_CURVE('',#318,#318,#376,.T.);
#348=EDGE_CURVE('',#319,#319,#377,.T.);
#349=EDGE_CURVE('',#320,#320,#378,.T.);
#350=EDGE_CURVE('',#321,#321,#379,.T.);
#351=EDGE_CURVE('',#322,#322,#380,.T.);
#352=EDGE_CURVE('',#323,#323,#381,.T.);
#353=EDGE_CURVE('',#324,#324,#382,.T.);
#354=EDGE_CURVE('',#325,#325,#384,.T.);
#355=EDGE_CURVE('',#326,#326,#386,.T.);
#356=CIRCLE('',#389,12.2499999999998);
#357=CIRCLE('',#390,11.2499999999998);
#358=CIRCLE('',#392,12.2499999999998);
#359=CIRCLE('',#394,12.3103073792139);
#360=CIRCLE('',#396,12.5);
#361=CIRCLE('',#398,12.5);
#362=CIRCLE('',#400,12.2636296694842);
#363=CIRCLE('',#402,12.2499999999998);
#364=CIRCLE('',#404,12.2499999999998);
#365=CIRCLE('',#406,12.7056692403838);
#366=CIRCLE('',#408,13.5);
#367=CIRCLE('',#410,16.3);
#368=CIRCLE('',#412,17.);
#369=CIRCLE('',#415,17.);
#370=CIRCLE('',#417,16.8460498941515);
#371=CIRCLE('',#419,13.2565835097474);
#372=CIRCLE('',#421,13.);
#373=CIRCLE('',#423,13.);
#374=CIRCLE('',#425,12.8132813990173);
#375=CIRCLE('',#427,11.6149259573119);
#376=CIRCLE('',#430,0.699204527373618);
#377=CIRCLE('',#432,0.0999999999999986);
#378=CIRCLE('',#434,12.7598937789106);
#379=CIRCLE('',#435,6.71076339573737);
#380=CIRCLE('',#436,12.2077945584829);
#381=CIRCLE('',#437,6.14702183757833);
#382=CIRCLE('',#438,13.4999986188383);
#383=CIRCLE('',#439,0.800000000000001);
#384=CIRCLE('',#440,13.0589891238941);
#385=CIRCLE('',#441,0.800000000000001);
#386=CIRCLE('',#442,6.31666599231657);
#387=CIRCLE('',#443,0.800000000000001);
#388=AXIS2_PLACEMENT_3D('',#569,#444,#445);
#389=AXIS2_PLACEMENT_3D('',#570,#446,#447);
#390=AXIS2_PLACEMENT_3D('',#572,#448,#449);
#391=AXIS2_PLACEMENT_3D('',#574,#450,#451);
#392=AXIS2_PLACEMENT_3D('',#575,#452,#453);
#393=AXIS2_PLACEMENT_3D('',#577,#454,#455);
#394=AXIS2_PLACEMENT_3D('',#578,#456,#457);
#395=AXIS2_PLACEMENT_3D('',#580,#458,#459);
#396=AXIS2_PLACEMENT_3D('',#581,#460,#461);
#397=AXIS2_PLACEMENT_3D('',#583,#462,#463);
#398=AXIS2_PLACEMENT_3D('',#584,#464,#465);
#399=AXIS2_PLACEMENT_3D('',#586,#466,#467);
#400=AXIS2_PLACEMENT_3D('',#587,#468,#469);
#401=AXIS2_PLACEMENT_3D('',#589,#470,#471);
#402=AXIS2_PLACEMENT_3D('',#590,#472,#473);
#403=AXIS2_PLACEMENT_3D('',#592,#474,#475);
#404=AXIS2_PLACEMENT_3D('',#593,#476,#477);
#405=AXIS2_PLACEMENT_3D('',#595,#478,#479);
#406=AXIS2_PLACEMENT_3D('',#596,#480,#481);
#407=AXIS2_PLACEMENT_3D('',#598,#482,#483);
#408=AXIS2_PLACEMENT_3D('',#599,#484,#485);
#409=AXIS2_PLACEMENT_3D('',#601,#486,#487);
#410=AXIS2_PLACEMENT_3D('',#602,#488,#489);
#411=AXIS2_PLACEMENT_3D('',#604,#490,#491);
#412=AXIS2_PLACEMENT_3D('',#605,#492,#493);
#413=AXIS2_PLACEMENT_3D('',#607,#494,#495);
#414=AXIS2_PLACEMENT_3D('',#608,#496,#497);
#415=AXIS2_PLACEMENT_3D('',#609,#498,#499);
#416=AXIS2_PLACEMENT_3D('',#611,#500,#501);
#417=AXIS2_PLACEMENT_3D('',#612,#502,#503);
#418=AXIS2_PLACEMENT_3D('',#614,#504,#505);
#419=AXIS2_PLACEMENT_3D('',#615,#506,#507);
#420=AXIS2_PLACEMENT_3D('',#617,#508,#509);
#421=AXIS2_PLACEMENT_3D('',#618,#510,#511);
#422=AXIS2_PLACEMENT_3D('',#620,#512,#513);
#423=AXIS2_PLACEMENT_3D('',#621,#514,#515);
#424=AXIS2_PLACEMENT_3D('',#623,#516,#517);
#425=AXIS2_PLACEMENT_3D('',#624,#518,#519);
#426=AXIS2_PLACEMENT_3D('',#626,#520,#521);
#427=AXIS2_PLACEMENT_3D('',#627,#522,#523);
#428=AXIS2_PLACEMENT_3D('',#629,#524,#525);
#429=AXIS2_PLACEMENT_3D('',#630,#526,#527);
#430=AXIS2_PLACEMENT_3D('',#631,#528,#529);
#431=AXIS2_PLACEMENT_3D('',#633,#530,#531);
#432=AXIS2_PLACEMENT_3D('',#634,#532,#533);
#433=AXIS2_PLACEMENT_3D('',#636,#534,#535);
#434=AXIS2_PLACEMENT_3D('',#637,#536,#537);
#435=AXIS2_PLACEMENT_3D('',#639,#538,#539);
#436=AXIS2_PLACEMENT_3D('',#643,#542,#543);
#437=AXIS2_PLACEMENT_3D('',#645,#544,#545);
#438=AXIS2_PLACEMENT_3D('',#649,#548,#549);
#439=AXIS2_PLACEMENT_3D('',#651,#550,#551);
#440=AXIS2_PLACEMENT_3D('',#653,#553,#554);
#441=AXIS2_PLACEMENT_3D('',#657,#557,#558);
#442=AXIS2_PLACEMENT_3D('',#659,#560,#561);
#443=AXIS2_PLACEMENT_3D('',#661,#562,#563);
#444=DIRECTION('',(0.,0.,1.));
#445=DIRECTION('',(1.,0.,0.));
#446=DIRECTION('',(1.,0.,0.));
#447=DIRECTION('',(0.,0.,1.));
#448=DIRECTION('',(-1.,0.,0.));
#449=DIRECTION('',(0.,0.,1.));
#450=DIRECTION('',(-1.,0.,0.));
#451=DIRECTION('',(0.,0.,1.));
#452=DIRECTION('',(1.,0.,0.));
#453=DIRECTION('',(0.,0.,1.));
#454=DIRECTION('',(-1.,0.,0.));
#455=DIRECTION('',(0.,0.,1.));
#456=DIRECTION('',(1.,0.,0.));
#457=DIRECTION('',(0.,0.,1.));
#458=DIRECTION('',(-1.,0.,0.));
#459=DIRECTION('',(0.,0.,1.));
#460=DIRECTION('',(1.,0.,0.));
#461=DIRECTION('',(0.,0.,1.));
#462=DIRECTION('',(-1.,0.,0.));
#463=DIRECTION('',(-7.37629841135507E-17,0.,1.));
#464=DIRECTION('',(1.,0.,0.));
#465=DIRECTION('',(0.,0.,1.));
#466=DIRECTION('',(-1.,0.,0.));
#467=DIRECTION('',(0.,0.,1.));
#468=DIRECTION('',(1.,0.,0.));
#469=DIRECTION('',(0.,0.,1.));
#470=DIRECTION('',(1.,0.,0.));
#471=DIRECTION('',(-4.94841425197628E-17,0.,-1.));
#472=DIRECTION('',(1.,0.,0.));
#473=DIRECTION('',(0.,0.,1.));
#474=DIRECTION('',(-1.,0.,0.));
#475=DIRECTION('',(0.,0.,1.));
#476=DIRECTION('',(1.,0.,0.));
#477=DIRECTION('',(0.,0.,1.));
#478=DIRECTION('',(-1.,0.,0.));
#479=DIRECTION('',(0.,0.,1.));
#480=DIRECTION('',(1.,0.,0.));
#481=DIRECTION('',(0.,0.,1.));
#482=DIRECTION('',(-1.,0.,0.));
#483=DIRECTION('',(0.,0.,1.));
#484=DIRECTION('',(1.,0.,0.));
#485=DIRECTION('',(0.,0.,1.));
#486=DIRECTION('',(1.,0.,0.));
#487=DIRECTION('',(-3.89383867183014E-18,0.,-1.));
#488=DIRECTION('',(1.,0.,0.));
#489=DIRECTION('',(0.,0.,1.));
#490=DIRECTION('',(-1.,0.,0.));
#491=DIRECTION('',(0.,0.,1.));
#492=DIRECTION('',(1.,0.,0.));
#493=DIRECTION('',(0.,0.,1.));
#494=DIRECTION('',(-1.,0.,0.));
#495=DIRECTION('',(0.,0.,1.));
#496=DIRECTION('',(-1.,0.,0.));
#497=DIRECTION('',(0.,0.,1.));
#498=DIRECTION('',(1.,0.,0.));
#499=DIRECTION('',(0.,0.,1.));
#500=DIRECTION('',(-1.,0.,0.));
#501=DIRECTION('',(0.,0.,1.));
#502=DIRECTION('',(1.,0.,0.));
#503=DIRECTION('',(0.,0.,1.));
#504=DIRECTION('',(-1.,0.,0.));
#505=DIRECTION('',(0.,0.,1.));
#506=DIRECTION('',(1.,0.,0.));
#507=DIRECTION('',(0.,0.,1.));
#508=DIRECTION('',(1.,0.,0.));
#509=DIRECTION('',(-2.77413575177822E-16,0.,-1.));
#510=DIRECTION('',(1.,0.,0.));
#511=DIRECTION('',(0.,0.,1.));
#512=DIRECTION('',(-1.,0.,0.));
#513=DIRECTION('',(0.,0.,1.));
#514=DIRECTION('',(1.,0.,0.));
#515=DIRECTION('',(0.,0.,1.));
#516=DIRECTION('',(-1.,0.,0.));
#517=DIRECTION('',(0.,0.,1.));
#518=DIRECTION('',(1.,0.,0.));
#519=DIRECTION('',(0.,0.,1.));
#520=DIRECTION('',(1.,0.,0.));
#521=DIRECTION('',(0.,0.,-1.));
#522=DIRECTION('',(1.,0.,0.));
#523=DIRECTION('',(0.,0.,1.));
#524=DIRECTION('',(-1.,0.,0.));
#525=DIRECTION('',(0.,0.,1.));
#526=DIRECTION('',(1.,0.,0.));
#527=DIRECTION('',(0.,0.,-1.));
#528=DIRECTION('',(1.,0.,0.));
#529=DIRECTION('',(0.,0.,-1.));
#530=DIRECTION('',(1.,0.,0.));
#531=DIRECTION('',(0.,0.,-1.));
#532=DIRECTION('',(1.,0.,0.));
#533=DIRECTION('',(0.,0.,-1.));
#534=DIRECTION('',(1.,0.,0.));
#535=DIRECTION('',(0.,0.,-1.));
#536=DIRECTION('',(1.,0.,0.));
#537=DIRECTION('',(0.,0.,-1.));
#538=DIRECTION('',(-1.,0.,0.));
#539=DIRECTION('',(0.,0.,-1.));
#540=DIRECTION('',(0.0697564737441265,-0.992099290015652,0.104273837184717));
#541=DIRECTION('',(1.,0.,0.));
#542=DIRECTION('',(1.,0.,0.));
#543=DIRECTION('',(0.,0.,-1.));
#544=DIRECTION('',(1.,0.,0.));
#545=DIRECTION('',(0.,0.,-1.));
#546=DIRECTION('',(-0.0697564737441255,0.992099290015652,-0.104273837184717));
#547=DIRECTION('',(1.,0.,0.));
#548=DIRECTION('',(1.,0.,0.));
#549=DIRECTION('',(0.,0.,-1.));
#550=DIRECTION('',(9.71445146547012E-17,0.104528463267653,0.994521895368273));
#551=DIRECTION('',(0.997564050259824,0.0693743404822147,-0.0072915370034439));
#552=DIRECTION('',(1.,0.,0.));
#553=DIRECTION('',(1.,0.,0.));
#554=DIRECTION('',(0.,0.,-1.));
#555=DIRECTION('',(0.997564050259824,0.0693743404822151,-0.00729153700344393));
#556=DIRECTION('',(1.,0.,0.));
#557=DIRECTION('',(9.71445146547012E-17,0.104528463267653,0.994521895368273));
#558=DIRECTION('',(0.997564050259824,0.0693743404822147,-0.0072915370034439));
#559=DIRECTION('',(1.,0.,0.));
#560=DIRECTION('',(1.,0.,0.));
#561=DIRECTION('',(0.,0.,-1.));
#562=DIRECTION('',(0.,0.,-1.));
#563=DIRECTION('',(0.996194698091746,0.0871557427476582,0.));
#564=DIRECTION('',(1.,0.,0.));
#565=DIRECTION('',(0.0871557427476579,-0.996194698091746,0.));
#566=DIRECTION('',(1.,0.,0.));
#567=DIRECTION('',(-0.0871557427476579,0.996194698091746,0.));
#568=DIRECTION('',(1.,0.,0.));
#569=CARTESIAN_POINT('',(0.,0.,0.));
#570=CARTESIAN_POINT('',(158.,0.,0.));
#571=CARTESIAN_POINT('',(158.,0.,12.2499999999998));
#572=CARTESIAN_POINT('',(159.,0.,0.));
#573=CARTESIAN_POINT('',(159.,0.,11.2499999999998));
#574=CARTESIAN_POINT('',(158.,0.,0.));
#575=CARTESIAN_POINT('',(156.176326980708,0.,0.));
#576=CARTESIAN_POINT('',(156.176326980708,0.,12.2499999999998));
#577=CARTESIAN_POINT('',(0.,0.,0.));
#578=CARTESIAN_POINT('',(155.834306837383,0.,0.));
#579=CARTESIAN_POINT('',(155.834306837383,0.,12.3103073792139));
#580=CARTESIAN_POINT('',(156.176326980708,0.,0.));
#581=CARTESIAN_POINT('',(155.313130645136,0.,0.));
#582=CARTESIAN_POINT('',(155.313130645136,0.,12.5));
#583=CARTESIAN_POINT('',(155.834306837383,0.,0.));
#584=CARTESIAN_POINT('',(105.,0.,0.));
#585=CARTESIAN_POINT('',(105.,0.,12.5));
#586=CARTESIAN_POINT('',(0.,0.,0.));
#587=CARTESIAN_POINT('',(104.117853917113,0.,0.));
#588=CARTESIAN_POINT('',(104.117853917113,0.,12.2636296694842));
#589=CARTESIAN_POINT('',(105.,0.,0.));
#590=CARTESIAN_POINT('',(104.014326299072,0.,0.));
#591=CARTESIAN_POINT('',(104.014326299072,0.,12.2499999999998));
#592=CARTESIAN_POINT('',(104.014326299072,0.,0.));
#593=CARTESIAN_POINT('',(103.28447131951,0.,0.));
#594=CARTESIAN_POINT('',(103.28447131951,0.,12.2499999999998));
#595=CARTESIAN_POINT('',(0.,0.,0.));
#596=CARTESIAN_POINT('',(102.888364092014,0.,0.));
#597=CARTESIAN_POINT('',(102.888364092014,0.,12.7056692403838));
#598=CARTESIAN_POINT('',(103.28447131951,0.,0.));
#599=CARTESIAN_POINT('',(103.,0.,0.));
#600=CARTESIAN_POINT('',(103.,0.,13.5));
#601=CARTESIAN_POINT('',(102.888364092014,0.,0.));
#602=CARTESIAN_POINT('',(103.,0.,0.));
#603=CARTESIAN_POINT('',(103.,0.,16.3));
#604=CARTESIAN_POINT('',(103.,13.5,0.));
#605=CARTESIAN_POINT('',(102.587298334621,0.,0.));
#606=CARTESIAN_POINT('',(102.587298334621,0.,17.));
#607=CARTESIAN_POINT('',(102.2,0.,0.));
#608=CARTESIAN_POINT('',(159.,17.5,0.));
#609=CARTESIAN_POINT('',(98.4868329805052,0.,0.));
#610=CARTESIAN_POINT('',(98.4868329805052,0.,17.));
#611=CARTESIAN_POINT('',(0.,0.,0.));
#612=CARTESIAN_POINT('',(97.5381496824547,0.,0.));
#613=CARTESIAN_POINT('',(97.5381496824547,0.,16.8460498941515));
#614=CARTESIAN_POINT('',(98.4868329805052,0.,0.));
#615=CARTESIAN_POINT('',(86.7697505292423,0.,0.));
#616=CARTESIAN_POINT('',(86.7697505292423,0.,13.2565835097474));
#617=CARTESIAN_POINT('',(97.5381496824547,0.,0.));
#618=CARTESIAN_POINT('',(85.1886116991581,0.,0.));
#619=CARTESIAN_POINT('',(85.1886116991581,0.,13.));
#620=CARTESIAN_POINT('',(85.1886116991581,0.,0.));
#621=CARTESIAN_POINT('',(6.00000000000001,0.,0.));
#622=CARTESIAN_POINT('',(6.00000000000001,0.,13.));
#623=CARTESIAN_POINT('',(0.,0.,0.));
#624=CARTESIAN_POINT('',(2.43719685250847,0.,0.));
#625=CARTESIAN_POINT('',(2.43719685250847,0.,12.8132813990173));
#626=CARTESIAN_POINT('',(6.00000000000001,0.,0.));
#627=CARTESIAN_POINT('',(1.3,0.,0.));
#628=CARTESIAN_POINT('',(1.3,0.,11.6149259573119));
#629=CARTESIAN_POINT('',(2.5,0.,0.));
#630=CARTESIAN_POINT('',(1.3,11.6149259573119,0.));
#631=CARTESIAN_POINT('',(8.46539755339523,0.,0.));
#632=CARTESIAN_POINT('',(8.46539755339523,0.,-0.699204527373618));
#633=CARTESIAN_POINT('',(8.46539755339523,0.,0.));
#634=CARTESIAN_POINT('',(0.55561165054676,0.,0.));
#635=CARTESIAN_POINT('',(0.55561165054676,0.,-0.0999999999999986));
#636=CARTESIAN_POINT('',(0.55561165054676,0.,0.));
#637=CARTESIAN_POINT('',(0.494204803329863,0.,0.));
#638=CARTESIAN_POINT('',(0.494204803329863,0.,-12.7598937789106));
#639=CARTESIAN_POINT('',(0.0687325276416406,0.,0.));
#640=CARTESIAN_POINT('',(0.0687325276416406,0.,-6.71076339573737));
#641=CARTESIAN_POINT('',(0.0687325276416408,-6.49592256755575,1.68443917963472));
#642=CARTESIAN_POINT('',(6.00000000000001,0.,0.));
#643=CARTESIAN_POINT('',(8.41486336239291,0.,0.));
#644=CARTESIAN_POINT('',(8.41486336239291,0.,-12.2077945584829));
#645=CARTESIAN_POINT('',(7.98821760357144,0.,0.));
#646=CARTESIAN_POINT('',(7.98821760357144,0.,-6.14702183757833));
#647=CARTESIAN_POINT('',(8.41486336239289,-11.9962955898181,2.26255167981557));
#648=CARTESIAN_POINT('',(6.00000000000001,0.,0.));
#649=CARTESIAN_POINT('',(1.34806122253303,0.,0.));
#650=CARTESIAN_POINT('',(1.34806122253303,0.,-13.4999986188383));
#651=CARTESIAN_POINT('',(1.29225604353773,-12.4916283808611,2.31461325402015));
#652=CARTESIAN_POINT('',(6.00000000000001,0.,0.));
#653=CARTESIAN_POINT('',(7.67261730118033,0.,0.));
#654=CARTESIAN_POINT('',(7.67261730118033,0.,-13.0589891238941));
#655=CARTESIAN_POINT('',(1.34806122253303,-13.2853078128736,2.39803232376793));
#656=CARTESIAN_POINT('',(6.00000000000001,0.,0.));
#657=CARTESIAN_POINT('',(7.61681212218505,-12.0517950622038,2.26838490941831));
#658=CARTESIAN_POINT('',(6.00000000000001,0.,0.));
#659=CARTESIAN_POINT('',(0.0030442415266084,0.,0.));
#660=CARTESIAN_POINT('',(0.0030442415266084,0.,-6.31666599231657));
#661=CARTESIAN_POINT('',(0.800000000000007,6.3855989800998,0.0999999999999986));
#662=CARTESIAN_POINT('',(6.00000000000001,0.,0.));
#663=CARTESIAN_POINT('',(7.98821760357144,6.14620838173136,0.0999999999999986));
#664=CARTESIAN_POINT('',(6.00000000000001,0.,0.));
#665=CARTESIAN_POINT('',(0.55561165054676,-9.69712685300486E-15,0.0999999999999986));
#666=CARTESIAN_POINT('',(6.00000000000001,0.,0.));
#667=(
GEOMETRIC_REPRESENTATION_CONTEXT(3)
GLOBAL_UNCERTAINTY_ASSIGNED_CONTEXT((#668))
GLOBAL_UNIT_ASSIGNED_CONTEXT((#674,#670,#669))
REPRESENTATION_CONTEXT('ATUM-27XD3-SPGT-07T308-light',
'TOP_LEVEL_ASSEMBLY_PART')
);
#668=UNCERTAINTY_MEASURE_WITH_UNIT(LENGTH_MEASURE(2.E-5),#674,
'DISTANCE_ACCURACY_VALUE','Maximum Tolerance applied to model');
#669=(
NAMED_UNIT(*)
SI_UNIT($,.STERADIAN.)
SOLID_ANGLE_UNIT()
);
#670=(
CONVERSION_BASED_UNIT('DEGREE',#672)
NAMED_UNIT(#671)
PLANE_ANGLE_UNIT()
);
#671=DIMENSIONAL_EXPONENTS(0.,0.,0.,0.,0.,0.,0.);
#672=PLANE_ANGLE_MEASURE_WITH_UNIT(PLANE_ANGLE_MEASURE(0.0174532925),#673);
#673=(
NAMED_UNIT(*)
PLANE_ANGLE_UNIT()
SI_UNIT($,.RADIAN.)
);
#674=(
LENGTH_UNIT()
NAMED_UNIT(*)
SI_UNIT(.MILLI.,.METRE.)
);
ENDSEC;
END-ISO-10303-21;
