ISO-10303-21;
HEADER;
/* Generated by software containing ST-Developer
 * from STEP Tools, Inc. (www.steptools.com) 
 */
/* OPTION: using custom schema-name function */

FILE_DESCRIPTION(
/* description */ (''),
/* implementation_level */ '2;1');

FILE_NAME(
/* name */ 'ATUM-30XD2-WCM-06T308-light.stp',
/* time_stamp */ '2023-10-28T08:11:59+03:00',
/* author */ (''),
/* organization */ (''),
/* preprocessor_version */ 'ST-DEVELOPER v19.4',
/* originating_system */ 'SIEMENS PLM Software NX2306.3001',
/* authorisation */ '');

FILE_SCHEMA (('AUTOMOTIVE_DESIGN { 1 0 10303 214 3 1 1 1 }'));
ENDSEC;

DATA;
#10=SHAPE_REPRESENTATION_RELATIONSHIP('None',
'relationship between STP__ATUM 30XD2 WCM. 06T308-None and STP__ATUM 3
0XD2 WCM. 06T308-None',#22,#11);
#11=ADVANCED_BREP_SHAPE_REPRESENTATION(
'STP__ATUM 30XD2 WCM. 06T308-None',(#82,#83),#739);
#12=SHAPE_DEFINITION_REPRESENTATION(#13,#22);
#13=PRODUCT_DEFINITION_SHAPE('','',#14);
#14=PRODUCT_DEFINITION(' ','',#16,#15);
#15=PRODUCT_DEFINITION_CONTEXT('part definition',#21,'design');
#16=PRODUCT_DEFINITION_FORMATION_WITH_SPECIFIED_SOURCE(' ',' ',#18,
 .NOT_KNOWN.);
#17=PRODUCT_RELATED_PRODUCT_CATEGORY('part','',(#18));
#18=PRODUCT('STP__ATUM 30XD2 WCM. 06T308','STP__ATUM 30XD2 WCM. 06T308',
' ',(#19));
#19=PRODUCT_CONTEXT(' ',#21,'mechanical');
#20=APPLICATION_PROTOCOL_DEFINITION('international standard',
'automotive_design',2010,#21);
#21=APPLICATION_CONTEXT(
'core data for automotive mechanical design processes');
#22=SHAPE_REPRESENTATION('STP__ATUM 30XD2 WCM. 06T308-None',(#433),#739);
#23=DRAUGHTING_PRE_DEFINED_COLOUR('yellow');
#24=SURFACE_OF_REVOLUTION('',#48,#36);
#25=SURFACE_OF_REVOLUTION('',#49,#37);
#26=SURFACE_OF_REVOLUTION('',#50,#38);
#27=SURFACE_OF_REVOLUTION('',#425,#39);
#28=SURFACE_OF_REVOLUTION('',#51,#40);
#29=SURFACE_OF_REVOLUTION('',#52,#41);
#30=SURFACE_OF_REVOLUTION('',#428,#42);
#31=SURFACE_OF_REVOLUTION('',#53,#43);
#32=SURFACE_OF_REVOLUTION('',#54,#44);
#33=SURFACE_OF_REVOLUTION('',#55,#45);
#34=SURFACE_OF_REVOLUTION('',#432,#46);
#35=SURFACE_OF_REVOLUTION('',#56,#47);
#36=AXIS1_PLACEMENT('',#698,#584);
#37=AXIS1_PLACEMENT('',#704,#590);
#38=AXIS1_PLACEMENT('',#708,#594);
#39=AXIS1_PLACEMENT('',#712,#599);
#40=AXIS1_PLACEMENT('',#716,#603);
#41=AXIS1_PLACEMENT('',#720,#607);
#42=AXIS1_PLACEMENT('',#722,#610);
#43=AXIS1_PLACEMENT('',#726,#614);
#44=AXIS1_PLACEMENT('',#730,#618);
#45=AXIS1_PLACEMENT('',#732,#620);
#46=AXIS1_PLACEMENT('',#736,#625);
#47=AXIS1_PLACEMENT('',#738,#627);
#48=LINE('',#697,#57);
#49=LINE('',#703,#58);
#50=LINE('',#707,#59);
#51=LINE('',#715,#60);
#52=LINE('',#719,#61);
#53=LINE('',#725,#62);
#54=LINE('',#729,#63);
#55=LINE('',#731,#64);
#56=LINE('',#737,#65);
#57=VECTOR('',#583,2.13920464266007);
#58=VECTOR('',#589,1.79304659184381);
#59=VECTOR('',#593,5.56208085627863);
#60=VECTOR('',#602,5.56208085627862);
#61=VECTOR('',#606,5.56208085627862);
#62=VECTOR('',#613,2.18137259864386);
#63=VECTOR('',#617,1.64036791275963);
#64=VECTOR('',#619,5.56208085627863);
#65=VECTOR('',#626,5.56208085627864);
#66=PRESENTATION_LAYER_ASSIGNMENT('1','Layer 1',(#82,#83));
#67=STYLED_ITEM('',(#69),#82);
#68=STYLED_ITEM('',(#70),#83);
#69=PRESENTATION_STYLE_ASSIGNMENT((#71));
#70=PRESENTATION_STYLE_ASSIGNMENT((#72));
#71=SURFACE_STYLE_USAGE(.BOTH.,#73);
#72=SURFACE_STYLE_USAGE(.BOTH.,#74);
#73=SURFACE_SIDE_STYLE('',(#75));
#74=SURFACE_SIDE_STYLE('',(#76));
#75=SURFACE_STYLE_FILL_AREA(#77);
#76=SURFACE_STYLE_FILL_AREA(#78);
#77=FILL_AREA_STYLE('',(#79));
#78=FILL_AREA_STYLE('',(#80));
#79=FILL_AREA_STYLE_COLOUR('',#81);
#80=FILL_AREA_STYLE_COLOUR('',#23);
#81=COLOUR_RGB('smoke gray',0.694117647058824,0.694117647058824,0.694117647058824);
#82=MANIFOLD_SOLID_BREP('',#84);
#83=MANIFOLD_SOLID_BREP('',#85);
#84=CLOSED_SHELL('',(#104,#105,#106,#107,#108,#109,#110,#111,#112,#113,
#114,#115,#116,#117,#118,#119,#120,#121,#122,#123));
#85=CLOSED_SHELL('',(#124,#125,#126,#127,#128,#129,#130,#131,#132,#133,
#134,#135,#136,#137));
#86=FACE_OUTER_BOUND('',#230,.T.);
#87=FACE_OUTER_BOUND('',#243,.T.);
#88=FACE_OUTER_BOUND('',#244,.T.);
#89=FACE_OUTER_BOUND('',#245,.T.);
#90=PLANE('',#456);
#91=PLANE('',#459);
#92=PLANE('',#472);
#93=PLANE('',#474);
#94=PLANE('',#476);
#95=CONICAL_SURFACE('',#442,15.8103073792141,20.0000000000143);
#96=CONICAL_SURFACE('',#446,16.,14.9999999999998);
#97=CONICAL_SURFACE('',#454,16.205669240384,82.000000000001);
#98=CONICAL_SURFACE('',#465,21.7447534047188,23.8059435184577);
#99=CYLINDRICAL_SURFACE('',#438,15.75);
#100=CYLINDRICAL_SURFACE('',#444,16.);
#101=CYLINDRICAL_SURFACE('',#450,15.75);
#102=CYLINDRICAL_SURFACE('',#461,22.);
#103=CYLINDRICAL_SURFACE('',#469,14.5);
#104=ADVANCED_FACE('',(#146,#147),#138,.T.);
#105=ADVANCED_FACE('',(#148,#149),#99,.T.);
#106=ADVANCED_FACE('',(#150,#151),#139,.F.);
#107=ADVANCED_FACE('',(#152,#153),#95,.T.);
#108=ADVANCED_FACE('',(#154,#155),#100,.T.);
#109=ADVANCED_FACE('',(#156,#157),#96,.T.);
#110=ADVANCED_FACE('',(#158,#159),#140,.F.);
#111=ADVANCED_FACE('',(#160,#161),#101,.T.);
#112=ADVANCED_FACE('',(#162,#163),#141,.F.);
#113=ADVANCED_FACE('',(#164,#165),#97,.F.);
#114=ADVANCED_FACE('',(#166,#167),#90,.F.);
#115=ADVANCED_FACE('',(#168,#169),#142,.T.);
#116=ADVANCED_FACE('',(#86),#91,.F.);
#117=ADVANCED_FACE('',(#170,#171),#102,.T.);
#118=ADVANCED_FACE('',(#172,#173),#143,.T.);
#119=ADVANCED_FACE('',(#174,#175),#98,.T.);
#120=ADVANCED_FACE('',(#176,#177),#144,.F.);
#121=ADVANCED_FACE('',(#178,#179),#103,.T.);
#122=ADVANCED_FACE('',(#180,#181),#145,.T.);
#123=ADVANCED_FACE('',(#87),#92,.F.);
#124=ADVANCED_FACE('',(#88),#93,.F.);
#125=ADVANCED_FACE('',(#89),#94,.T.);
#126=ADVANCED_FACE('',(#182,#183),#24,.T.);
#127=ADVANCED_FACE('',(#184,#185),#25,.T.);
#128=ADVANCED_FACE('',(#186,#187),#26,.T.);
#129=ADVANCED_FACE('',(#188,#189),#27,.T.);
#130=ADVANCED_FACE('',(#190,#191),#28,.T.);
#131=ADVANCED_FACE('',(#192,#193),#29,.T.);
#132=ADVANCED_FACE('',(#194,#195),#30,.T.);
#133=ADVANCED_FACE('',(#196,#197),#31,.T.);
#134=ADVANCED_FACE('',(#198,#199),#32,.T.);
#135=ADVANCED_FACE('',(#200,#201),#33,.T.);
#136=ADVANCED_FACE('',(#202,#203),#34,.T.);
#137=ADVANCED_FACE('',(#204,#205),#35,.T.);
#138=TOROIDAL_SURFACE('',#436,14.75,0.999999999999972);
#139=TOROIDAL_SURFACE('',#440,16.75,1.00000000000014);
#140=TOROIDAL_SURFACE('',#448,16.15,0.399999999999999);
#141=TOROIDAL_SURFACE('',#452,16.15,0.399999999999986);
#142=TOROIDAL_SURFACE('',#458,21.3,0.799999999999997);
#143=TOROIDAL_SURFACE('',#463,19.,3.);
#144=TOROIDAL_SURFACE('',#467,19.5,5.);
#145=TOROIDAL_SURFACE('',#471,13.1,1.4);
#146=FACE_BOUND('',#206,.T.);
#147=FACE_BOUND('',#207,.T.);
#148=FACE_BOUND('',#208,.T.);
#149=FACE_BOUND('',#209,.T.);
#150=FACE_BOUND('',#210,.T.);
#151=FACE_BOUND('',#211,.T.);
#152=FACE_BOUND('',#212,.T.);
#153=FACE_BOUND('',#213,.T.);
#154=FACE_BOUND('',#214,.T.);
#155=FACE_BOUND('',#215,.T.);
#156=FACE_BOUND('',#216,.T.);
#157=FACE_BOUND('',#217,.T.);
#158=FACE_BOUND('',#218,.T.);
#159=FACE_BOUND('',#219,.T.);
#160=FACE_BOUND('',#220,.T.);
#161=FACE_BOUND('',#221,.T.);
#162=FACE_BOUND('',#222,.T.);
#163=FACE_BOUND('',#223,.T.);
#164=FACE_BOUND('',#224,.T.);
#165=FACE_BOUND('',#225,.T.);
#166=FACE_BOUND('',#226,.T.);
#167=FACE_BOUND('',#227,.T.);
#168=FACE_BOUND('',#228,.T.);
#169=FACE_BOUND('',#229,.T.);
#170=FACE_BOUND('',#231,.T.);
#171=FACE_BOUND('',#232,.T.);
#172=FACE_BOUND('',#233,.T.);
#173=FACE_BOUND('',#234,.T.);
#174=FACE_BOUND('',#235,.T.);
#175=FACE_BOUND('',#236,.T.);
#176=FACE_BOUND('',#237,.T.);
#177=FACE_BOUND('',#238,.T.);
#178=FACE_BOUND('',#239,.T.);
#179=FACE_BOUND('',#240,.T.);
#180=FACE_BOUND('',#241,.T.);
#181=FACE_BOUND('',#242,.T.);
#182=FACE_BOUND('',#246,.T.);
#183=FACE_BOUND('',#247,.T.);
#184=FACE_BOUND('',#248,.T.);
#185=FACE_BOUND('',#249,.T.);
#186=FACE_BOUND('',#250,.T.);
#187=FACE_BOUND('',#251,.T.);
#188=FACE_BOUND('',#252,.T.);
#189=FACE_BOUND('',#253,.T.);
#190=FACE_BOUND('',#254,.T.);
#191=FACE_BOUND('',#255,.T.);
#192=FACE_BOUND('',#256,.T.);
#193=FACE_BOUND('',#257,.T.);
#194=FACE_BOUND('',#258,.T.);
#195=FACE_BOUND('',#259,.T.);
#196=FACE_BOUND('',#260,.T.);
#197=FACE_BOUND('',#261,.T.);
#198=FACE_BOUND('',#262,.T.);
#199=FACE_BOUND('',#263,.T.);
#200=FACE_BOUND('',#264,.T.);
#201=FACE_BOUND('',#265,.T.);
#202=FACE_BOUND('',#266,.T.);
#203=FACE_BOUND('',#267,.T.);
#204=FACE_BOUND('',#268,.T.);
#205=FACE_BOUND('',#269,.T.);
#206=EDGE_LOOP('',(#270));
#207=EDGE_LOOP('',(#271));
#208=EDGE_LOOP('',(#272));
#209=EDGE_LOOP('',(#273));
#210=EDGE_LOOP('',(#274));
#211=EDGE_LOOP('',(#275));
#212=EDGE_LOOP('',(#276));
#213=EDGE_LOOP('',(#277));
#214=EDGE_LOOP('',(#278));
#215=EDGE_LOOP('',(#279));
#216=EDGE_LOOP('',(#280));
#217=EDGE_LOOP('',(#281));
#218=EDGE_LOOP('',(#282));
#219=EDGE_LOOP('',(#283));
#220=EDGE_LOOP('',(#284));
#221=EDGE_LOOP('',(#285));
#222=EDGE_LOOP('',(#286));
#223=EDGE_LOOP('',(#287));
#224=EDGE_LOOP('',(#288));
#225=EDGE_LOOP('',(#289));
#226=EDGE_LOOP('',(#290));
#227=EDGE_LOOP('',(#291));
#228=EDGE_LOOP('',(#292));
#229=EDGE_LOOP('',(#293));
#230=EDGE_LOOP('',(#294));
#231=EDGE_LOOP('',(#295));
#232=EDGE_LOOP('',(#296));
#233=EDGE_LOOP('',(#297));
#234=EDGE_LOOP('',(#298));
#235=EDGE_LOOP('',(#299));
#236=EDGE_LOOP('',(#300));
#237=EDGE_LOOP('',(#301));
#238=EDGE_LOOP('',(#302));
#239=EDGE_LOOP('',(#303));
#240=EDGE_LOOP('',(#304));
#241=EDGE_LOOP('',(#305));
#242=EDGE_LOOP('',(#306));
#243=EDGE_LOOP('',(#307));
#244=EDGE_LOOP('',(#308));
#245=EDGE_LOOP('',(#309));
#246=EDGE_LOOP('',(#310));
#247=EDGE_LOOP('',(#311));
#248=EDGE_LOOP('',(#312));
#249=EDGE_LOOP('',(#313));
#250=EDGE_LOOP('',(#314));
#251=EDGE_LOOP('',(#315));
#252=EDGE_LOOP('',(#316));
#253=EDGE_LOOP('',(#317));
#254=EDGE_LOOP('',(#318));
#255=EDGE_LOOP('',(#319));
#256=EDGE_LOOP('',(#320));
#257=EDGE_LOOP('',(#321));
#258=EDGE_LOOP('',(#322));
#259=EDGE_LOOP('',(#323));
#260=EDGE_LOOP('',(#324));
#261=EDGE_LOOP('',(#325));
#262=EDGE_LOOP('',(#326));
#263=EDGE_LOOP('',(#327));
#264=EDGE_LOOP('',(#328));
#265=EDGE_LOOP('',(#329));
#266=EDGE_LOOP('',(#330));
#267=EDGE_LOOP('',(#331));
#268=EDGE_LOOP('',(#332));
#269=EDGE_LOOP('',(#333));
#270=ORIENTED_EDGE('',*,*,#366,.T.);
#271=ORIENTED_EDGE('',*,*,#367,.T.);
#272=ORIENTED_EDGE('',*,*,#368,.T.);
#273=ORIENTED_EDGE('',*,*,#366,.F.);
#274=ORIENTED_EDGE('',*,*,#369,.T.);
#275=ORIENTED_EDGE('',*,*,#368,.F.);
#276=ORIENTED_EDGE('',*,*,#370,.T.);
#277=ORIENTED_EDGE('',*,*,#369,.F.);
#278=ORIENTED_EDGE('',*,*,#371,.T.);
#279=ORIENTED_EDGE('',*,*,#370,.F.);
#280=ORIENTED_EDGE('',*,*,#372,.T.);
#281=ORIENTED_EDGE('',*,*,#371,.F.);
#282=ORIENTED_EDGE('',*,*,#373,.T.);
#283=ORIENTED_EDGE('',*,*,#372,.F.);
#284=ORIENTED_EDGE('',*,*,#374,.T.);
#285=ORIENTED_EDGE('',*,*,#373,.F.);
#286=ORIENTED_EDGE('',*,*,#375,.T.);
#287=ORIENTED_EDGE('',*,*,#374,.F.);
#288=ORIENTED_EDGE('',*,*,#376,.T.);
#289=ORIENTED_EDGE('',*,*,#375,.F.);
#290=ORIENTED_EDGE('',*,*,#377,.T.);
#291=ORIENTED_EDGE('',*,*,#376,.F.);
#292=ORIENTED_EDGE('',*,*,#378,.T.);
#293=ORIENTED_EDGE('',*,*,#377,.F.);
#294=ORIENTED_EDGE('',*,*,#367,.F.);
#295=ORIENTED_EDGE('',*,*,#379,.T.);
#296=ORIENTED_EDGE('',*,*,#378,.F.);
#297=ORIENTED_EDGE('',*,*,#380,.T.);
#298=ORIENTED_EDGE('',*,*,#379,.F.);
#299=ORIENTED_EDGE('',*,*,#381,.T.);
#300=ORIENTED_EDGE('',*,*,#380,.F.);
#301=ORIENTED_EDGE('',*,*,#382,.T.);
#302=ORIENTED_EDGE('',*,*,#381,.F.);
#303=ORIENTED_EDGE('',*,*,#382,.F.);
#304=ORIENTED_EDGE('',*,*,#383,.T.);
#305=ORIENTED_EDGE('',*,*,#384,.T.);
#306=ORIENTED_EDGE('',*,*,#383,.F.);
#307=ORIENTED_EDGE('',*,*,#384,.F.);
#308=ORIENTED_EDGE('',*,*,#385,.F.);
#309=ORIENTED_EDGE('',*,*,#386,.T.);
#310=ORIENTED_EDGE('',*,*,#387,.T.);
#311=ORIENTED_EDGE('',*,*,#388,.F.);
#312=ORIENTED_EDGE('',*,*,#389,.F.);
#313=ORIENTED_EDGE('',*,*,#390,.F.);
#314=ORIENTED_EDGE('',*,*,#391,.F.);
#315=ORIENTED_EDGE('',*,*,#389,.T.);
#316=ORIENTED_EDGE('',*,*,#392,.F.);
#317=ORIENTED_EDGE('',*,*,#391,.T.);
#318=ORIENTED_EDGE('',*,*,#393,.F.);
#319=ORIENTED_EDGE('',*,*,#392,.T.);
#320=ORIENTED_EDGE('',*,*,#394,.F.);
#321=ORIENTED_EDGE('',*,*,#393,.T.);
#322=ORIENTED_EDGE('',*,*,#387,.F.);
#323=ORIENTED_EDGE('',*,*,#394,.T.);
#324=ORIENTED_EDGE('',*,*,#395,.F.);
#325=ORIENTED_EDGE('',*,*,#388,.T.);
#326=ORIENTED_EDGE('',*,*,#396,.T.);
#327=ORIENTED_EDGE('',*,*,#390,.T.);
#328=ORIENTED_EDGE('',*,*,#396,.F.);
#329=ORIENTED_EDGE('',*,*,#385,.T.);
#330=ORIENTED_EDGE('',*,*,#397,.F.);
#331=ORIENTED_EDGE('',*,*,#395,.T.);
#332=ORIENTED_EDGE('',*,*,#386,.F.);
#333=ORIENTED_EDGE('',*,*,#397,.T.);
#334=VERTEX_POINT('',#630);
#335=VERTEX_POINT('',#632);
#336=VERTEX_POINT('',#635);
#337=VERTEX_POINT('',#638);
#338=VERTEX_POINT('',#641);
#339=VERTEX_POINT('',#644);
#340=VERTEX_POINT('',#647);
#341=VERTEX_POINT('',#650);
#342=VERTEX_POINT('',#653);
#343=VERTEX_POINT('',#656);
#344=VERTEX_POINT('',#659);
#345=VERTEX_POINT('',#662);
#346=VERTEX_POINT('',#665);
#347=VERTEX_POINT('',#669);
#348=VERTEX_POINT('',#672);
#349=VERTEX_POINT('',#675);
#350=VERTEX_POINT('',#678);
#351=VERTEX_POINT('',#681);
#352=VERTEX_POINT('',#684);
#353=VERTEX_POINT('',#688);
#354=VERTEX_POINT('',#691);
#355=VERTEX_POINT('',#694);
#356=VERTEX_POINT('',#696);
#357=VERTEX_POINT('',#700);
#358=VERTEX_POINT('',#702);
#359=VERTEX_POINT('',#706);
#360=VERTEX_POINT('',#710);
#361=VERTEX_POINT('',#714);
#362=VERTEX_POINT('',#718);
#363=VERTEX_POINT('',#724);
#364=VERTEX_POINT('',#728);
#365=VERTEX_POINT('',#734);
#366=EDGE_CURVE('',#334,#334,#398,.T.);
#367=EDGE_CURVE('',#335,#335,#399,.T.);
#368=EDGE_CURVE('',#336,#336,#400,.T.);
#369=EDGE_CURVE('',#337,#337,#401,.T.);
#370=EDGE_CURVE('',#338,#338,#402,.T.);
#371=EDGE_CURVE('',#339,#339,#403,.T.);
#372=EDGE_CURVE('',#340,#340,#404,.T.);
#373=EDGE_CURVE('',#341,#341,#405,.T.);
#374=EDGE_CURVE('',#342,#342,#406,.T.);
#375=EDGE_CURVE('',#343,#343,#407,.T.);
#376=EDGE_CURVE('',#344,#344,#408,.T.);
#377=EDGE_CURVE('',#345,#345,#409,.T.);
#378=EDGE_CURVE('',#346,#346,#410,.T.);
#379=EDGE_CURVE('',#347,#347,#411,.T.);
#380=EDGE_CURVE('',#348,#348,#412,.T.);
#381=EDGE_CURVE('',#349,#349,#413,.T.);
#382=EDGE_CURVE('',#350,#350,#414,.T.);
#383=EDGE_CURVE('',#351,#351,#415,.T.);
#384=EDGE_CURVE('',#352,#352,#416,.T.);
#385=EDGE_CURVE('',#353,#353,#417,.T.);
#386=EDGE_CURVE('',#354,#354,#418,.T.);
#387=EDGE_CURVE('',#355,#355,#419,.T.);
#388=EDGE_CURVE('',#356,#356,#420,.T.);
#389=EDGE_CURVE('',#357,#357,#421,.T.);
#390=EDGE_CURVE('',#358,#358,#422,.T.);
#391=EDGE_CURVE('',#359,#359,#423,.T.);
#392=EDGE_CURVE('',#360,#360,#424,.T.);
#393=EDGE_CURVE('',#361,#361,#426,.T.);
#394=EDGE_CURVE('',#362,#362,#427,.T.);
#395=EDGE_CURVE('',#363,#363,#429,.T.);
#396=EDGE_CURVE('',#364,#364,#430,.T.);
#397=EDGE_CURVE('',#365,#365,#431,.T.);
#398=CIRCLE('',#434,15.75);
#399=CIRCLE('',#435,14.75);
#400=CIRCLE('',#437,15.75);
#401=CIRCLE('',#439,15.8103073792141);
#402=CIRCLE('',#441,16.);
#403=CIRCLE('',#443,16.);
#404=CIRCLE('',#445,15.7636296694844);
#405=CIRCLE('',#447,15.75);
#406=CIRCLE('',#449,15.75);
#407=CIRCLE('',#451,16.205669240384);
#408=CIRCLE('',#453,17.);
#409=CIRCLE('',#455,21.3);
#410=CIRCLE('',#457,22.);
#411=CIRCLE('',#460,22.);
#412=CIRCLE('',#462,21.7447534047188);
#413=CIRCLE('',#464,14.9254109921353);
#414=CIRCLE('',#466,14.5);
#415=CIRCLE('',#468,14.5);
#416=CIRCLE('',#470,13.1);
#417=CIRCLE('',#473,0.0999999999999954);
#418=CIRCLE('',#475,0.936850330713362);
#419=CIRCLE('',#477,8.35523104916071);
#420=CIRCLE('',#478,6.97873984386744);
#421=CIRCLE('',#479,8.87008188348844);
#422=CIRCLE('',#480,7.12090508053337);
#423=CIRCLE('',#481,14.3337763923525);
#424=CIRCLE('',#482,14.9538469418905);
#425=CIRCLE('',#483,0.800000000000003);
#426=CIRCLE('',#484,13.099193588667);
#427=CIRCLE('',#485,9.57317485173085);
#428=CIRCLE('',#486,0.800000000000005);
#429=CIRCLE('',#487,5.48443435091315);
#430=CIRCLE('',#488,5.52437513559383);
#431=CIRCLE('',#489,4.26099031657714);
#432=CIRCLE('',#490,0.799999999999998);
#433=AXIS2_PLACEMENT_3D('',#628,#491,#492);
#434=AXIS2_PLACEMENT_3D('',#629,#493,#494);
#435=AXIS2_PLACEMENT_3D('',#631,#495,#496);
#436=AXIS2_PLACEMENT_3D('',#633,#497,#498);
#437=AXIS2_PLACEMENT_3D('',#634,#499,#500);
#438=AXIS2_PLACEMENT_3D('',#636,#501,#502);
#439=AXIS2_PLACEMENT_3D('',#637,#503,#504);
#440=AXIS2_PLACEMENT_3D('',#639,#505,#506);
#441=AXIS2_PLACEMENT_3D('',#640,#507,#508);
#442=AXIS2_PLACEMENT_3D('',#642,#509,#510);
#443=AXIS2_PLACEMENT_3D('',#643,#511,#512);
#444=AXIS2_PLACEMENT_3D('',#645,#513,#514);
#445=AXIS2_PLACEMENT_3D('',#646,#515,#516);
#446=AXIS2_PLACEMENT_3D('',#648,#517,#518);
#447=AXIS2_PLACEMENT_3D('',#649,#519,#520);
#448=AXIS2_PLACEMENT_3D('',#651,#521,#522);
#449=AXIS2_PLACEMENT_3D('',#652,#523,#524);
#450=AXIS2_PLACEMENT_3D('',#654,#525,#526);
#451=AXIS2_PLACEMENT_3D('',#655,#527,#528);
#452=AXIS2_PLACEMENT_3D('',#657,#529,#530);
#453=AXIS2_PLACEMENT_3D('',#658,#531,#532);
#454=AXIS2_PLACEMENT_3D('',#660,#533,#534);
#455=AXIS2_PLACEMENT_3D('',#661,#535,#536);
#456=AXIS2_PLACEMENT_3D('',#663,#537,#538);
#457=AXIS2_PLACEMENT_3D('',#664,#539,#540);
#458=AXIS2_PLACEMENT_3D('',#666,#541,#542);
#459=AXIS2_PLACEMENT_3D('',#667,#543,#544);
#460=AXIS2_PLACEMENT_3D('',#668,#545,#546);
#461=AXIS2_PLACEMENT_3D('',#670,#547,#548);
#462=AXIS2_PLACEMENT_3D('',#671,#549,#550);
#463=AXIS2_PLACEMENT_3D('',#673,#551,#552);
#464=AXIS2_PLACEMENT_3D('',#674,#553,#554);
#465=AXIS2_PLACEMENT_3D('',#676,#555,#556);
#466=AXIS2_PLACEMENT_3D('',#677,#557,#558);
#467=AXIS2_PLACEMENT_3D('',#679,#559,#560);
#468=AXIS2_PLACEMENT_3D('',#680,#561,#562);
#469=AXIS2_PLACEMENT_3D('',#682,#563,#564);
#470=AXIS2_PLACEMENT_3D('',#683,#565,#566);
#471=AXIS2_PLACEMENT_3D('',#685,#567,#568);
#472=AXIS2_PLACEMENT_3D('',#686,#569,#570);
#473=AXIS2_PLACEMENT_3D('',#687,#571,#572);
#474=AXIS2_PLACEMENT_3D('',#689,#573,#574);
#475=AXIS2_PLACEMENT_3D('',#690,#575,#576);
#476=AXIS2_PLACEMENT_3D('',#692,#577,#578);
#477=AXIS2_PLACEMENT_3D('',#693,#579,#580);
#478=AXIS2_PLACEMENT_3D('',#695,#581,#582);
#479=AXIS2_PLACEMENT_3D('',#699,#585,#586);
#480=AXIS2_PLACEMENT_3D('',#701,#587,#588);
#481=AXIS2_PLACEMENT_3D('',#705,#591,#592);
#482=AXIS2_PLACEMENT_3D('',#709,#595,#596);
#483=AXIS2_PLACEMENT_3D('',#711,#597,#598);
#484=AXIS2_PLACEMENT_3D('',#713,#600,#601);
#485=AXIS2_PLACEMENT_3D('',#717,#604,#605);
#486=AXIS2_PLACEMENT_3D('',#721,#608,#609);
#487=AXIS2_PLACEMENT_3D('',#723,#611,#612);
#488=AXIS2_PLACEMENT_3D('',#727,#615,#616);
#489=AXIS2_PLACEMENT_3D('',#733,#621,#622);
#490=AXIS2_PLACEMENT_3D('',#735,#623,#624);
#491=DIRECTION('',(0.,0.,1.));
#492=DIRECTION('',(1.,0.,0.));
#493=DIRECTION('',(1.,0.,0.));
#494=DIRECTION('',(0.,0.,1.));
#495=DIRECTION('',(-1.,0.,0.));
#496=DIRECTION('',(0.,0.,1.));
#497=DIRECTION('',(-1.,0.,0.));
#498=DIRECTION('',(0.,0.,1.));
#499=DIRECTION('',(1.,0.,0.));
#500=DIRECTION('',(0.,0.,1.));
#501=DIRECTION('',(-1.,0.,0.));
#502=DIRECTION('',(0.,0.,1.));
#503=DIRECTION('',(1.,0.,0.));
#504=DIRECTION('',(0.,0.,1.));
#505=DIRECTION('',(-1.,0.,0.));
#506=DIRECTION('',(0.,0.,1.));
#507=DIRECTION('',(1.,0.,0.));
#508=DIRECTION('',(0.,0.,1.));
#509=DIRECTION('',(-1.,0.,0.));
#510=DIRECTION('',(0.,0.,1.));
#511=DIRECTION('',(1.,0.,0.));
#512=DIRECTION('',(0.,0.,1.));
#513=DIRECTION('',(-1.,0.,0.));
#514=DIRECTION('',(0.,0.,1.));
#515=DIRECTION('',(1.,0.,0.));
#516=DIRECTION('',(0.,0.,1.));
#517=DIRECTION('',(1.,0.,0.));
#518=DIRECTION('',(-9.77483872307961E-17,0.,-1.));
#519=DIRECTION('',(1.,0.,0.));
#520=DIRECTION('',(0.,0.,1.));
#521=DIRECTION('',(-1.,0.,0.));
#522=DIRECTION('',(0.,0.,1.));
#523=DIRECTION('',(1.,0.,0.));
#524=DIRECTION('',(0.,0.,1.));
#525=DIRECTION('',(-1.,0.,0.));
#526=DIRECTION('',(0.,0.,1.));
#527=DIRECTION('',(1.,0.,0.));
#528=DIRECTION('',(0.,0.,1.));
#529=DIRECTION('',(-1.,0.,0.));
#530=DIRECTION('',(0.,0.,1.));
#531=DIRECTION('',(1.,0.,0.));
#532=DIRECTION('',(0.,0.,1.));
#533=DIRECTION('',(1.,0.,0.));
#534=DIRECTION('',(-1.16757830176857E-17,0.,-1.));
#535=DIRECTION('',(1.,0.,0.));
#536=DIRECTION('',(0.,0.,1.));
#537=DIRECTION('',(-1.,0.,0.));
#538=DIRECTION('',(0.,0.,1.));
#539=DIRECTION('',(1.,0.,0.));
#540=DIRECTION('',(0.,0.,1.));
#541=DIRECTION('',(-1.,0.,0.));
#542=DIRECTION('',(0.,0.,1.));
#543=DIRECTION('',(-1.,0.,0.));
#544=DIRECTION('',(0.,0.,1.));
#545=DIRECTION('',(1.,0.,0.));
#546=DIRECTION('',(0.,0.,1.));
#547=DIRECTION('',(-1.,0.,0.));
#548=DIRECTION('',(0.,0.,1.));
#549=DIRECTION('',(1.,0.,0.));
#550=DIRECTION('',(0.,0.,1.));
#551=DIRECTION('',(-1.,0.,0.));
#552=DIRECTION('',(0.,0.,1.));
#553=DIRECTION('',(1.,0.,0.));
#554=DIRECTION('',(0.,0.,1.));
#555=DIRECTION('',(1.,0.,0.));
#556=DIRECTION('',(-5.99574488640239E-17,0.,-1.));
#557=DIRECTION('',(1.,0.,0.));
#558=DIRECTION('',(0.,0.,1.));
#559=DIRECTION('',(-1.,0.,0.));
#560=DIRECTION('',(0.,0.,1.));
#561=DIRECTION('',(1.,0.,0.));
#562=DIRECTION('',(0.,0.,-1.));
#563=DIRECTION('',(-1.,0.,0.));
#564=DIRECTION('',(0.,0.,1.));
#565=DIRECTION('',(1.,0.,0.));
#566=DIRECTION('',(0.,0.,-1.));
#567=DIRECTION('',(1.,0.,0.));
#568=DIRECTION('',(0.,0.,-1.));
#569=DIRECTION('',(1.,0.,0.));
#570=DIRECTION('',(0.,0.,-1.));
#571=DIRECTION('',(1.,0.,0.));
#572=DIRECTION('',(0.,0.,-1.));
#573=DIRECTION('',(1.,0.,0.));
#574=DIRECTION('',(0.,0.,-1.));
#575=DIRECTION('',(1.,0.,0.));
#576=DIRECTION('',(0.,0.,-1.));
#577=DIRECTION('',(1.,0.,0.));
#578=DIRECTION('',(0.,0.,-1.));
#579=DIRECTION('',(1.,0.,0.));
#580=DIRECTION('',(0.,0.,-1.));
#581=DIRECTION('',(1.,0.,0.));
#582=DIRECTION('',(0.,0.,-1.));
#583=DIRECTION('',(-0.760745911552609,0.649049811690898,0.));
#584=DIRECTION('',(1.,0.,0.));
#585=DIRECTION('',(1.,0.,0.));
#586=DIRECTION('',(0.,0.,-1.));
#587=DIRECTION('',(-1.,0.,0.));
#588=DIRECTION('',(0.,0.,-1.));
#589=DIRECTION('',(-0.181720669469519,-0.983350191075158,-3.898548764395E-17));
#590=DIRECTION('',(1.,0.,0.));
#591=DIRECTION('',(1.,0.,0.));
#592=DIRECTION('',(0.,0.,-1.));
#593=DIRECTION('',(0.165564001146067,-0.98619904761894,-3.89854876439499E-17));
#594=DIRECTION('',(1.,0.,0.));
#595=DIRECTION('',(1.,0.,0.));
#596=DIRECTION('',(0.,0.,-1.));
#597=DIRECTION('',(-1.96532040069033E-17,-4.08423859317777E-17,1.));
#598=DIRECTION('',(0.936855428999055,-0.34971689286478,4.12893856584784E-18));
#599=DIRECTION('',(1.,0.,0.));
#600=DIRECTION('',(1.,0.,0.));
#601=DIRECTION('',(0.,0.,-1.));
#602=DIRECTION('',(0.942466581022128,0.334300379384259,3.898548764395E-17));
#603=DIRECTION('',(1.,0.,0.));
#604=DIRECTION('',(1.,0.,0.));
#605=DIRECTION('',(0.,0.,-1.));
#606=DIRECTION('',(0.771291427852988,0.63648215475416,3.89854876439499E-17));
#607=DIRECTION('',(1.,0.,0.));
#608=DIRECTION('',(-1.96532040069033E-17,-4.08423859317777E-17,1.));
#609=DIRECTION('',(0.936855428999055,-0.34971689286478,4.12893856584784E-18));
#610=DIRECTION('',(1.,0.,0.));
#611=DIRECTION('',(1.,0.,0.));
#612=DIRECTION('',(0.,0.,-1.));
#613=DIRECTION('',(0.72843076060469,-0.684180492998035,-0.0358563802668034));
#614=DIRECTION('',(1.,0.,0.));
#615=DIRECTION('',(1.,0.,0.));
#616=DIRECTION('',(0.,0.,-1.));
#617=DIRECTION('',(0.229115446685139,0.972065246410782,0.0509437808826114));
#618=DIRECTION('',(1.,0.,0.));
#619=DIRECTION('',(-0.117624058581535,0.991697244356274,0.0519726502978238));
#620=DIRECTION('',(1.,0.,0.));
#621=DIRECTION('',(1.,0.,0.));
#622=DIRECTION('',(0.,0.,-1.));
#623=DIRECTION('',(0.,0.0523359562429439,-0.998629534754574));
#624=DIRECTION('',(0.957546207289831,0.287884753412748,0.015087400615808));
#625=DIRECTION('',(1.,0.,0.));
#626=DIRECTION('',(-0.801201595968801,-0.59757444198428,-0.0313175494606986));
#627=DIRECTION('',(1.,0.,0.));
#628=CARTESIAN_POINT('',(0.,0.,0.));
#629=CARTESIAN_POINT('',(146.,0.,0.));
#630=CARTESIAN_POINT('',(146.,0.,15.75));
#631=CARTESIAN_POINT('',(147.,0.,0.));
#632=CARTESIAN_POINT('',(147.,0.,14.75));
#633=CARTESIAN_POINT('',(146.,0.,0.));
#634=CARTESIAN_POINT('',(144.176326980709,0.,0.));
#635=CARTESIAN_POINT('',(144.176326980709,0.,15.75));
#636=CARTESIAN_POINT('',(0.,0.,0.));
#637=CARTESIAN_POINT('',(143.834306837383,0.,0.));
#638=CARTESIAN_POINT('',(143.834306837383,0.,15.8103073792141));
#639=CARTESIAN_POINT('',(144.176326980709,0.,0.));
#640=CARTESIAN_POINT('',(143.313130645137,0.,0.));
#641=CARTESIAN_POINT('',(143.313130645137,0.,16.));
#642=CARTESIAN_POINT('',(143.834306837383,0.,0.));
#643=CARTESIAN_POINT('',(89.,0.,0.));
#644=CARTESIAN_POINT('',(89.,0.,16.));
#645=CARTESIAN_POINT('',(0.,0.,0.));
#646=CARTESIAN_POINT('',(88.1178539171138,0.,0.));
#647=CARTESIAN_POINT('',(88.1178539171138,0.,15.7636296694844));
#648=CARTESIAN_POINT('',(89.,0.,0.));
#649=CARTESIAN_POINT('',(88.0143262990728,0.,0.));
#650=CARTESIAN_POINT('',(88.0143262990728,0.,15.75));
#651=CARTESIAN_POINT('',(88.0143262990728,0.,0.));
#652=CARTESIAN_POINT('',(87.2844713195104,0.,0.));
#653=CARTESIAN_POINT('',(87.2844713195104,0.,15.75));
#654=CARTESIAN_POINT('',(0.,0.,0.));
#655=CARTESIAN_POINT('',(86.8883640920138,0.,0.));
#656=CARTESIAN_POINT('',(86.8883640920138,0.,16.205669240384));
#657=CARTESIAN_POINT('',(87.2844713195104,0.,0.));
#658=CARTESIAN_POINT('',(87.,0.,0.));
#659=CARTESIAN_POINT('',(87.,0.,17.));
#660=CARTESIAN_POINT('',(86.8883640920138,0.,0.));
#661=CARTESIAN_POINT('',(87.,0.,0.));
#662=CARTESIAN_POINT('',(87.,0.,21.3));
#663=CARTESIAN_POINT('',(87.,17.,0.));
#664=CARTESIAN_POINT('',(86.5872983346207,0.,0.));
#665=CARTESIAN_POINT('',(86.5872983346207,0.,22.));
#666=CARTESIAN_POINT('',(86.2,0.,0.));
#667=CARTESIAN_POINT('',(147.,22.5,0.));
#668=CARTESIAN_POINT('',(82.6323616704248,0.,0.));
#669=CARTESIAN_POINT('',(82.6323616704248,0.,22.));
#670=CARTESIAN_POINT('',(0.,0.,0.));
#671=CARTESIAN_POINT('',(81.421441050696,0.,0.));
#672=CARTESIAN_POINT('',(81.421441050696,0.,21.7447534047188));
#673=CARTESIAN_POINT('',(82.6323616704248,0.,0.));
#674=CARTESIAN_POINT('',(65.9642649155068,0.,0.));
#675=CARTESIAN_POINT('',(65.9642649155068,0.,14.9254109921353));
#676=CARTESIAN_POINT('',(81.421441050696,0.,0.));
#677=CARTESIAN_POINT('',(63.9460638826253,0.,0.));
#678=CARTESIAN_POINT('',(63.9460638826253,0.,14.5));
#679=CARTESIAN_POINT('',(63.9460638826253,0.,0.));
#680=CARTESIAN_POINT('',(2.2,0.,0.));
#681=CARTESIAN_POINT('',(2.2,0.,-14.5));
#682=CARTESIAN_POINT('',(0.,0.,0.));
#683=CARTESIAN_POINT('',(0.800000000000001,0.,0.));
#684=CARTESIAN_POINT('',(0.800000000000001,0.,-13.1));
#685=CARTESIAN_POINT('',(2.2,0.,0.));
#686=CARTESIAN_POINT('',(0.800000000000001,12.7941135957613,0.));
#687=CARTESIAN_POINT('',(0.654234524474155,0.,0.));
#688=CARTESIAN_POINT('',(0.654234524474155,0.,-0.0999999999999954));
#689=CARTESIAN_POINT('',(0.654234524474155,0.,0.));
#690=CARTESIAN_POINT('',(7.00525437464526,0.,0.));
#691=CARTESIAN_POINT('',(7.00525437464526,0.,-0.936850330713362));
#692=CARTESIAN_POINT('',(7.00525437464526,0.,0.));
#693=CARTESIAN_POINT('',(11.5693946418738,0.,0.));
#694=CARTESIAN_POINT('',(11.5693946418738,0.,-8.35523104916071));
#695=CARTESIAN_POINT('',(9.94200345599584,0.,0.));
#696=CARTESIAN_POINT('',(9.94200345599584,0.,-6.97873984386744));
#697=CARTESIAN_POINT('',(11.5693946418738,-8.29517244455226,1.));
#698=CARTESIAN_POINT('',(2.2,0.,0.));
#699=CARTESIAN_POINT('',(0.0499999999999936,0.,0.));
#700=CARTESIAN_POINT('',(0.0499999999999936,0.,-8.87008188348844));
#701=CARTESIAN_POINT('',(0.375833627059892,0.,0.));
#702=CARTESIAN_POINT('',(0.375833627059892,0.,-7.12090508053337));
#703=CARTESIAN_POINT('',(0.375833627059892,-7.05033964897904,1.));
#704=CARTESIAN_POINT('',(2.2,0.,0.));
#705=CARTESIAN_POINT('',(0.970880361263427,0.,0.));
#706=CARTESIAN_POINT('',(0.970880361263427,0.,-14.3337763923525));
#707=CARTESIAN_POINT('',(0.0499999999999935,-8.81353235767532,1.));
#708=CARTESIAN_POINT('',(2.2,0.,0.));
#709=CARTESIAN_POINT('',(2.02727990286599,0.,0.));
#710=CARTESIAN_POINT('',(2.02727990286599,0.,-14.9538469418905));
#711=CARTESIAN_POINT('',(1.75983959935859,-14.1664,1.));
#712=CARTESIAN_POINT('',(2.2,0.,0.));
#713=CARTESIAN_POINT('',(7.26935523085154,0.,0.));
#714=CARTESIAN_POINT('',(7.26935523085154,0.,-13.099193588667));
#715=CARTESIAN_POINT('',(2.02727990286599,-14.9203732648177,1.));
#716=CARTESIAN_POINT('',(2.2,0.,0.));
#717=CARTESIAN_POINT('',(11.5593405163244,0.,0.));
#718=CARTESIAN_POINT('',(11.5593405163244,0.,-9.57317485173085));
#719=CARTESIAN_POINT('',(7.26935523085154,-13.0609675243978,1.));
#720=CARTESIAN_POINT('',(2.2,0.,0.));
#721=CARTESIAN_POINT('',(11.0501547925211,-8.90376917379435,1.));
#722=CARTESIAN_POINT('',(2.2,0.,0.));
#723=CARTESIAN_POINT('',(11.5309823571882,0.,0.));
#724=CARTESIAN_POINT('',(11.5309823571882,0.,-5.48443435091315));
#725=CARTESIAN_POINT('',(9.94200345599584,6.96322661125867,0.465064477940431));
#726=CARTESIAN_POINT('',(2.2,0.,0.));
#727=CARTESIAN_POINT('',(1.73472347597681E-15,0.,0.));
#728=CARTESIAN_POINT('',(1.73472347597681E-15,0.,-5.52437513559383));
#729=CARTESIAN_POINT('',(-2.11881462585144E-16,5.51066666243402,0.388939036747043));
#730=CARTESIAN_POINT('',(2.2,0.,0.));
#731=CARTESIAN_POINT('',(0.654234524474155,-0.00523359562428537,0.0998629534754532));
#732=CARTESIAN_POINT('',(2.2,0.,0.));
#733=CARTESIAN_POINT('',(11.4616024336032,0.,0.));
#734=CARTESIAN_POINT('',(11.4616024336032,0.,-4.26099031657714));
#735=CARTESIAN_POINT('',(10.9828868169007,4.88882805405526,0.356349856209455));
#736=CARTESIAN_POINT('',(2.2,0.,0.));
#737=CARTESIAN_POINT('',(11.4616024336032,4.2487451924337,0.322804534874735));
#738=CARTESIAN_POINT('',(2.2,0.,0.));
#739=(
GEOMETRIC_REPRESENTATION_CONTEXT(3)
GLOBAL_UNCERTAINTY_ASSIGNED_CONTEXT((#740))
GLOBAL_UNIT_ASSIGNED_CONTEXT((#746,#742,#741))
REPRESENTATION_CONTEXT('ATUM-30XD2-WCM-06T308-light',
'TOP_LEVEL_ASSEMBLY_PART')
);
#740=UNCERTAINTY_MEASURE_WITH_UNIT(LENGTH_MEASURE(2.E-5),#746,
'DISTANCE_ACCURACY_VALUE','Maximum Tolerance applied to model');
#741=(
NAMED_UNIT(*)
SI_UNIT($,.STERADIAN.)
SOLID_ANGLE_UNIT()
);
#742=(
CONVERSION_BASED_UNIT('DEGREE',#744)
NAMED_UNIT(#743)
PLANE_ANGLE_UNIT()
);
#743=DIMENSIONAL_EXPONENTS(0.,0.,0.,0.,0.,0.,0.);
#744=PLANE_ANGLE_MEASURE_WITH_UNIT(PLANE_ANGLE_MEASURE(0.0174532925),#745);
#745=(
NAMED_UNIT(*)
PLANE_ANGLE_UNIT()
SI_UNIT($,.RADIAN.)
);
#746=(
LENGTH_UNIT()
NAMED_UNIT(*)
SI_UNIT(.MILLI.,.METRE.)
);
ENDSEC;
END-ISO-10303-21;
