ISO-10303-21;
HEADER;
/* Generated by software containing ST-Developer
 * from STEP Tools, Inc. (www.steptools.com) 
 */
/* OPTION: using custom schema-name function */

FILE_DESCRIPTION(
/* description */ (''),
/* implementation_level */ '2;1');

FILE_NAME(
/* name */ 'ATUM-33XD4-SO-09T306-light.stp',
/* time_stamp */ '2023-10-31T17:49:54+03:00',
/* author */ (''),
/* organization */ (''),
/* preprocessor_version */ 'ST-DEVELOPER v19.4',
/* originating_system */ 'SIEMENS PLM Software NX2306.3001',
/* authorisation */ '');

FILE_SCHEMA (('AUTOMOTIVE_DESIGN { 1 0 10303 214 3 1 1 1 }'));
ENDSEC;

DATA;
#10=SHAPE_REPRESENTATION_RELATIONSHIP('None',
'relationship between STP_ATUM 25XD4 SO.. 09T306-None and STP_ATUM 25X
D4 SO.. 09T306-None',#22,#11);
#11=ADVANCED_BREP_SHAPE_REPRESENTATION(
'STP_ATUM 25XD4 SO.. 09T306-None',(#68,#69),#691);
#12=SHAPE_DEFINITION_REPRESENTATION(#13,#22);
#13=PRODUCT_DEFINITION_SHAPE('','',#14);
#14=PRODUCT_DEFINITION(' ','',#16,#15);
#15=PRODUCT_DEFINITION_CONTEXT('part definition',#21,'design');
#16=PRODUCT_DEFINITION_FORMATION_WITH_SPECIFIED_SOURCE(' ',' ',#18,
 .NOT_KNOWN.);
#17=PRODUCT_RELATED_PRODUCT_CATEGORY('part','',(#18));
#18=PRODUCT('STP_ATUM 25XD4 SO.. 09T306','STP_ATUM 25XD4 SO.. 09T306',
' ',(#19));
#19=PRODUCT_CONTEXT(' ',#21,'mechanical');
#20=APPLICATION_PROTOCOL_DEFINITION('international standard',
'automotive_design',2010,#21);
#21=APPLICATION_CONTEXT(
'core data for automotive mechanical design processes');
#22=SHAPE_REPRESENTATION('STP_ATUM 25XD4 SO.. 09T306-None',(#401),#691);
#23=DRAUGHTING_PRE_DEFINED_COLOUR('yellow');
#24=SURFACE_OF_REVOLUTION('',#42,#33);
#25=SURFACE_OF_REVOLUTION('',#393,#34);
#26=SURFACE_OF_REVOLUTION('',#43,#35);
#27=SURFACE_OF_REVOLUTION('',#396,#36);
#28=SURFACE_OF_REVOLUTION('',#44,#37);
#29=SURFACE_OF_REVOLUTION('',#398,#38);
#30=SURFACE_OF_REVOLUTION('',#45,#39);
#31=SURFACE_OF_REVOLUTION('',#400,#40);
#32=SURFACE_OF_REVOLUTION('',#46,#41);
#33=AXIS1_PLACEMENT('',#662,#556);
#34=AXIS1_PLACEMENT('',#668,#563);
#35=AXIS1_PLACEMENT('',#672,#567);
#36=AXIS1_PLACEMENT('',#676,#572);
#37=AXIS1_PLACEMENT('',#680,#576);
#38=AXIS1_PLACEMENT('',#682,#579);
#39=AXIS1_PLACEMENT('',#684,#581);
#40=AXIS1_PLACEMENT('',#688,#586);
#41=AXIS1_PLACEMENT('',#690,#588);
#42=LINE('',#661,#47);
#43=LINE('',#671,#48);
#44=LINE('',#679,#49);
#45=LINE('',#683,#50);
#46=LINE('',#689,#51);
#47=VECTOR('',#555,7.72775335657449);
#48=VECTOR('',#566,7.79999999999999);
#49=VECTOR('',#575,7.79999999999998);
#50=VECTOR('',#580,7.01097400527183);
#51=VECTOR('',#587,7.8);
#52=PRESENTATION_LAYER_ASSIGNMENT('1','Layer 1',(#68,#69));
#53=STYLED_ITEM('',(#55),#68);
#54=STYLED_ITEM('',(#56),#69);
#55=PRESENTATION_STYLE_ASSIGNMENT((#57));
#56=PRESENTATION_STYLE_ASSIGNMENT((#58));
#57=SURFACE_STYLE_USAGE(.BOTH.,#59);
#58=SURFACE_STYLE_USAGE(.BOTH.,#60);
#59=SURFACE_SIDE_STYLE('',(#61));
#60=SURFACE_SIDE_STYLE('',(#62));
#61=SURFACE_STYLE_FILL_AREA(#63);
#62=SURFACE_STYLE_FILL_AREA(#64);
#63=FILL_AREA_STYLE('',(#65));
#64=FILL_AREA_STYLE('',(#66));
#65=FILL_AREA_STYLE_COLOUR('',#67);
#66=FILL_AREA_STYLE_COLOUR('',#23);
#67=COLOUR_RGB('smoke gray',0.694117647058824,0.694117647058824,0.694117647058824);
#68=MANIFOLD_SOLID_BREP('',#70);
#69=MANIFOLD_SOLID_BREP('',#71);
#70=CLOSED_SHELL('',(#91,#92,#93,#94,#95,#96,#97,#98,#99,#100,#101,#102,
#103,#104,#105,#106,#107,#108,#109,#110,#111));
#71=CLOSED_SHELL('',(#112,#113,#114,#115,#116,#117,#118,#119,#120,#121,
#122));
#72=FACE_OUTER_BOUND('',#211,.T.);
#73=FACE_OUTER_BOUND('',#226,.T.);
#74=FACE_OUTER_BOUND('',#227,.T.);
#75=FACE_OUTER_BOUND('',#228,.T.);
#76=PLANE('',#424);
#77=PLANE('',#427);
#78=PLANE('',#442);
#79=PLANE('',#444);
#80=PLANE('',#446);
#81=CONICAL_SURFACE('',#410,15.8103073792141,20.0000000000019);
#82=CONICAL_SURFACE('',#414,16.,15.0000000000001);
#83=CONICAL_SURFACE('',#422,16.205669240384,82.0000000000004);
#84=CONICAL_SURFACE('',#433,21.8289710007487,19.4400348281762);
#85=CONICAL_SURFACE('',#439,15.9999999999999,3.00000000000002);
#86=CYLINDRICAL_SURFACE('',#406,15.75);
#87=CYLINDRICAL_SURFACE('',#412,16.);
#88=CYLINDRICAL_SURFACE('',#418,15.75);
#89=CYLINDRICAL_SURFACE('',#429,22.);
#90=CYLINDRICAL_SURFACE('',#437,15.9999999999999);
#91=ADVANCED_FACE('',(#131,#132),#123,.T.);
#92=ADVANCED_FACE('',(#133,#134),#86,.T.);
#93=ADVANCED_FACE('',(#135,#136),#124,.F.);
#94=ADVANCED_FACE('',(#137,#138),#81,.T.);
#95=ADVANCED_FACE('',(#139,#140),#87,.T.);
#96=ADVANCED_FACE('',(#141,#142),#82,.T.);
#97=ADVANCED_FACE('',(#143,#144),#125,.F.);
#98=ADVANCED_FACE('',(#145,#146),#88,.T.);
#99=ADVANCED_FACE('',(#147,#148),#126,.F.);
#100=ADVANCED_FACE('',(#149,#150),#83,.F.);
#101=ADVANCED_FACE('',(#151,#152),#76,.F.);
#102=ADVANCED_FACE('',(#153,#154),#127,.T.);
#103=ADVANCED_FACE('',(#72),#77,.F.);
#104=ADVANCED_FACE('',(#155,#156),#89,.T.);
#105=ADVANCED_FACE('',(#157,#158),#128,.T.);
#106=ADVANCED_FACE('',(#159,#160),#84,.T.);
#107=ADVANCED_FACE('',(#161,#162),#129,.F.);
#108=ADVANCED_FACE('',(#163,#164),#90,.T.);
#109=ADVANCED_FACE('',(#165,#166),#85,.T.);
#110=ADVANCED_FACE('',(#167,#168),#130,.T.);
#111=ADVANCED_FACE('',(#73),#78,.F.);
#112=ADVANCED_FACE('',(#74),#79,.F.);
#113=ADVANCED_FACE('',(#75),#80,.T.);
#114=ADVANCED_FACE('',(#169,#170),#24,.T.);
#115=ADVANCED_FACE('',(#171,#172),#25,.T.);
#116=ADVANCED_FACE('',(#173,#174),#26,.T.);
#117=ADVANCED_FACE('',(#175,#176),#27,.T.);
#118=ADVANCED_FACE('',(#177,#178),#28,.T.);
#119=ADVANCED_FACE('',(#179,#180),#29,.T.);
#120=ADVANCED_FACE('',(#181,#182),#30,.T.);
#121=ADVANCED_FACE('',(#183,#184),#31,.T.);
#122=ADVANCED_FACE('',(#185,#186),#32,.T.);
#123=TOROIDAL_SURFACE('',#404,14.7500000000001,0.999999999999972);
#124=TOROIDAL_SURFACE('',#408,16.75,1.00000000000001);
#125=TOROIDAL_SURFACE('',#416,16.15,0.4);
#126=TOROIDAL_SURFACE('',#420,16.15,0.399999999999971);
#127=TOROIDAL_SURFACE('',#426,21.3,0.800000000000011);
#128=TOROIDAL_SURFACE('',#431,19.,3.);
#129=TOROIDAL_SURFACE('',#435,20.9999999999999,5.);
#130=TOROIDAL_SURFACE('',#441,14.3072155405819,1.4);
#131=FACE_BOUND('',#187,.T.);
#132=FACE_BOUND('',#188,.T.);
#133=FACE_BOUND('',#189,.T.);
#134=FACE_BOUND('',#190,.T.);
#135=FACE_BOUND('',#191,.T.);
#136=FACE_BOUND('',#192,.T.);
#137=FACE_BOUND('',#193,.T.);
#138=FACE_BOUND('',#194,.T.);
#139=FACE_BOUND('',#195,.T.);
#140=FACE_BOUND('',#196,.T.);
#141=FACE_BOUND('',#197,.T.);
#142=FACE_BOUND('',#198,.T.);
#143=FACE_BOUND('',#199,.T.);
#144=FACE_BOUND('',#200,.T.);
#145=FACE_BOUND('',#201,.T.);
#146=FACE_BOUND('',#202,.T.);
#147=FACE_BOUND('',#203,.T.);
#148=FACE_BOUND('',#204,.T.);
#149=FACE_BOUND('',#205,.T.);
#150=FACE_BOUND('',#206,.T.);
#151=FACE_BOUND('',#207,.T.);
#152=FACE_BOUND('',#208,.T.);
#153=FACE_BOUND('',#209,.T.);
#154=FACE_BOUND('',#210,.T.);
#155=FACE_BOUND('',#212,.T.);
#156=FACE_BOUND('',#213,.T.);
#157=FACE_BOUND('',#214,.T.);
#158=FACE_BOUND('',#215,.T.);
#159=FACE_BOUND('',#216,.T.);
#160=FACE_BOUND('',#217,.T.);
#161=FACE_BOUND('',#218,.T.);
#162=FACE_BOUND('',#219,.T.);
#163=FACE_BOUND('',#220,.T.);
#164=FACE_BOUND('',#221,.T.);
#165=FACE_BOUND('',#222,.T.);
#166=FACE_BOUND('',#223,.T.);
#167=FACE_BOUND('',#224,.T.);
#168=FACE_BOUND('',#225,.T.);
#169=FACE_BOUND('',#229,.T.);
#170=FACE_BOUND('',#230,.T.);
#171=FACE_BOUND('',#231,.T.);
#172=FACE_BOUND('',#232,.T.);
#173=FACE_BOUND('',#233,.T.);
#174=FACE_BOUND('',#234,.T.);
#175=FACE_BOUND('',#235,.T.);
#176=FACE_BOUND('',#236,.T.);
#177=FACE_BOUND('',#237,.T.);
#178=FACE_BOUND('',#238,.T.);
#179=FACE_BOUND('',#239,.T.);
#180=FACE_BOUND('',#240,.T.);
#181=FACE_BOUND('',#241,.T.);
#182=FACE_BOUND('',#242,.T.);
#183=FACE_BOUND('',#243,.T.);
#184=FACE_BOUND('',#244,.T.);
#185=FACE_BOUND('',#245,.T.);
#186=FACE_BOUND('',#246,.T.);
#187=EDGE_LOOP('',(#247));
#188=EDGE_LOOP('',(#248));
#189=EDGE_LOOP('',(#249));
#190=EDGE_LOOP('',(#250));
#191=EDGE_LOOP('',(#251));
#192=EDGE_LOOP('',(#252));
#193=EDGE_LOOP('',(#253));
#194=EDGE_LOOP('',(#254));
#195=EDGE_LOOP('',(#255));
#196=EDGE_LOOP('',(#256));
#197=EDGE_LOOP('',(#257));
#198=EDGE_LOOP('',(#258));
#199=EDGE_LOOP('',(#259));
#200=EDGE_LOOP('',(#260));
#201=EDGE_LOOP('',(#261));
#202=EDGE_LOOP('',(#262));
#203=EDGE_LOOP('',(#263));
#204=EDGE_LOOP('',(#264));
#205=EDGE_LOOP('',(#265));
#206=EDGE_LOOP('',(#266));
#207=EDGE_LOOP('',(#267));
#208=EDGE_LOOP('',(#268));
#209=EDGE_LOOP('',(#269));
#210=EDGE_LOOP('',(#270));
#211=EDGE_LOOP('',(#271));
#212=EDGE_LOOP('',(#272));
#213=EDGE_LOOP('',(#273));
#214=EDGE_LOOP('',(#274));
#215=EDGE_LOOP('',(#275));
#216=EDGE_LOOP('',(#276));
#217=EDGE_LOOP('',(#277));
#218=EDGE_LOOP('',(#278));
#219=EDGE_LOOP('',(#279));
#220=EDGE_LOOP('',(#280));
#221=EDGE_LOOP('',(#281));
#222=EDGE_LOOP('',(#282));
#223=EDGE_LOOP('',(#283));
#224=EDGE_LOOP('',(#284));
#225=EDGE_LOOP('',(#285));
#226=EDGE_LOOP('',(#286));
#227=EDGE_LOOP('',(#287));
#228=EDGE_LOOP('',(#288));
#229=EDGE_LOOP('',(#289));
#230=EDGE_LOOP('',(#290));
#231=EDGE_LOOP('',(#291));
#232=EDGE_LOOP('',(#292));
#233=EDGE_LOOP('',(#293));
#234=EDGE_LOOP('',(#294));
#235=EDGE_LOOP('',(#295));
#236=EDGE_LOOP('',(#296));
#237=EDGE_LOOP('',(#297));
#238=EDGE_LOOP('',(#298));
#239=EDGE_LOOP('',(#299));
#240=EDGE_LOOP('',(#300));
#241=EDGE_LOOP('',(#301));
#242=EDGE_LOOP('',(#302));
#243=EDGE_LOOP('',(#303));
#244=EDGE_LOOP('',(#304));
#245=EDGE_LOOP('',(#305));
#246=EDGE_LOOP('',(#306));
#247=ORIENTED_EDGE('',*,*,#337,.T.);
#248=ORIENTED_EDGE('',*,*,#338,.T.);
#249=ORIENTED_EDGE('',*,*,#339,.T.);
#250=ORIENTED_EDGE('',*,*,#337,.F.);
#251=ORIENTED_EDGE('',*,*,#340,.T.);
#252=ORIENTED_EDGE('',*,*,#339,.F.);
#253=ORIENTED_EDGE('',*,*,#341,.T.);
#254=ORIENTED_EDGE('',*,*,#340,.F.);
#255=ORIENTED_EDGE('',*,*,#342,.T.);
#256=ORIENTED_EDGE('',*,*,#341,.F.);
#257=ORIENTED_EDGE('',*,*,#343,.T.);
#258=ORIENTED_EDGE('',*,*,#342,.F.);
#259=ORIENTED_EDGE('',*,*,#344,.T.);
#260=ORIENTED_EDGE('',*,*,#343,.F.);
#261=ORIENTED_EDGE('',*,*,#345,.T.);
#262=ORIENTED_EDGE('',*,*,#344,.F.);
#263=ORIENTED_EDGE('',*,*,#346,.T.);
#264=ORIENTED_EDGE('',*,*,#345,.F.);
#265=ORIENTED_EDGE('',*,*,#347,.T.);
#266=ORIENTED_EDGE('',*,*,#346,.F.);
#267=ORIENTED_EDGE('',*,*,#348,.T.);
#268=ORIENTED_EDGE('',*,*,#347,.F.);
#269=ORIENTED_EDGE('',*,*,#349,.T.);
#270=ORIENTED_EDGE('',*,*,#348,.F.);
#271=ORIENTED_EDGE('',*,*,#338,.F.);
#272=ORIENTED_EDGE('',*,*,#350,.T.);
#273=ORIENTED_EDGE('',*,*,#349,.F.);
#274=ORIENTED_EDGE('',*,*,#351,.T.);
#275=ORIENTED_EDGE('',*,*,#350,.F.);
#276=ORIENTED_EDGE('',*,*,#352,.T.);
#277=ORIENTED_EDGE('',*,*,#351,.F.);
#278=ORIENTED_EDGE('',*,*,#353,.T.);
#279=ORIENTED_EDGE('',*,*,#352,.F.);
#280=ORIENTED_EDGE('',*,*,#354,.T.);
#281=ORIENTED_EDGE('',*,*,#353,.F.);
#282=ORIENTED_EDGE('',*,*,#355,.T.);
#283=ORIENTED_EDGE('',*,*,#354,.F.);
#284=ORIENTED_EDGE('',*,*,#356,.T.);
#285=ORIENTED_EDGE('',*,*,#355,.F.);
#286=ORIENTED_EDGE('',*,*,#356,.F.);
#287=ORIENTED_EDGE('',*,*,#357,.F.);
#288=ORIENTED_EDGE('',*,*,#358,.T.);
#289=ORIENTED_EDGE('',*,*,#359,.T.);
#290=ORIENTED_EDGE('',*,*,#360,.F.);
#291=ORIENTED_EDGE('',*,*,#361,.F.);
#292=ORIENTED_EDGE('',*,*,#362,.F.);
#293=ORIENTED_EDGE('',*,*,#363,.F.);
#294=ORIENTED_EDGE('',*,*,#361,.T.);
#295=ORIENTED_EDGE('',*,*,#364,.F.);
#296=ORIENTED_EDGE('',*,*,#363,.T.);
#297=ORIENTED_EDGE('',*,*,#365,.F.);
#298=ORIENTED_EDGE('',*,*,#364,.T.);
#299=ORIENTED_EDGE('',*,*,#359,.F.);
#300=ORIENTED_EDGE('',*,*,#365,.T.);
#301=ORIENTED_EDGE('',*,*,#358,.F.);
#302=ORIENTED_EDGE('',*,*,#360,.T.);
#303=ORIENTED_EDGE('',*,*,#366,.T.);
#304=ORIENTED_EDGE('',*,*,#362,.T.);
#305=ORIENTED_EDGE('',*,*,#366,.F.);
#306=ORIENTED_EDGE('',*,*,#357,.T.);
#307=VERTEX_POINT('',#591);
#308=VERTEX_POINT('',#593);
#309=VERTEX_POINT('',#596);
#310=VERTEX_POINT('',#599);
#311=VERTEX_POINT('',#602);
#312=VERTEX_POINT('',#605);
#313=VERTEX_POINT('',#608);
#314=VERTEX_POINT('',#611);
#315=VERTEX_POINT('',#614);
#316=VERTEX_POINT('',#617);
#317=VERTEX_POINT('',#620);
#318=VERTEX_POINT('',#623);
#319=VERTEX_POINT('',#626);
#320=VERTEX_POINT('',#630);
#321=VERTEX_POINT('',#633);
#322=VERTEX_POINT('',#636);
#323=VERTEX_POINT('',#639);
#324=VERTEX_POINT('',#642);
#325=VERTEX_POINT('',#645);
#326=VERTEX_POINT('',#648);
#327=VERTEX_POINT('',#652);
#328=VERTEX_POINT('',#655);
#329=VERTEX_POINT('',#658);
#330=VERTEX_POINT('',#660);
#331=VERTEX_POINT('',#664);
#332=VERTEX_POINT('',#666);
#333=VERTEX_POINT('',#670);
#334=VERTEX_POINT('',#674);
#335=VERTEX_POINT('',#678);
#336=VERTEX_POINT('',#686);
#337=EDGE_CURVE('',#307,#307,#367,.T.);
#338=EDGE_CURVE('',#308,#308,#368,.T.);
#339=EDGE_CURVE('',#309,#309,#369,.T.);
#340=EDGE_CURVE('',#310,#310,#370,.T.);
#341=EDGE_CURVE('',#311,#311,#371,.T.);
#342=EDGE_CURVE('',#312,#312,#372,.T.);
#343=EDGE_CURVE('',#313,#313,#373,.T.);
#344=EDGE_CURVE('',#314,#314,#374,.T.);
#345=EDGE_CURVE('',#315,#315,#375,.T.);
#346=EDGE_CURVE('',#316,#316,#376,.T.);
#347=EDGE_CURVE('',#317,#317,#377,.T.);
#348=EDGE_CURVE('',#318,#318,#378,.T.);
#349=EDGE_CURVE('',#319,#319,#379,.T.);
#350=EDGE_CURVE('',#320,#320,#380,.T.);
#351=EDGE_CURVE('',#321,#321,#381,.T.);
#352=EDGE_CURVE('',#322,#322,#382,.T.);
#353=EDGE_CURVE('',#323,#323,#383,.T.);
#354=EDGE_CURVE('',#324,#324,#384,.T.);
#355=EDGE_CURVE('',#325,#325,#385,.T.);
#356=EDGE_CURVE('',#326,#326,#386,.T.);
#357=EDGE_CURVE('',#327,#327,#387,.T.);
#358=EDGE_CURVE('',#328,#328,#388,.T.);
#359=EDGE_CURVE('',#329,#329,#389,.T.);
#360=EDGE_CURVE('',#330,#330,#390,.T.);
#361=EDGE_CURVE('',#331,#331,#391,.T.);
#362=EDGE_CURVE('',#332,#332,#392,.T.);
#363=EDGE_CURVE('',#333,#333,#394,.T.);
#364=EDGE_CURVE('',#334,#334,#395,.T.);
#365=EDGE_CURVE('',#335,#335,#397,.T.);
#366=EDGE_CURVE('',#336,#336,#399,.T.);
#367=CIRCLE('',#402,15.75);
#368=CIRCLE('',#403,14.7500000000001);
#369=CIRCLE('',#405,15.75);
#370=CIRCLE('',#407,15.8103073792141);
#371=CIRCLE('',#409,16.);
#372=CIRCLE('',#411,16.);
#373=CIRCLE('',#413,15.7636296694843);
#374=CIRCLE('',#415,15.75);
#375=CIRCLE('',#417,15.75);
#376=CIRCLE('',#419,16.205669240384);
#377=CIRCLE('',#421,17.);
#378=CIRCLE('',#423,21.3);
#379=CIRCLE('',#425,22.);
#380=CIRCLE('',#428,22.);
#381=CIRCLE('',#430,21.8289710007487);
#382=CIRCLE('',#432,16.2850483320855);
#383=CIRCLE('',#434,15.9999999999999);
#384=CIRCLE('',#436,15.9999999999999);
#385=CIRCLE('',#438,15.7052968892383);
#386=CIRCLE('',#440,14.3072155405819);
#387=CIRCLE('',#443,0.100000013944503);
#388=CIRCLE('',#445,0.635774746218634);
#389=CIRCLE('',#447,15.3151371243019);
#390=CIRCLE('',#448,7.62241268722692);
#391=CIRCLE('',#449,8.17596119957821);
#392=CIRCLE('',#450,8.07092107546083);
#393=CIRCLE('',#451,0.600000000000001);
#394=CIRCLE('',#452,15.9423150996989);
#395=CIRCLE('',#453,16.4984808664143);
#396=CIRCLE('',#454,0.600000000000001);
#397=CIRCLE('',#455,15.954887023478);
#398=CIRCLE('',#456,0.6);
#399=CIRCLE('',#457,7.78169496214631);
#400=CIRCLE('',#458,0.6);
#401=AXIS2_PLACEMENT_3D('',#589,#459,#460);
#402=AXIS2_PLACEMENT_3D('',#590,#461,#462);
#403=AXIS2_PLACEMENT_3D('',#592,#463,#464);
#404=AXIS2_PLACEMENT_3D('',#594,#465,#466);
#405=AXIS2_PLACEMENT_3D('',#595,#467,#468);
#406=AXIS2_PLACEMENT_3D('',#597,#469,#470);
#407=AXIS2_PLACEMENT_3D('',#598,#471,#472);
#408=AXIS2_PLACEMENT_3D('',#600,#473,#474);
#409=AXIS2_PLACEMENT_3D('',#601,#475,#476);
#410=AXIS2_PLACEMENT_3D('',#603,#477,#478);
#411=AXIS2_PLACEMENT_3D('',#604,#479,#480);
#412=AXIS2_PLACEMENT_3D('',#606,#481,#482);
#413=AXIS2_PLACEMENT_3D('',#607,#483,#484);
#414=AXIS2_PLACEMENT_3D('',#609,#485,#486);
#415=AXIS2_PLACEMENT_3D('',#610,#487,#488);
#416=AXIS2_PLACEMENT_3D('',#612,#489,#490);
#417=AXIS2_PLACEMENT_3D('',#613,#491,#492);
#418=AXIS2_PLACEMENT_3D('',#615,#493,#494);
#419=AXIS2_PLACEMENT_3D('',#616,#495,#496);
#420=AXIS2_PLACEMENT_3D('',#618,#497,#498);
#421=AXIS2_PLACEMENT_3D('',#619,#499,#500);
#422=AXIS2_PLACEMENT_3D('',#621,#501,#502);
#423=AXIS2_PLACEMENT_3D('',#622,#503,#504);
#424=AXIS2_PLACEMENT_3D('',#624,#505,#506);
#425=AXIS2_PLACEMENT_3D('',#625,#507,#508);
#426=AXIS2_PLACEMENT_3D('',#627,#509,#510);
#427=AXIS2_PLACEMENT_3D('',#628,#511,#512);
#428=AXIS2_PLACEMENT_3D('',#629,#513,#514);
#429=AXIS2_PLACEMENT_3D('',#631,#515,#516);
#430=AXIS2_PLACEMENT_3D('',#632,#517,#518);
#431=AXIS2_PLACEMENT_3D('',#634,#519,#520);
#432=AXIS2_PLACEMENT_3D('',#635,#521,#522);
#433=AXIS2_PLACEMENT_3D('',#637,#523,#524);
#434=AXIS2_PLACEMENT_3D('',#638,#525,#526);
#435=AXIS2_PLACEMENT_3D('',#640,#527,#528);
#436=AXIS2_PLACEMENT_3D('',#641,#529,#530);
#437=AXIS2_PLACEMENT_3D('',#643,#531,#532);
#438=AXIS2_PLACEMENT_3D('',#644,#533,#534);
#439=AXIS2_PLACEMENT_3D('',#646,#535,#536);
#440=AXIS2_PLACEMENT_3D('',#647,#537,#538);
#441=AXIS2_PLACEMENT_3D('',#649,#539,#540);
#442=AXIS2_PLACEMENT_3D('',#650,#541,#542);
#443=AXIS2_PLACEMENT_3D('',#651,#543,#544);
#444=AXIS2_PLACEMENT_3D('',#653,#545,#546);
#445=AXIS2_PLACEMENT_3D('',#654,#547,#548);
#446=AXIS2_PLACEMENT_3D('',#656,#549,#550);
#447=AXIS2_PLACEMENT_3D('',#657,#551,#552);
#448=AXIS2_PLACEMENT_3D('',#659,#553,#554);
#449=AXIS2_PLACEMENT_3D('',#663,#557,#558);
#450=AXIS2_PLACEMENT_3D('',#665,#559,#560);
#451=AXIS2_PLACEMENT_3D('',#667,#561,#562);
#452=AXIS2_PLACEMENT_3D('',#669,#564,#565);
#453=AXIS2_PLACEMENT_3D('',#673,#568,#569);
#454=AXIS2_PLACEMENT_3D('',#675,#570,#571);
#455=AXIS2_PLACEMENT_3D('',#677,#573,#574);
#456=AXIS2_PLACEMENT_3D('',#681,#577,#578);
#457=AXIS2_PLACEMENT_3D('',#685,#582,#583);
#458=AXIS2_PLACEMENT_3D('',#687,#584,#585);
#459=DIRECTION('',(0.,0.,1.));
#460=DIRECTION('',(1.,0.,0.));
#461=DIRECTION('',(1.,0.,0.));
#462=DIRECTION('',(0.,0.,1.));
#463=DIRECTION('',(-1.,0.,0.));
#464=DIRECTION('',(0.,0.,1.));
#465=DIRECTION('',(-1.,0.,0.));
#466=DIRECTION('',(0.,0.,1.));
#467=DIRECTION('',(1.,0.,0.));
#468=DIRECTION('',(0.,0.,1.));
#469=DIRECTION('',(-1.,0.,0.));
#470=DIRECTION('',(0.,0.,1.));
#471=DIRECTION('',(1.,0.,0.));
#472=DIRECTION('',(0.,0.,1.));
#473=DIRECTION('',(-1.,0.,0.));
#474=DIRECTION('',(0.,0.,1.));
#475=DIRECTION('',(1.,0.,0.));
#476=DIRECTION('',(0.,0.,1.));
#477=DIRECTION('',(-1.,0.,0.));
#478=DIRECTION('',(0.,0.,1.));
#479=DIRECTION('',(1.,0.,0.));
#480=DIRECTION('',(0.,0.,1.));
#481=DIRECTION('',(-1.,0.,0.));
#482=DIRECTION('',(0.,0.,1.));
#483=DIRECTION('',(1.,0.,0.));
#484=DIRECTION('',(0.,0.,1.));
#485=DIRECTION('',(1.,0.,0.));
#486=DIRECTION('',(9.77483872307945E-17,0.,-1.));
#487=DIRECTION('',(1.,0.,0.));
#488=DIRECTION('',(0.,0.,1.));
#489=DIRECTION('',(-1.,0.,0.));
#490=DIRECTION('',(0.,0.,1.));
#491=DIRECTION('',(1.,0.,0.));
#492=DIRECTION('',(0.,0.,1.));
#493=DIRECTION('',(-1.,0.,0.));
#494=DIRECTION('',(0.,0.,1.));
#495=DIRECTION('',(1.,0.,0.));
#496=DIRECTION('',(0.,0.,1.));
#497=DIRECTION('',(-1.,0.,0.));
#498=DIRECTION('',(0.,0.,1.));
#499=DIRECTION('',(1.,0.,0.));
#500=DIRECTION('',(0.,0.,1.));
#501=DIRECTION('',(1.,0.,0.));
#502=DIRECTION('',(0.,0.,-1.));
#503=DIRECTION('',(1.,0.,0.));
#504=DIRECTION('',(0.,0.,1.));
#505=DIRECTION('',(-1.,0.,0.));
#506=DIRECTION('',(0.,0.,1.));
#507=DIRECTION('',(1.,0.,0.));
#508=DIRECTION('',(0.,0.,1.));
#509=DIRECTION('',(-1.,0.,0.));
#510=DIRECTION('',(0.,0.,1.));
#511=DIRECTION('',(-1.,0.,0.));
#512=DIRECTION('',(0.,0.,1.));
#513=DIRECTION('',(1.,0.,0.));
#514=DIRECTION('',(0.,0.,1.));
#515=DIRECTION('',(-1.,0.,0.));
#516=DIRECTION('',(0.,0.,1.));
#517=DIRECTION('',(1.,0.,0.));
#518=DIRECTION('',(0.,0.,1.));
#519=DIRECTION('',(-1.,0.,0.));
#520=DIRECTION('',(0.,0.,1.));
#521=DIRECTION('',(1.,0.,0.));
#522=DIRECTION('',(0.,0.,1.));
#523=DIRECTION('',(1.,0.,0.));
#524=DIRECTION('',(-1.48120525622985E-16,0.,-1.));
#525=DIRECTION('',(1.,0.,0.));
#526=DIRECTION('',(0.,0.,1.));
#527=DIRECTION('',(-1.,0.,0.));
#528=DIRECTION('',(0.,0.,1.));
#529=DIRECTION('',(1.,0.,0.));
#530=DIRECTION('',(0.,0.,1.));
#531=DIRECTION('',(-1.,0.,0.));
#532=DIRECTION('',(0.,0.,1.));
#533=DIRECTION('',(1.,0.,0.));
#534=DIRECTION('',(0.,0.,1.));
#535=DIRECTION('',(1.,0.,0.));
#536=DIRECTION('',(0.,0.,-1.));
#537=DIRECTION('',(1.,0.,0.));
#538=DIRECTION('',(0.,0.,1.));
#539=DIRECTION('',(-1.,0.,0.));
#540=DIRECTION('',(0.,0.,1.));
#541=DIRECTION('',(1.,0.,0.));
#542=DIRECTION('',(0.,0.,-1.));
#543=DIRECTION('',(1.,0.,0.));
#544=DIRECTION('',(0.,0.,-1.));
#545=DIRECTION('',(1.,0.,0.));
#546=DIRECTION('',(0.,0.,-1.));
#547=DIRECTION('',(1.,0.,0.));
#548=DIRECTION('',(0.,0.,-1.));
#549=DIRECTION('',(1.,0.,0.));
#550=DIRECTION('',(0.,0.,-1.));
#551=DIRECTION('',(1.,0.,0.));
#552=DIRECTION('',(0.,0.,-1.));
#553=DIRECTION('',(1.,0.,0.));
#554=DIRECTION('',(0.,0.,-1.));
#555=DIRECTION('',(-0.0697564737441251,0.997564050259824,-2.78000557047566E-17));
#556=DIRECTION('',(1.,0.,0.));
#557=DIRECTION('',(1.,0.,0.));
#558=DIRECTION('',(0.,0.,-1.));
#559=DIRECTION('',(-1.,0.,0.));
#560=DIRECTION('',(0.,0.,-1.));
#561=DIRECTION('',(1.03418599996757E-16,6.28784367983674E-17,1.));
#562=DIRECTION('',(0.997564050259824,0.0697564737441254,-1.07552855510562E-16));
#563=DIRECTION('',(1.,0.,0.));
#564=DIRECTION('',(1.,0.,0.));
#565=DIRECTION('',(0.,0.,-1.));
#566=DIRECTION('',(0.0697564737441257,-0.997564050259824,2.78000557047565E-17));
#567=DIRECTION('',(1.,0.,0.));
#568=DIRECTION('',(1.,0.,0.));
#569=DIRECTION('',(0.,0.,-1.));
#570=DIRECTION('',(1.03418599996757E-16,6.28784367983674E-17,1.));
#571=DIRECTION('',(0.997564050259824,0.0697564737441254,-1.07552855510562E-16));
#572=DIRECTION('',(1.,0.,0.));
#573=DIRECTION('',(1.,0.,0.));
#574=DIRECTION('',(0.,0.,-1.));
#575=DIRECTION('',(0.997564050259824,0.0697564737441252,-9.73001949666481E-17));
#576=DIRECTION('',(1.,0.,0.));
#577=DIRECTION('',(1.03418599996757E-16,6.28784367983674E-17,1.));
#578=DIRECTION('',(0.997564050259824,0.0697564737441254,-1.07552855510562E-16));
#579=DIRECTION('',(1.,0.,0.));
#580=DIRECTION('',(0.0697564737441243,-0.992099290015652,-0.104273837184716));
#581=DIRECTION('',(1.,0.,0.));
#582=DIRECTION('',(1.,0.,0.));
#583=DIRECTION('',(0.,0.,-1.));
#584=DIRECTION('',(-1.80411241501588E-16,0.104528463267654,-0.994521895368273));
#585=DIRECTION('',(0.997564050259824,0.0693743404822155,0.00729153700344376));
#586=DIRECTION('',(1.,0.,0.));
#587=DIRECTION('',(-0.0697564737441246,0.992099290015652,0.104273837184716));
#588=DIRECTION('',(1.,0.,0.));
#589=CARTESIAN_POINT('',(0.,0.,0.));
#590=CARTESIAN_POINT('',(218.,0.,0.));
#591=CARTESIAN_POINT('',(218.,0.,15.75));
#592=CARTESIAN_POINT('',(219.,0.,0.));
#593=CARTESIAN_POINT('',(219.,0.,14.7500000000001));
#594=CARTESIAN_POINT('',(218.,0.,0.));
#595=CARTESIAN_POINT('',(216.176326980708,0.,0.));
#596=CARTESIAN_POINT('',(216.176326980708,0.,15.75));
#597=CARTESIAN_POINT('',(0.,0.,0.));
#598=CARTESIAN_POINT('',(215.834306837383,0.,0.));
#599=CARTESIAN_POINT('',(215.834306837383,0.,15.8103073792141));
#600=CARTESIAN_POINT('',(216.176326980708,0.,0.));
#601=CARTESIAN_POINT('',(215.313130645136,0.,0.));
#602=CARTESIAN_POINT('',(215.313130645136,0.,16.));
#603=CARTESIAN_POINT('',(215.834306837383,0.,0.));
#604=CARTESIAN_POINT('',(161.,0.,0.));
#605=CARTESIAN_POINT('',(161.,0.,16.));
#606=CARTESIAN_POINT('',(0.,0.,0.));
#607=CARTESIAN_POINT('',(160.117853917114,0.,0.));
#608=CARTESIAN_POINT('',(160.117853917114,0.,15.7636296694843));
#609=CARTESIAN_POINT('',(161.,0.,0.));
#610=CARTESIAN_POINT('',(160.014326299073,0.,0.));
#611=CARTESIAN_POINT('',(160.014326299073,0.,15.75));
#612=CARTESIAN_POINT('',(160.014326299073,0.,0.));
#613=CARTESIAN_POINT('',(159.28447131951,0.,0.));
#614=CARTESIAN_POINT('',(159.28447131951,0.,15.75));
#615=CARTESIAN_POINT('',(0.,0.,0.));
#616=CARTESIAN_POINT('',(158.888364092014,0.,0.));
#617=CARTESIAN_POINT('',(158.888364092014,0.,16.205669240384));
#618=CARTESIAN_POINT('',(159.28447131951,0.,0.));
#619=CARTESIAN_POINT('',(159.,0.,0.));
#620=CARTESIAN_POINT('',(159.,0.,17.));
#621=CARTESIAN_POINT('',(158.888364092014,0.,0.));
#622=CARTESIAN_POINT('',(159.,0.,0.));
#623=CARTESIAN_POINT('',(159.,0.,21.3));
#624=CARTESIAN_POINT('',(159.,17.,0.));
#625=CARTESIAN_POINT('',(158.587298334621,0.,0.));
#626=CARTESIAN_POINT('',(158.587298334621,0.,22.));
#627=CARTESIAN_POINT('',(158.2,0.,0.));
#628=CARTESIAN_POINT('',(219.,22.5,0.));
#629=CARTESIAN_POINT('',(154.51387818866,0.,0.));
#630=CARTESIAN_POINT('',(154.51387818866,0.,22.));
#631=CARTESIAN_POINT('',(0.,0.,0.));
#632=CARTESIAN_POINT('',(153.515417835455,0.,0.));
#633=CARTESIAN_POINT('',(153.515417835455,0.,21.8289710007487));
#634=CARTESIAN_POINT('',(154.51387818866,0.,0.));
#635=CARTESIAN_POINT('',(137.807636940909,0.,0.));
#636=CARTESIAN_POINT('',(137.807636940909,0.,16.2850483320855));
#637=CARTESIAN_POINT('',(153.515417835455,0.,0.));
#638=CARTESIAN_POINT('',(136.143536352233,0.,0.));
#639=CARTESIAN_POINT('',(136.143536352233,0.,15.9999999999999));
#640=CARTESIAN_POINT('',(136.143536352233,0.,0.));
#641=CARTESIAN_POINT('',(8.00000000000001,0.,0.));
#642=CARTESIAN_POINT('',(8.00000000000001,0.,15.9999999999999));
#643=CARTESIAN_POINT('',(0.,0.,0.));
#644=CARTESIAN_POINT('',(2.37672966125988,0.,0.));
#645=CARTESIAN_POINT('',(2.37672966125988,0.,15.7052968892383));
#646=CARTESIAN_POINT('',(8.00000000000001,0.,0.));
#647=CARTESIAN_POINT('',(1.05,0.,0.));
#648=CARTESIAN_POINT('',(1.05,0.,14.3072155405819));
#649=CARTESIAN_POINT('',(2.45,0.,0.));
#650=CARTESIAN_POINT('',(1.05,14.3072155405819,0.));
#651=CARTESIAN_POINT('',(0.54556616984907,0.,0.));
#652=CARTESIAN_POINT('',(0.54556616984907,0.,-0.100000013944503));
#653=CARTESIAN_POINT('',(0.54556616984907,0.,0.));
#654=CARTESIAN_POINT('',(9.5236426221875,0.,0.));
#655=CARTESIAN_POINT('',(9.5236426221875,0.,-0.635774746218634));
#656=CARTESIAN_POINT('',(9.5236426221875,0.,0.));
#657=CARTESIAN_POINT('',(9.57364262218736,0.,0.));
#658=CARTESIAN_POINT('',(9.57364262218736,0.,-15.3151371243019));
#659=CARTESIAN_POINT('',(9.03458179806801,0.,0.));
#660=CARTESIAN_POINT('',(9.03458179806801,0.,-7.62241268722692));
#661=CARTESIAN_POINT('',(9.57364262218733,-15.2991315157486,0.699999999999999));
#662=CARTESIAN_POINT('',(7.99999999999999,0.,0.));
#663=CARTESIAN_POINT('',(0.0514656746447469,0.,0.));
#664=CARTESIAN_POINT('',(0.0514656746447469,0.,-8.17596119957821));
#665=CARTESIAN_POINT('',(0.0533821269895849,0.,0.));
#666=CARTESIAN_POINT('',(0.0533821269895849,0.,-8.07092107546083));
#667=CARTESIAN_POINT('',(0.650004104800638,-8.10408630317258,0.700000000000001));
#668=CARTESIAN_POINT('',(7.99999999999999,0.,0.));
#669=CARTESIAN_POINT('',(0.595566169848926,0.,0.));
#670=CARTESIAN_POINT('',(0.595566169848926,0.,-15.9423150996989));
#671=CARTESIAN_POINT('',(0.0514656746447462,-8.14594018741902,0.7));
#672=CARTESIAN_POINT('',(7.99999999999999,0.,0.));
#673=CARTESIAN_POINT('',(1.2359584842513,0.,0.));
#674=CARTESIAN_POINT('',(1.2359584842513,0.,-16.4984808664143));
#675=CARTESIAN_POINT('',(1.19410460000482,-15.8850858951992,0.700000000000001));
#676=CARTESIAN_POINT('',(7.99999999999999,0.,0.));
#677=CARTESIAN_POINT('',(9.0169580762779,0.,0.));
#678=CARTESIAN_POINT('',(9.0169580762779,0.,-15.954887023478));
#679=CARTESIAN_POINT('',(1.2359584842513,-16.4836243253551,0.7));
#680=CARTESIAN_POINT('',(7.99999999999999,0.,0.));
#681=CARTESIAN_POINT('',(8.97510419203146,-15.3409853999951,0.7));
#682=CARTESIAN_POINT('',(7.99999999999999,0.,0.));
#683=CARTESIAN_POINT('',(9.03458179806801,7.56955107171452,0.896142704653383));
#684=CARTESIAN_POINT('',(7.99999999999999,0.,0.));
#685=CARTESIAN_POINT('',(0.00146567464489808,0.,0.));
#686=CARTESIAN_POINT('',(0.00146567464489808,0.,-7.78169496214631));
#687=CARTESIAN_POINT('',(0.600004104800779,7.76959874083765,0.917168561933252));
#688=CARTESIAN_POINT('',(7.99999999999999,0.,0.));
#689=CARTESIAN_POINT('',(0.545566169849071,-0.0104003255737808,0.099457709690401));
#690=CARTESIAN_POINT('',(7.99999999999999,0.,0.));
#691=(
GEOMETRIC_REPRESENTATION_CONTEXT(3)
GLOBAL_UNCERTAINTY_ASSIGNED_CONTEXT((#692))
GLOBAL_UNIT_ASSIGNED_CONTEXT((#698,#694,#693))
REPRESENTATION_CONTEXT('ATUM-33XD4-SO-09T306-light',
'TOP_LEVEL_ASSEMBLY_PART')
);
#692=UNCERTAINTY_MEASURE_WITH_UNIT(LENGTH_MEASURE(2.E-5),#698,
'DISTANCE_ACCURACY_VALUE','Maximum Tolerance applied to model');
#693=(
NAMED_UNIT(*)
SI_UNIT($,.STERADIAN.)
SOLID_ANGLE_UNIT()
);
#694=(
CONVERSION_BASED_UNIT('DEGREE',#696)
NAMED_UNIT(#695)
PLANE_ANGLE_UNIT()
);
#695=DIMENSIONAL_EXPONENTS(0.,0.,0.,0.,0.,0.,0.);
#696=PLANE_ANGLE_MEASURE_WITH_UNIT(PLANE_ANGLE_MEASURE(0.0174532925),#697);
#697=(
NAMED_UNIT(*)
PLANE_ANGLE_UNIT()
SI_UNIT($,.RADIAN.)
);
#698=(
LENGTH_UNIT()
NAMED_UNIT(*)
SI_UNIT(.MILLI.,.METRE.)
);
ENDSEC;
END-ISO-10303-21;
