ISO-10303-21;
HEADER;
/* Generated by software containing ST-Developer
 * from STEP Tools, Inc. (www.steptools.com) 
 */
/* OPTION: using custom schema-name function */

FILE_DESCRIPTION(
/* description */ (''),
/* implementation_level */ '2;1');

FILE_NAME(
/* name */ 'ATUM-34XD4-SO-09T306-light.stp',
/* time_stamp */ '2023-10-31T17:50:16+03:00',
/* author */ (''),
/* organization */ (''),
/* preprocessor_version */ 'ST-DEVELOPER v19.4',
/* originating_system */ 'SIEMENS PLM Software NX2306.3001',
/* authorisation */ '');

FILE_SCHEMA (('AUTOMOTIVE_DESIGN { 1 0 10303 214 3 1 1 1 }'));
ENDSEC;

DATA;
#10=SHAPE_REPRESENTATION_RELATIONSHIP('None',
'relationship between STP_ATUM 25XD4 SO.. 09T306-None and STP_ATUM 25X
D4 SO.. 09T306-None',#22,#11);
#11=ADVANCED_BREP_SHAPE_REPRESENTATION(
'STP_ATUM 25XD4 SO.. 09T306-None',(#70,#71),#715);
#12=SHAPE_DEFINITION_REPRESENTATION(#13,#22);
#13=PRODUCT_DEFINITION_SHAPE('','',#14);
#14=PRODUCT_DEFINITION(' ','',#16,#15);
#15=PRODUCT_DEFINITION_CONTEXT('part definition',#21,'design');
#16=PRODUCT_DEFINITION_FORMATION_WITH_SPECIFIED_SOURCE(' ',' ',#18,
 .NOT_KNOWN.);
#17=PRODUCT_RELATED_PRODUCT_CATEGORY('part','',(#18));
#18=PRODUCT('STP_ATUM 25XD4 SO.. 09T306','STP_ATUM 25XD4 SO.. 09T306',
' ',(#19));
#19=PRODUCT_CONTEXT(' ',#21,'mechanical');
#20=APPLICATION_PROTOCOL_DEFINITION('international standard',
'automotive_design',2010,#21);
#21=APPLICATION_CONTEXT(
'core data for automotive mechanical design processes');
#22=SHAPE_REPRESENTATION('STP_ATUM 25XD4 SO.. 09T306-None',(#414),#715);
#23=DRAUGHTING_PRE_DEFINED_COLOUR('yellow');
#24=LINE('',#691,#29);
#25=LINE('',#699,#30);
#26=LINE('',#705,#31);
#27=LINE('',#707,#32);
#28=LINE('',#713,#33);
#29=VECTOR('',#582,7.8);
#30=VECTOR('',#591,7.79999999999997);
#31=VECTOR('',#598,7.80000000000007);
#32=VECTOR('',#600,7.33171153038115);
#33=VECTOR('',#607,7.8);
#34=SURFACE_OF_REVOLUTION('',#402,#44);
#35=SURFACE_OF_REVOLUTION('',#405,#45);
#36=SURFACE_OF_REVOLUTION('',#24,#46);
#37=SURFACE_OF_REVOLUTION('',#408,#47);
#38=SURFACE_OF_REVOLUTION('',#25,#48);
#39=SURFACE_OF_REVOLUTION('',#411,#49);
#40=SURFACE_OF_REVOLUTION('',#26,#50);
#41=SURFACE_OF_REVOLUTION('',#27,#51);
#42=SURFACE_OF_REVOLUTION('',#413,#52);
#43=SURFACE_OF_REVOLUTION('',#28,#53);
#44=AXIS1_PLACEMENT('',#682,#572);
#45=AXIS1_PLACEMENT('',#688,#579);
#46=AXIS1_PLACEMENT('',#692,#583);
#47=AXIS1_PLACEMENT('',#696,#588);
#48=AXIS1_PLACEMENT('',#700,#592);
#49=AXIS1_PLACEMENT('',#704,#597);
#50=AXIS1_PLACEMENT('',#706,#599);
#51=AXIS1_PLACEMENT('',#708,#601);
#52=AXIS1_PLACEMENT('',#712,#606);
#53=AXIS1_PLACEMENT('',#714,#608);
#54=PRESENTATION_LAYER_ASSIGNMENT('1','Layer 1',(#70,#71));
#55=STYLED_ITEM('',(#57),#70);
#56=STYLED_ITEM('',(#58),#71);
#57=PRESENTATION_STYLE_ASSIGNMENT((#59));
#58=PRESENTATION_STYLE_ASSIGNMENT((#60));
#59=SURFACE_STYLE_USAGE(.BOTH.,#61);
#60=SURFACE_STYLE_USAGE(.BOTH.,#62);
#61=SURFACE_SIDE_STYLE('',(#63));
#62=SURFACE_SIDE_STYLE('',(#64));
#63=SURFACE_STYLE_FILL_AREA(#65);
#64=SURFACE_STYLE_FILL_AREA(#66);
#65=FILL_AREA_STYLE('',(#67));
#66=FILL_AREA_STYLE('',(#68));
#67=FILL_AREA_STYLE_COLOUR('',#69);
#68=FILL_AREA_STYLE_COLOUR('',#23);
#69=COLOUR_RGB('smoke gray',0.694117647058824,0.694117647058824,0.694117647058824);
#70=MANIFOLD_SOLID_BREP('',#72);
#71=MANIFOLD_SOLID_BREP('',#73);
#72=CLOSED_SHELL('',(#93,#94,#95,#96,#97,#98,#99,#100,#101,#102,#103,#104,
#105,#106,#107,#108,#109,#110,#111,#112,#113));
#73=CLOSED_SHELL('',(#114,#115,#116,#117,#118,#119,#120,#121,#122,#123,
#124,#125));
#74=FACE_OUTER_BOUND('',#216,.T.);
#75=FACE_OUTER_BOUND('',#231,.T.);
#76=FACE_OUTER_BOUND('',#232,.T.);
#77=FACE_OUTER_BOUND('',#233,.T.);
#78=PLANE('',#437);
#79=PLANE('',#440);
#80=PLANE('',#455);
#81=PLANE('',#457);
#82=PLANE('',#459);
#83=CONICAL_SURFACE('',#423,15.8103073792141,19.9999999999999);
#84=CONICAL_SURFACE('',#427,16.,15.0000000000006);
#85=CONICAL_SURFACE('',#435,16.205669240384,82.0000000000004);
#86=CONICAL_SURFACE('',#446,21.8543335556632,17.9279197620073);
#87=CONICAL_SURFACE('',#452,16.5,3.00000000000005);
#88=CYLINDRICAL_SURFACE('',#419,15.75);
#89=CYLINDRICAL_SURFACE('',#425,16.);
#90=CYLINDRICAL_SURFACE('',#431,15.75);
#91=CYLINDRICAL_SURFACE('',#442,22.);
#92=CYLINDRICAL_SURFACE('',#450,16.5);
#93=ADVANCED_FACE('',(#134,#135),#126,.T.);
#94=ADVANCED_FACE('',(#136,#137),#88,.T.);
#95=ADVANCED_FACE('',(#138,#139),#127,.F.);
#96=ADVANCED_FACE('',(#140,#141),#83,.T.);
#97=ADVANCED_FACE('',(#142,#143),#89,.T.);
#98=ADVANCED_FACE('',(#144,#145),#84,.T.);
#99=ADVANCED_FACE('',(#146,#147),#128,.F.);
#100=ADVANCED_FACE('',(#148,#149),#90,.T.);
#101=ADVANCED_FACE('',(#150,#151),#129,.F.);
#102=ADVANCED_FACE('',(#152,#153),#85,.F.);
#103=ADVANCED_FACE('',(#154,#155),#78,.F.);
#104=ADVANCED_FACE('',(#156,#157),#130,.T.);
#105=ADVANCED_FACE('',(#74),#79,.F.);
#106=ADVANCED_FACE('',(#158,#159),#91,.T.);
#107=ADVANCED_FACE('',(#160,#161),#131,.T.);
#108=ADVANCED_FACE('',(#162,#163),#86,.T.);
#109=ADVANCED_FACE('',(#164,#165),#132,.F.);
#110=ADVANCED_FACE('',(#166,#167),#92,.T.);
#111=ADVANCED_FACE('',(#168,#169),#87,.T.);
#112=ADVANCED_FACE('',(#170,#171),#133,.T.);
#113=ADVANCED_FACE('',(#75),#80,.F.);
#114=ADVANCED_FACE('',(#76),#81,.F.);
#115=ADVANCED_FACE('',(#77),#82,.T.);
#116=ADVANCED_FACE('',(#172,#173),#34,.T.);
#117=ADVANCED_FACE('',(#174,#175),#35,.T.);
#118=ADVANCED_FACE('',(#176,#177),#36,.T.);
#119=ADVANCED_FACE('',(#178,#179),#37,.T.);
#120=ADVANCED_FACE('',(#180,#181),#38,.T.);
#121=ADVANCED_FACE('',(#182,#183),#39,.T.);
#122=ADVANCED_FACE('',(#184,#185),#40,.T.);
#123=ADVANCED_FACE('',(#186,#187),#41,.T.);
#124=ADVANCED_FACE('',(#188,#189),#42,.T.);
#125=ADVANCED_FACE('',(#190,#191),#43,.T.);
#126=TOROIDAL_SURFACE('',#417,14.7500000000001,1.00000000000003);
#127=TOROIDAL_SURFACE('',#421,16.75,0.999999999999992);
#128=TOROIDAL_SURFACE('',#429,16.15,0.399999999999997);
#129=TOROIDAL_SURFACE('',#433,16.15,0.4);
#130=TOROIDAL_SURFACE('',#439,21.3,0.800000000000011);
#131=TOROIDAL_SURFACE('',#444,19.,3.);
#132=TOROIDAL_SURFACE('',#448,21.5,5.);
#133=TOROIDAL_SURFACE('',#454,14.807215540582,1.4);
#134=FACE_BOUND('',#192,.T.);
#135=FACE_BOUND('',#193,.T.);
#136=FACE_BOUND('',#194,.T.);
#137=FACE_BOUND('',#195,.T.);
#138=FACE_BOUND('',#196,.T.);
#139=FACE_BOUND('',#197,.T.);
#140=FACE_BOUND('',#198,.T.);
#141=FACE_BOUND('',#199,.T.);
#142=FACE_BOUND('',#200,.T.);
#143=FACE_BOUND('',#201,.T.);
#144=FACE_BOUND('',#202,.T.);
#145=FACE_BOUND('',#203,.T.);
#146=FACE_BOUND('',#204,.T.);
#147=FACE_BOUND('',#205,.T.);
#148=FACE_BOUND('',#206,.T.);
#149=FACE_BOUND('',#207,.T.);
#150=FACE_BOUND('',#208,.T.);
#151=FACE_BOUND('',#209,.T.);
#152=FACE_BOUND('',#210,.T.);
#153=FACE_BOUND('',#211,.T.);
#154=FACE_BOUND('',#212,.T.);
#155=FACE_BOUND('',#213,.T.);
#156=FACE_BOUND('',#214,.T.);
#157=FACE_BOUND('',#215,.T.);
#158=FACE_BOUND('',#217,.T.);
#159=FACE_BOUND('',#218,.T.);
#160=FACE_BOUND('',#219,.T.);
#161=FACE_BOUND('',#220,.T.);
#162=FACE_BOUND('',#221,.T.);
#163=FACE_BOUND('',#222,.T.);
#164=FACE_BOUND('',#223,.T.);
#165=FACE_BOUND('',#224,.T.);
#166=FACE_BOUND('',#225,.T.);
#167=FACE_BOUND('',#226,.T.);
#168=FACE_BOUND('',#227,.T.);
#169=FACE_BOUND('',#228,.T.);
#170=FACE_BOUND('',#229,.T.);
#171=FACE_BOUND('',#230,.T.);
#172=FACE_BOUND('',#234,.T.);
#173=FACE_BOUND('',#235,.T.);
#174=FACE_BOUND('',#236,.T.);
#175=FACE_BOUND('',#237,.T.);
#176=FACE_BOUND('',#238,.T.);
#177=FACE_BOUND('',#239,.T.);
#178=FACE_BOUND('',#240,.T.);
#179=FACE_BOUND('',#241,.T.);
#180=FACE_BOUND('',#242,.T.);
#181=FACE_BOUND('',#243,.T.);
#182=FACE_BOUND('',#244,.T.);
#183=FACE_BOUND('',#245,.T.);
#184=FACE_BOUND('',#246,.T.);
#185=FACE_BOUND('',#247,.T.);
#186=FACE_BOUND('',#248,.T.);
#187=FACE_BOUND('',#249,.T.);
#188=FACE_BOUND('',#250,.T.);
#189=FACE_BOUND('',#251,.T.);
#190=FACE_BOUND('',#252,.T.);
#191=FACE_BOUND('',#253,.T.);
#192=EDGE_LOOP('',(#254));
#193=EDGE_LOOP('',(#255));
#194=EDGE_LOOP('',(#256));
#195=EDGE_LOOP('',(#257));
#196=EDGE_LOOP('',(#258));
#197=EDGE_LOOP('',(#259));
#198=EDGE_LOOP('',(#260));
#199=EDGE_LOOP('',(#261));
#200=EDGE_LOOP('',(#262));
#201=EDGE_LOOP('',(#263));
#202=EDGE_LOOP('',(#264));
#203=EDGE_LOOP('',(#265));
#204=EDGE_LOOP('',(#266));
#205=EDGE_LOOP('',(#267));
#206=EDGE_LOOP('',(#268));
#207=EDGE_LOOP('',(#269));
#208=EDGE_LOOP('',(#270));
#209=EDGE_LOOP('',(#271));
#210=EDGE_LOOP('',(#272));
#211=EDGE_LOOP('',(#273));
#212=EDGE_LOOP('',(#274));
#213=EDGE_LOOP('',(#275));
#214=EDGE_LOOP('',(#276));
#215=EDGE_LOOP('',(#277));
#216=EDGE_LOOP('',(#278));
#217=EDGE_LOOP('',(#279));
#218=EDGE_LOOP('',(#280));
#219=EDGE_LOOP('',(#281));
#220=EDGE_LOOP('',(#282));
#221=EDGE_LOOP('',(#283));
#222=EDGE_LOOP('',(#284));
#223=EDGE_LOOP('',(#285));
#224=EDGE_LOOP('',(#286));
#225=EDGE_LOOP('',(#287));
#226=EDGE_LOOP('',(#288));
#227=EDGE_LOOP('',(#289));
#228=EDGE_LOOP('',(#290));
#229=EDGE_LOOP('',(#291));
#230=EDGE_LOOP('',(#292));
#231=EDGE_LOOP('',(#293));
#232=EDGE_LOOP('',(#294));
#233=EDGE_LOOP('',(#295));
#234=EDGE_LOOP('',(#296));
#235=EDGE_LOOP('',(#297));
#236=EDGE_LOOP('',(#298));
#237=EDGE_LOOP('',(#299));
#238=EDGE_LOOP('',(#300));
#239=EDGE_LOOP('',(#301));
#240=EDGE_LOOP('',(#302));
#241=EDGE_LOOP('',(#303));
#242=EDGE_LOOP('',(#304));
#243=EDGE_LOOP('',(#305));
#244=EDGE_LOOP('',(#306));
#245=EDGE_LOOP('',(#307));
#246=EDGE_LOOP('',(#308));
#247=EDGE_LOOP('',(#309));
#248=EDGE_LOOP('',(#310));
#249=EDGE_LOOP('',(#311));
#250=EDGE_LOOP('',(#312));
#251=EDGE_LOOP('',(#313));
#252=EDGE_LOOP('',(#314));
#253=EDGE_LOOP('',(#315));
#254=ORIENTED_EDGE('',*,*,#347,.T.);
#255=ORIENTED_EDGE('',*,*,#348,.T.);
#256=ORIENTED_EDGE('',*,*,#349,.T.);
#257=ORIENTED_EDGE('',*,*,#347,.F.);
#258=ORIENTED_EDGE('',*,*,#350,.T.);
#259=ORIENTED_EDGE('',*,*,#349,.F.);
#260=ORIENTED_EDGE('',*,*,#351,.T.);
#261=ORIENTED_EDGE('',*,*,#350,.F.);
#262=ORIENTED_EDGE('',*,*,#352,.T.);
#263=ORIENTED_EDGE('',*,*,#351,.F.);
#264=ORIENTED_EDGE('',*,*,#353,.T.);
#265=ORIENTED_EDGE('',*,*,#352,.F.);
#266=ORIENTED_EDGE('',*,*,#354,.T.);
#267=ORIENTED_EDGE('',*,*,#353,.F.);
#268=ORIENTED_EDGE('',*,*,#355,.T.);
#269=ORIENTED_EDGE('',*,*,#354,.F.);
#270=ORIENTED_EDGE('',*,*,#356,.T.);
#271=ORIENTED_EDGE('',*,*,#355,.F.);
#272=ORIENTED_EDGE('',*,*,#357,.T.);
#273=ORIENTED_EDGE('',*,*,#356,.F.);
#274=ORIENTED_EDGE('',*,*,#358,.T.);
#275=ORIENTED_EDGE('',*,*,#357,.F.);
#276=ORIENTED_EDGE('',*,*,#359,.T.);
#277=ORIENTED_EDGE('',*,*,#358,.F.);
#278=ORIENTED_EDGE('',*,*,#348,.F.);
#279=ORIENTED_EDGE('',*,*,#360,.T.);
#280=ORIENTED_EDGE('',*,*,#359,.F.);
#281=ORIENTED_EDGE('',*,*,#361,.T.);
#282=ORIENTED_EDGE('',*,*,#360,.F.);
#283=ORIENTED_EDGE('',*,*,#362,.T.);
#284=ORIENTED_EDGE('',*,*,#361,.F.);
#285=ORIENTED_EDGE('',*,*,#363,.T.);
#286=ORIENTED_EDGE('',*,*,#362,.F.);
#287=ORIENTED_EDGE('',*,*,#364,.T.);
#288=ORIENTED_EDGE('',*,*,#363,.F.);
#289=ORIENTED_EDGE('',*,*,#365,.T.);
#290=ORIENTED_EDGE('',*,*,#364,.F.);
#291=ORIENTED_EDGE('',*,*,#366,.T.);
#292=ORIENTED_EDGE('',*,*,#365,.F.);
#293=ORIENTED_EDGE('',*,*,#366,.F.);
#294=ORIENTED_EDGE('',*,*,#367,.F.);
#295=ORIENTED_EDGE('',*,*,#368,.T.);
#296=ORIENTED_EDGE('',*,*,#369,.T.);
#297=ORIENTED_EDGE('',*,*,#370,.F.);
#298=ORIENTED_EDGE('',*,*,#371,.F.);
#299=ORIENTED_EDGE('',*,*,#372,.F.);
#300=ORIENTED_EDGE('',*,*,#373,.F.);
#301=ORIENTED_EDGE('',*,*,#371,.T.);
#302=ORIENTED_EDGE('',*,*,#374,.F.);
#303=ORIENTED_EDGE('',*,*,#373,.T.);
#304=ORIENTED_EDGE('',*,*,#375,.F.);
#305=ORIENTED_EDGE('',*,*,#374,.T.);
#306=ORIENTED_EDGE('',*,*,#376,.F.);
#307=ORIENTED_EDGE('',*,*,#375,.T.);
#308=ORIENTED_EDGE('',*,*,#369,.F.);
#309=ORIENTED_EDGE('',*,*,#376,.T.);
#310=ORIENTED_EDGE('',*,*,#368,.F.);
#311=ORIENTED_EDGE('',*,*,#370,.T.);
#312=ORIENTED_EDGE('',*,*,#377,.T.);
#313=ORIENTED_EDGE('',*,*,#372,.T.);
#314=ORIENTED_EDGE('',*,*,#377,.F.);
#315=ORIENTED_EDGE('',*,*,#367,.T.);
#316=VERTEX_POINT('',#611);
#317=VERTEX_POINT('',#613);
#318=VERTEX_POINT('',#616);
#319=VERTEX_POINT('',#619);
#320=VERTEX_POINT('',#622);
#321=VERTEX_POINT('',#625);
#322=VERTEX_POINT('',#628);
#323=VERTEX_POINT('',#631);
#324=VERTEX_POINT('',#634);
#325=VERTEX_POINT('',#637);
#326=VERTEX_POINT('',#640);
#327=VERTEX_POINT('',#643);
#328=VERTEX_POINT('',#646);
#329=VERTEX_POINT('',#650);
#330=VERTEX_POINT('',#653);
#331=VERTEX_POINT('',#656);
#332=VERTEX_POINT('',#659);
#333=VERTEX_POINT('',#662);
#334=VERTEX_POINT('',#665);
#335=VERTEX_POINT('',#668);
#336=VERTEX_POINT('',#672);
#337=VERTEX_POINT('',#675);
#338=VERTEX_POINT('',#678);
#339=VERTEX_POINT('',#680);
#340=VERTEX_POINT('',#684);
#341=VERTEX_POINT('',#686);
#342=VERTEX_POINT('',#690);
#343=VERTEX_POINT('',#694);
#344=VERTEX_POINT('',#698);
#345=VERTEX_POINT('',#702);
#346=VERTEX_POINT('',#710);
#347=EDGE_CURVE('',#316,#316,#378,.T.);
#348=EDGE_CURVE('',#317,#317,#379,.T.);
#349=EDGE_CURVE('',#318,#318,#380,.T.);
#350=EDGE_CURVE('',#319,#319,#381,.T.);
#351=EDGE_CURVE('',#320,#320,#382,.T.);
#352=EDGE_CURVE('',#321,#321,#383,.T.);
#353=EDGE_CURVE('',#322,#322,#384,.T.);
#354=EDGE_CURVE('',#323,#323,#385,.T.);
#355=EDGE_CURVE('',#324,#324,#386,.T.);
#356=EDGE_CURVE('',#325,#325,#387,.T.);
#357=EDGE_CURVE('',#326,#326,#388,.T.);
#358=EDGE_CURVE('',#327,#327,#389,.T.);
#359=EDGE_CURVE('',#328,#328,#390,.T.);
#360=EDGE_CURVE('',#329,#329,#391,.T.);
#361=EDGE_CURVE('',#330,#330,#392,.T.);
#362=EDGE_CURVE('',#331,#331,#393,.T.);
#363=EDGE_CURVE('',#332,#332,#394,.T.);
#364=EDGE_CURVE('',#333,#333,#395,.T.);
#365=EDGE_CURVE('',#334,#334,#396,.T.);
#366=EDGE_CURVE('',#335,#335,#397,.T.);
#367=EDGE_CURVE('',#336,#336,#398,.T.);
#368=EDGE_CURVE('',#337,#337,#399,.T.);
#369=EDGE_CURVE('',#338,#338,#400,.T.);
#370=EDGE_CURVE('',#339,#339,#401,.T.);
#371=EDGE_CURVE('',#340,#340,#403,.T.);
#372=EDGE_CURVE('',#341,#341,#404,.T.);
#373=EDGE_CURVE('',#342,#342,#406,.T.);
#374=EDGE_CURVE('',#343,#343,#407,.T.);
#375=EDGE_CURVE('',#344,#344,#409,.T.);
#376=EDGE_CURVE('',#345,#345,#410,.T.);
#377=EDGE_CURVE('',#346,#346,#412,.T.);
#378=CIRCLE('',#415,15.7500000000001);
#379=CIRCLE('',#416,14.7500000000001);
#380=CIRCLE('',#418,15.75);
#381=CIRCLE('',#420,15.8103073792141);
#382=CIRCLE('',#422,16.);
#383=CIRCLE('',#424,16.);
#384=CIRCLE('',#426,15.7636296694844);
#385=CIRCLE('',#428,15.75);
#386=CIRCLE('',#430,15.75);
#387=CIRCLE('',#432,16.205669240384);
#388=CIRCLE('',#434,17.);
#389=CIRCLE('',#436,21.3);
#390=CIRCLE('',#438,22.);
#391=CIRCLE('',#441,22.);
#392=CIRCLE('',#443,21.8543335556632);
#393=CIRCLE('',#445,16.7427774072279);
#394=CIRCLE('',#447,16.5);
#395=CIRCLE('',#449,16.5);
#396=CIRCLE('',#451,16.2052968892384);
#397=CIRCLE('',#453,14.807215540582);
#398=CIRCLE('',#456,0.100000013944503);
#399=CIRCLE('',#458,0.635774746218634);
#400=CIRCLE('',#460,8.04907796380676);
#401=CIRCLE('',#461,7.94234248547812);
#402=CIRCLE('',#462,0.6);
#403=CIRCLE('',#463,8.67467943344859);
#404=CIRCLE('',#464,8.25607312784212);
#405=CIRCLE('',#465,0.600000000000001);
#406=CIRCLE('',#466,16.4422971316612);
#407=CIRCLE('',#467,16.9984934829292);
#408=CIRCLE('',#468,0.600000000000001);
#409=CIRCLE('',#469,16.4548697818016);
#410=CIRCLE('',#470,15.8150806533759);
#411=CIRCLE('',#471,0.6);
#412=CIRCLE('',#472,7.78169496214631);
#413=CIRCLE('',#473,0.6);
#414=AXIS2_PLACEMENT_3D('',#609,#474,#475);
#415=AXIS2_PLACEMENT_3D('',#610,#476,#477);
#416=AXIS2_PLACEMENT_3D('',#612,#478,#479);
#417=AXIS2_PLACEMENT_3D('',#614,#480,#481);
#418=AXIS2_PLACEMENT_3D('',#615,#482,#483);
#419=AXIS2_PLACEMENT_3D('',#617,#484,#485);
#420=AXIS2_PLACEMENT_3D('',#618,#486,#487);
#421=AXIS2_PLACEMENT_3D('',#620,#488,#489);
#422=AXIS2_PLACEMENT_3D('',#621,#490,#491);
#423=AXIS2_PLACEMENT_3D('',#623,#492,#493);
#424=AXIS2_PLACEMENT_3D('',#624,#494,#495);
#425=AXIS2_PLACEMENT_3D('',#626,#496,#497);
#426=AXIS2_PLACEMENT_3D('',#627,#498,#499);
#427=AXIS2_PLACEMENT_3D('',#629,#500,#501);
#428=AXIS2_PLACEMENT_3D('',#630,#502,#503);
#429=AXIS2_PLACEMENT_3D('',#632,#504,#505);
#430=AXIS2_PLACEMENT_3D('',#633,#506,#507);
#431=AXIS2_PLACEMENT_3D('',#635,#508,#509);
#432=AXIS2_PLACEMENT_3D('',#636,#510,#511);
#433=AXIS2_PLACEMENT_3D('',#638,#512,#513);
#434=AXIS2_PLACEMENT_3D('',#639,#514,#515);
#435=AXIS2_PLACEMENT_3D('',#641,#516,#517);
#436=AXIS2_PLACEMENT_3D('',#642,#518,#519);
#437=AXIS2_PLACEMENT_3D('',#644,#520,#521);
#438=AXIS2_PLACEMENT_3D('',#645,#522,#523);
#439=AXIS2_PLACEMENT_3D('',#647,#524,#525);
#440=AXIS2_PLACEMENT_3D('',#648,#526,#527);
#441=AXIS2_PLACEMENT_3D('',#649,#528,#529);
#442=AXIS2_PLACEMENT_3D('',#651,#530,#531);
#443=AXIS2_PLACEMENT_3D('',#652,#532,#533);
#444=AXIS2_PLACEMENT_3D('',#654,#534,#535);
#445=AXIS2_PLACEMENT_3D('',#655,#536,#537);
#446=AXIS2_PLACEMENT_3D('',#657,#538,#539);
#447=AXIS2_PLACEMENT_3D('',#658,#540,#541);
#448=AXIS2_PLACEMENT_3D('',#660,#542,#543);
#449=AXIS2_PLACEMENT_3D('',#661,#544,#545);
#450=AXIS2_PLACEMENT_3D('',#663,#546,#547);
#451=AXIS2_PLACEMENT_3D('',#664,#548,#549);
#452=AXIS2_PLACEMENT_3D('',#666,#550,#551);
#453=AXIS2_PLACEMENT_3D('',#667,#552,#553);
#454=AXIS2_PLACEMENT_3D('',#669,#554,#555);
#455=AXIS2_PLACEMENT_3D('',#670,#556,#557);
#456=AXIS2_PLACEMENT_3D('',#671,#558,#559);
#457=AXIS2_PLACEMENT_3D('',#673,#560,#561);
#458=AXIS2_PLACEMENT_3D('',#674,#562,#563);
#459=AXIS2_PLACEMENT_3D('',#676,#564,#565);
#460=AXIS2_PLACEMENT_3D('',#677,#566,#567);
#461=AXIS2_PLACEMENT_3D('',#679,#568,#569);
#462=AXIS2_PLACEMENT_3D('',#681,#570,#571);
#463=AXIS2_PLACEMENT_3D('',#683,#573,#574);
#464=AXIS2_PLACEMENT_3D('',#685,#575,#576);
#465=AXIS2_PLACEMENT_3D('',#687,#577,#578);
#466=AXIS2_PLACEMENT_3D('',#689,#580,#581);
#467=AXIS2_PLACEMENT_3D('',#693,#584,#585);
#468=AXIS2_PLACEMENT_3D('',#695,#586,#587);
#469=AXIS2_PLACEMENT_3D('',#697,#589,#590);
#470=AXIS2_PLACEMENT_3D('',#701,#593,#594);
#471=AXIS2_PLACEMENT_3D('',#703,#595,#596);
#472=AXIS2_PLACEMENT_3D('',#709,#602,#603);
#473=AXIS2_PLACEMENT_3D('',#711,#604,#605);
#474=DIRECTION('',(0.,0.,1.));
#475=DIRECTION('',(1.,0.,0.));
#476=DIRECTION('',(1.,0.,0.));
#477=DIRECTION('',(0.,0.,1.));
#478=DIRECTION('',(-1.,0.,0.));
#479=DIRECTION('',(0.,0.,1.));
#480=DIRECTION('',(-1.,0.,0.));
#481=DIRECTION('',(0.,0.,1.));
#482=DIRECTION('',(1.,0.,0.));
#483=DIRECTION('',(0.,0.,1.));
#484=DIRECTION('',(-1.,0.,0.));
#485=DIRECTION('',(0.,0.,1.));
#486=DIRECTION('',(1.,0.,0.));
#487=DIRECTION('',(0.,0.,1.));
#488=DIRECTION('',(-1.,0.,0.));
#489=DIRECTION('',(0.,0.,1.));
#490=DIRECTION('',(1.,0.,0.));
#491=DIRECTION('',(0.,0.,1.));
#492=DIRECTION('',(-1.,0.,0.));
#493=DIRECTION('',(1.46166391228875E-16,0.,1.));
#494=DIRECTION('',(1.,0.,0.));
#495=DIRECTION('',(0.,0.,1.));
#496=DIRECTION('',(-1.,0.,0.));
#497=DIRECTION('',(0.,0.,1.));
#498=DIRECTION('',(1.,0.,0.));
#499=DIRECTION('',(0.,0.,1.));
#500=DIRECTION('',(1.,0.,0.));
#501=DIRECTION('',(9.77483872307909E-17,0.,-1.));
#502=DIRECTION('',(1.,0.,0.));
#503=DIRECTION('',(0.,0.,1.));
#504=DIRECTION('',(-1.,0.,0.));
#505=DIRECTION('',(0.,0.,1.));
#506=DIRECTION('',(1.,0.,0.));
#507=DIRECTION('',(0.,0.,1.));
#508=DIRECTION('',(-1.,0.,0.));
#509=DIRECTION('',(0.,0.,1.));
#510=DIRECTION('',(1.,0.,0.));
#511=DIRECTION('',(0.,0.,1.));
#512=DIRECTION('',(-1.,0.,0.));
#513=DIRECTION('',(0.,0.,1.));
#514=DIRECTION('',(1.,0.,0.));
#515=DIRECTION('',(0.,0.,1.));
#516=DIRECTION('',(1.,0.,0.));
#517=DIRECTION('',(0.,0.,-1.));
#518=DIRECTION('',(1.,0.,0.));
#519=DIRECTION('',(0.,0.,1.));
#520=DIRECTION('',(-1.,0.,0.));
#521=DIRECTION('',(0.,0.,1.));
#522=DIRECTION('',(1.,0.,0.));
#523=DIRECTION('',(0.,0.,1.));
#524=DIRECTION('',(-1.,0.,0.));
#525=DIRECTION('',(0.,0.,1.));
#526=DIRECTION('',(-1.,0.,0.));
#527=DIRECTION('',(0.,0.,1.));
#528=DIRECTION('',(1.,0.,0.));
#529=DIRECTION('',(0.,0.,1.));
#530=DIRECTION('',(-1.,0.,0.));
#531=DIRECTION('',(0.,0.,1.));
#532=DIRECTION('',(1.,0.,0.));
#533=DIRECTION('',(0.,0.,1.));
#534=DIRECTION('',(-1.,0.,0.));
#535=DIRECTION('',(0.,0.,1.));
#536=DIRECTION('',(1.,0.,0.));
#537=DIRECTION('',(0.,0.,1.));
#538=DIRECTION('',(1.,0.,0.));
#539=DIRECTION('',(-3.21446228917154E-16,0.,-1.));
#540=DIRECTION('',(1.,0.,0.));
#541=DIRECTION('',(0.,0.,1.));
#542=DIRECTION('',(-1.,0.,0.));
#543=DIRECTION('',(0.,0.,1.));
#544=DIRECTION('',(1.,0.,0.));
#545=DIRECTION('',(0.,0.,1.));
#546=DIRECTION('',(-1.,0.,0.));
#547=DIRECTION('',(0.,0.,1.));
#548=DIRECTION('',(1.,0.,0.));
#549=DIRECTION('',(0.,0.,1.));
#550=DIRECTION('',(1.,0.,0.));
#551=DIRECTION('',(0.,0.,-1.));
#552=DIRECTION('',(1.,0.,0.));
#553=DIRECTION('',(0.,0.,1.));
#554=DIRECTION('',(-1.,0.,0.));
#555=DIRECTION('',(0.,0.,1.));
#556=DIRECTION('',(1.,0.,0.));
#557=DIRECTION('',(0.,0.,-1.));
#558=DIRECTION('',(1.,0.,0.));
#559=DIRECTION('',(0.,0.,-1.));
#560=DIRECTION('',(1.,0.,0.));
#561=DIRECTION('',(0.,0.,-1.));
#562=DIRECTION('',(1.,0.,0.));
#563=DIRECTION('',(0.,0.,-1.));
#564=DIRECTION('',(1.,0.,0.));
#565=DIRECTION('',(0.,0.,-1.));
#566=DIRECTION('',(1.,0.,0.));
#567=DIRECTION('',(0.,0.,-1.));
#568=DIRECTION('',(1.,0.,0.));
#569=DIRECTION('',(0.,0.,-1.));
#570=DIRECTION('',(1.03418599996757E-16,6.28784367983674E-17,1.));
#571=DIRECTION('',(0.997564050259824,0.0697564737441254,-1.07552855510562E-16));
#572=DIRECTION('',(1.,0.,0.));
#573=DIRECTION('',(1.,0.,0.));
#574=DIRECTION('',(0.,0.,-1.));
#575=DIRECTION('',(-1.,0.,0.));
#576=DIRECTION('',(0.,0.,-1.));
#577=DIRECTION('',(1.03418599996757E-16,6.28784367983674E-17,1.));
#578=DIRECTION('',(0.997564050259824,0.0697564737441254,-1.07552855510562E-16));
#579=DIRECTION('',(1.,0.,0.));
#580=DIRECTION('',(1.,0.,0.));
#581=DIRECTION('',(0.,0.,-1.));
#582=DIRECTION('',(0.0697564737441257,-0.997564050259824,-1.39000278523783E-17));
#583=DIRECTION('',(1.,0.,0.));
#584=DIRECTION('',(1.,0.,0.));
#585=DIRECTION('',(0.,0.,-1.));
#586=DIRECTION('',(1.03418599996757E-16,6.28784367983674E-17,1.));
#587=DIRECTION('',(0.997564050259824,0.0697564737441254,-1.07552855510562E-16));
#588=DIRECTION('',(1.,0.,0.));
#589=DIRECTION('',(1.,0.,0.));
#590=DIRECTION('',(0.,0.,-1.));
#591=DIRECTION('',(0.997564050259824,0.0697564737441248,-9.73001949666481E-17));
#592=DIRECTION('',(1.,0.,0.));
#593=DIRECTION('',(1.,0.,0.));
#594=DIRECTION('',(0.,0.,-1.));
#595=DIRECTION('',(1.03418599996757E-16,6.28784367983674E-17,1.));
#596=DIRECTION('',(0.997564050259824,0.0697564737441254,-1.07552855510562E-16));
#597=DIRECTION('',(1.,0.,0.));
#598=DIRECTION('',(-0.0697564737441253,0.997564050259824,2.78000557047566E-17));
#599=DIRECTION('',(1.,0.,0.));
#600=DIRECTION('',(0.0697564737441243,-0.992099290015652,-0.104273837184716));
#601=DIRECTION('',(1.,0.,0.));
#602=DIRECTION('',(1.,0.,0.));
#603=DIRECTION('',(0.,0.,-1.));
#604=DIRECTION('',(-1.80411241501588E-16,0.104528463267654,-0.994521895368273));
#605=DIRECTION('',(0.997564050259824,0.0693743404822155,0.00729153700344376));
#606=DIRECTION('',(1.,0.,0.));
#607=DIRECTION('',(-0.0697564737441246,0.992099290015652,0.104273837184716));
#608=DIRECTION('',(1.,0.,0.));
#609=CARTESIAN_POINT('',(0.,0.,0.));
#610=CARTESIAN_POINT('',(222.,0.,0.));
#611=CARTESIAN_POINT('',(222.,0.,15.7500000000001));
#612=CARTESIAN_POINT('',(223.,0.,0.));
#613=CARTESIAN_POINT('',(223.,0.,14.7500000000001));
#614=CARTESIAN_POINT('',(222.,0.,0.));
#615=CARTESIAN_POINT('',(220.176326980709,0.,0.));
#616=CARTESIAN_POINT('',(220.176326980709,0.,15.75));
#617=CARTESIAN_POINT('',(0.,0.,0.));
#618=CARTESIAN_POINT('',(219.834306837383,0.,0.));
#619=CARTESIAN_POINT('',(219.834306837383,0.,15.8103073792141));
#620=CARTESIAN_POINT('',(220.176326980709,0.,0.));
#621=CARTESIAN_POINT('',(219.313130645136,0.,0.));
#622=CARTESIAN_POINT('',(219.313130645136,0.,16.));
#623=CARTESIAN_POINT('',(219.834306837383,0.,0.));
#624=CARTESIAN_POINT('',(165.,0.,0.));
#625=CARTESIAN_POINT('',(165.,0.,16.));
#626=CARTESIAN_POINT('',(0.,0.,0.));
#627=CARTESIAN_POINT('',(164.117853917114,0.,0.));
#628=CARTESIAN_POINT('',(164.117853917114,0.,15.7636296694844));
#629=CARTESIAN_POINT('',(165.,0.,0.));
#630=CARTESIAN_POINT('',(164.014326299073,0.,0.));
#631=CARTESIAN_POINT('',(164.014326299073,0.,15.75));
#632=CARTESIAN_POINT('',(164.014326299073,0.,0.));
#633=CARTESIAN_POINT('',(163.28447131951,0.,0.));
#634=CARTESIAN_POINT('',(163.28447131951,0.,15.75));
#635=CARTESIAN_POINT('',(0.,0.,0.));
#636=CARTESIAN_POINT('',(162.888364092014,0.,0.));
#637=CARTESIAN_POINT('',(162.888364092014,0.,16.205669240384));
#638=CARTESIAN_POINT('',(163.28447131951,0.,0.));
#639=CARTESIAN_POINT('',(163.,0.,0.));
#640=CARTESIAN_POINT('',(163.,0.,17.));
#641=CARTESIAN_POINT('',(162.888364092014,0.,0.));
#642=CARTESIAN_POINT('',(163.,0.,0.));
#643=CARTESIAN_POINT('',(163.,0.,21.3));
#644=CARTESIAN_POINT('',(163.,17.,0.));
#645=CARTESIAN_POINT('',(162.587298334621,0.,0.));
#646=CARTESIAN_POINT('',(162.587298334621,0.,22.));
#647=CARTESIAN_POINT('',(162.2,0.,0.));
#648=CARTESIAN_POINT('',(223.,22.5,0.));
#649=CARTESIAN_POINT('',(158.473219119203,0.,0.));
#650=CARTESIAN_POINT('',(158.473219119203,0.,22.));
#651=CARTESIAN_POINT('',(0.,0.,0.));
#652=CARTESIAN_POINT('',(157.549758262959,0.,0.));
#653=CARTESIAN_POINT('',(157.549758262959,0.,21.8543335556632));
#654=CARTESIAN_POINT('',(158.473219119203,0.,0.));
#655=CARTESIAN_POINT('',(141.750402895068,0.,0.));
#656=CARTESIAN_POINT('',(141.750402895068,0.,16.7427774072279));
#657=CARTESIAN_POINT('',(157.549758262959,0.,0.));
#658=CARTESIAN_POINT('',(140.211301467995,0.,0.));
#659=CARTESIAN_POINT('',(140.211301467995,0.,16.5));
#660=CARTESIAN_POINT('',(140.211301467995,0.,0.));
#661=CARTESIAN_POINT('',(8.00000000000001,0.,0.));
#662=CARTESIAN_POINT('',(8.00000000000001,0.,16.5));
#663=CARTESIAN_POINT('',(0.,0.,0.));
#664=CARTESIAN_POINT('',(2.37672966125988,0.,0.));
#665=CARTESIAN_POINT('',(2.37672966125988,0.,16.2052968892384));
#666=CARTESIAN_POINT('',(8.00000000000001,0.,0.));
#667=CARTESIAN_POINT('',(1.05,0.,0.));
#668=CARTESIAN_POINT('',(1.05,0.,14.807215540582));
#669=CARTESIAN_POINT('',(2.45,0.,0.));
#670=CARTESIAN_POINT('',(1.05,14.807215540582,0.));
#671=CARTESIAN_POINT('',(0.54556616984907,0.,0.));
#672=CARTESIAN_POINT('',(0.54556616984907,0.,-0.100000013944503));
#673=CARTESIAN_POINT('',(0.54556616984907,0.,0.));
#674=CARTESIAN_POINT('',(9.5236426221875,0.,0.));
#675=CARTESIAN_POINT('',(9.5236426221875,0.,-0.635774746218634));
#676=CARTESIAN_POINT('',(9.5236426221875,0.,0.));
#677=CARTESIAN_POINT('',(9.02954212698313,0.,0.));
#678=CARTESIAN_POINT('',(9.02954212698313,0.,-8.04907796380676));
#679=CARTESIAN_POINT('',(9.01220827931897,0.,0.));
#680=CARTESIAN_POINT('',(9.01220827931897,0.,-7.94234248547812));
#681=CARTESIAN_POINT('',(8.43100369682728,-8.06043580796842,0.700000000000001));
#682=CARTESIAN_POINT('',(7.99999999999999,0.,0.));
#683=CARTESIAN_POINT('',(0.0514656746447399,0.,0.));
#684=CARTESIAN_POINT('',(0.0514656746447399,0.,-8.67467943344859));
#685=CARTESIAN_POINT('',(0.184202704670049,0.,0.));
#686=CARTESIAN_POINT('',(0.184202704670049,0.,-8.25607312784212));
#687=CARTESIAN_POINT('',(0.650004104800632,-8.60453630317259,0.700000000000001));
#688=CARTESIAN_POINT('',(7.99999999999999,0.,0.));
#689=CARTESIAN_POINT('',(0.595566169848919,0.,0.));
#690=CARTESIAN_POINT('',(0.595566169848919,0.,-16.4422971316612));
#691=CARTESIAN_POINT('',(0.0514656746447393,-8.64639018741902,0.7));
#692=CARTESIAN_POINT('',(7.99999999999999,0.,0.));
#693=CARTESIAN_POINT('',(1.23595848425129,0.,0.));
#694=CARTESIAN_POINT('',(1.23595848425129,0.,-16.9984934829292));
#695=CARTESIAN_POINT('',(1.19410460000482,-16.3855358951992,0.700000000000002));
#696=CARTESIAN_POINT('',(7.99999999999999,0.,0.));
#697=CARTESIAN_POINT('',(9.01695807627789,0.,0.));
#698=CARTESIAN_POINT('',(9.01695807627789,0.,-16.4548697818016));
#699=CARTESIAN_POINT('',(1.23595848425129,-16.9840743253551,0.7));
#700=CARTESIAN_POINT('',(7.99999999999999,0.,0.));
#701=CARTESIAN_POINT('',(9.57364262218735,0.,0.));
#702=CARTESIAN_POINT('',(9.57364262218735,0.,-15.8150806533759));
#703=CARTESIAN_POINT('',(8.97510419203146,-15.8414353999951,0.700000000000001));
#704=CARTESIAN_POINT('',(7.99999999999999,0.,0.));
#705=CARTESIAN_POINT('',(9.57364262218732,-15.7995815157486,0.699999999999999));
#706=CARTESIAN_POINT('',(7.99999999999999,0.,0.));
#707=CARTESIAN_POINT('',(9.01220827931897,7.88775454265686,0.929587237125661));
#708=CARTESIAN_POINT('',(7.99999999999999,0.,0.));
#709=CARTESIAN_POINT('',(0.00146567464489808,0.,0.));
#710=CARTESIAN_POINT('',(0.00146567464489808,0.,-7.78169496214631));
#711=CARTESIAN_POINT('',(0.600004104800779,7.76959874083765,0.917168561933252));
#712=CARTESIAN_POINT('',(7.99999999999999,0.,0.));
#713=CARTESIAN_POINT('',(0.545566169849071,-0.0104003255737808,0.099457709690401));
#714=CARTESIAN_POINT('',(7.99999999999999,0.,0.));
#715=(
GEOMETRIC_REPRESENTATION_CONTEXT(3)
GLOBAL_UNCERTAINTY_ASSIGNED_CONTEXT((#716))
GLOBAL_UNIT_ASSIGNED_CONTEXT((#722,#718,#717))
REPRESENTATION_CONTEXT('ATUM-34XD4-SO-09T306-light',
'TOP_LEVEL_ASSEMBLY_PART')
);
#716=UNCERTAINTY_MEASURE_WITH_UNIT(LENGTH_MEASURE(2.E-5),#722,
'DISTANCE_ACCURACY_VALUE','Maximum Tolerance applied to model');
#717=(
NAMED_UNIT(*)
SI_UNIT($,.STERADIAN.)
SOLID_ANGLE_UNIT()
);
#718=(
CONVERSION_BASED_UNIT('DEGREE',#720)
NAMED_UNIT(#719)
PLANE_ANGLE_UNIT()
);
#719=DIMENSIONAL_EXPONENTS(0.,0.,0.,0.,0.,0.,0.);
#720=PLANE_ANGLE_MEASURE_WITH_UNIT(PLANE_ANGLE_MEASURE(0.0174532925),#721);
#721=(
NAMED_UNIT(*)
PLANE_ANGLE_UNIT()
SI_UNIT($,.RADIAN.)
);
#722=(
LENGTH_UNIT()
NAMED_UNIT(*)
SI_UNIT(.MILLI.,.METRE.)
);
ENDSEC;
END-ISO-10303-21;
