ISO-10303-21;
HEADER;
/* Generated by software containing ST-Developer
 * from STEP Tools, Inc. (www.steptools.com) 
 */
/* OPTION: using custom schema-name function */

FILE_DESCRIPTION(
/* description */ (''),
/* implementation_level */ '2;1');

FILE_NAME(
/* name */ 'ATUM-37XD2-KDR-1304-light.stp',
/* time_stamp */ '2023-10-24T06:20:19+03:00',
/* author */ (''),
/* organization */ (''),
/* preprocessor_version */ 'ST-DEVELOPER v19.4',
/* originating_system */ 'SIEMENS PLM Software NX2306.3001',
/* authorisation */ '');

FILE_SCHEMA (('AUTOMOTIVE_DESIGN { 1 0 10303 214 3 1 1 1 }'));
ENDSEC;

DATA;
#10=SHAPE_REPRESENTATION_RELATIONSHIP('None',
'relationship between STP_ATUM 36XD2 KDR 1304..-None and STP_ATUM 36XD
2 KDR 1304..-None',#22,#11);
#11=ADVANCED_BREP_SHAPE_REPRESENTATION('STP_ATUM 36XD2 KDR 1304..-None',
(#74,#75),#695);
#12=SHAPE_DEFINITION_REPRESENTATION(#13,#22);
#13=PRODUCT_DEFINITION_SHAPE('','',#14);
#14=PRODUCT_DEFINITION(' ','',#16,#15);
#15=PRODUCT_DEFINITION_CONTEXT('part definition',#21,'design');
#16=PRODUCT_DEFINITION_FORMATION_WITH_SPECIFIED_SOURCE(' ',' ',#18,
 .NOT_KNOWN.);
#17=PRODUCT_RELATED_PRODUCT_CATEGORY('part','',(#18));
#18=PRODUCT('STP_ATUM 36XD2 KDR 1304..','STP_ATUM 36XD2 KDR 1304..',' ',
(#19));
#19=PRODUCT_CONTEXT(' ',#21,'mechanical');
#20=APPLICATION_PROTOCOL_DEFINITION('international standard',
'automotive_design',2010,#21);
#21=APPLICATION_CONTEXT(
'core data for automotive mechanical design processes');
#22=SHAPE_REPRESENTATION('STP_ATUM 36XD2 KDR 1304..-None',(#403),#695);
#23=DRAUGHTING_PRE_DEFINED_COLOUR('yellow');
#24=B_SPLINE_CURVE_WITH_KNOTS('',3,(#663,#664,#665,#666,#667,#668,#669),
 .UNSPECIFIED.,.F.,.F.,(4,1,1,1,4),(0.,0.25,0.5,0.75,1.),.UNSPECIFIED.);
#25=B_SPLINE_CURVE_WITH_KNOTS('',3,(#675,#676,#677,#678,#679,#680,#681),
 .UNSPECIFIED.,.F.,.F.,(4,1,1,1,4),(0.,0.25,0.5,0.75,1.),.UNSPECIFIED.);
#26=SURFACE_OF_REVOLUTION('',#44,#35);
#27=SURFACE_OF_REVOLUTION('',#45,#36);
#28=SURFACE_OF_REVOLUTION('',#24,#37);
#29=SURFACE_OF_REVOLUTION('',#46,#38);
#30=SURFACE_OF_REVOLUTION('',#25,#39);
#31=SURFACE_OF_REVOLUTION('',#47,#40);
#32=SURFACE_OF_REVOLUTION('',#48,#41);
#33=SURFACE_OF_REVOLUTION('',#49,#42);
#34=SURFACE_OF_REVOLUTION('',#50,#43);
#35=AXIS1_PLACEMENT('',#654,#554);
#36=AXIS1_PLACEMENT('',#660,#560);
#37=AXIS1_PLACEMENT('',#670,#563);
#38=AXIS1_PLACEMENT('',#674,#567);
#39=AXIS1_PLACEMENT('',#682,#568);
#40=AXIS1_PLACEMENT('',#686,#572);
#41=AXIS1_PLACEMENT('',#690,#576);
#42=AXIS1_PLACEMENT('',#692,#578);
#43=AXIS1_PLACEMENT('',#694,#580);
#44=LINE('',#653,#51);
#45=LINE('',#659,#52);
#46=LINE('',#673,#53);
#47=LINE('',#685,#54);
#48=LINE('',#689,#55);
#49=LINE('',#691,#56);
#50=LINE('',#693,#57);
#51=VECTOR('',#553,8.21790227753017);
#52=VECTOR('',#559,10.5625845646391);
#53=VECTOR('',#566,11.0367456331047);
#54=VECTOR('',#571,4.02744719269144);
#55=VECTOR('',#575,1.15285135251214);
#56=VECTOR('',#577,5.54548263575167);
#57=VECTOR('',#579,5.54548263575166);
#58=PRESENTATION_LAYER_ASSIGNMENT('1','Layer 1',(#74,#75));
#59=STYLED_ITEM('',(#61),#74);
#60=STYLED_ITEM('',(#62),#75);
#61=PRESENTATION_STYLE_ASSIGNMENT((#63));
#62=PRESENTATION_STYLE_ASSIGNMENT((#64));
#63=SURFACE_STYLE_USAGE(.BOTH.,#65);
#64=SURFACE_STYLE_USAGE(.BOTH.,#66);
#65=SURFACE_SIDE_STYLE('',(#67));
#66=SURFACE_SIDE_STYLE('',(#68));
#67=SURFACE_STYLE_FILL_AREA(#69);
#68=SURFACE_STYLE_FILL_AREA(#70);
#69=FILL_AREA_STYLE('',(#71));
#70=FILL_AREA_STYLE('',(#72));
#71=FILL_AREA_STYLE_COLOUR('',#73);
#72=FILL_AREA_STYLE_COLOUR('',#23);
#73=COLOUR_RGB('smoke gray',0.694117647058824,0.694117647058824,0.694117647058824);
#74=MANIFOLD_SOLID_BREP('',#76);
#75=MANIFOLD_SOLID_BREP('',#77);
#76=CLOSED_SHELL('',(#97,#98,#99,#100,#101,#102,#103,#104,#105,#106,#107,
#108,#109,#110,#111,#112,#113,#114,#115,#116,#117));
#77=CLOSED_SHELL('',(#118,#119,#120,#121,#122,#123,#124,#125,#126,#127,
#128));
#78=FACE_OUTER_BOUND('',#217,.T.);
#79=FACE_OUTER_BOUND('',#232,.T.);
#80=FACE_OUTER_BOUND('',#233,.T.);
#81=FACE_OUTER_BOUND('',#234,.T.);
#82=PLANE('',#426);
#83=PLANE('',#429);
#84=PLANE('',#444);
#85=PLANE('',#446);
#86=PLANE('',#448);
#87=CONICAL_SURFACE('',#412,15.8103073792139,20.0000000000017);
#88=CONICAL_SURFACE('',#416,16.,14.999999999999);
#89=CONICAL_SURFACE('',#424,16.205669240384,82.);
#90=CONICAL_SURFACE('',#435,21.9202515050007,13.2405199151872);
#91=CONICAL_SURFACE('',#441,18.,3.00000000000011);
#92=CYLINDRICAL_SURFACE('',#408,15.7499999999999);
#93=CYLINDRICAL_SURFACE('',#414,16.);
#94=CYLINDRICAL_SURFACE('',#420,15.75);
#95=CYLINDRICAL_SURFACE('',#431,22.);
#96=CYLINDRICAL_SURFACE('',#439,18.);
#97=ADVANCED_FACE('',(#137,#138),#129,.T.);
#98=ADVANCED_FACE('',(#139,#140),#92,.T.);
#99=ADVANCED_FACE('',(#141,#142),#130,.F.);
#100=ADVANCED_FACE('',(#143,#144),#87,.T.);
#101=ADVANCED_FACE('',(#145,#146),#93,.T.);
#102=ADVANCED_FACE('',(#147,#148),#88,.T.);
#103=ADVANCED_FACE('',(#149,#150),#131,.F.);
#104=ADVANCED_FACE('',(#151,#152),#94,.T.);
#105=ADVANCED_FACE('',(#153,#154),#132,.F.);
#106=ADVANCED_FACE('',(#155,#156),#89,.F.);
#107=ADVANCED_FACE('',(#157,#158),#82,.F.);
#108=ADVANCED_FACE('',(#159,#160),#133,.T.);
#109=ADVANCED_FACE('',(#78),#83,.F.);
#110=ADVANCED_FACE('',(#161,#162),#95,.T.);
#111=ADVANCED_FACE('',(#163,#164),#134,.T.);
#112=ADVANCED_FACE('',(#165,#166),#90,.T.);
#113=ADVANCED_FACE('',(#167,#168),#135,.F.);
#114=ADVANCED_FACE('',(#169,#170),#96,.T.);
#115=ADVANCED_FACE('',(#171,#172),#91,.T.);
#116=ADVANCED_FACE('',(#173,#174),#136,.T.);
#117=ADVANCED_FACE('',(#79),#84,.F.);
#118=ADVANCED_FACE('',(#80),#85,.T.);
#119=ADVANCED_FACE('',(#81),#86,.F.);
#120=ADVANCED_FACE('',(#175,#176),#26,.T.);
#121=ADVANCED_FACE('',(#177,#178),#27,.T.);
#122=ADVANCED_FACE('',(#179,#180),#28,.T.);
#123=ADVANCED_FACE('',(#181,#182),#29,.T.);
#124=ADVANCED_FACE('',(#183,#184),#30,.T.);
#125=ADVANCED_FACE('',(#185,#186),#31,.T.);
#126=ADVANCED_FACE('',(#187,#188),#32,.T.);
#127=ADVANCED_FACE('',(#189,#190),#33,.T.);
#128=ADVANCED_FACE('',(#191,#192),#34,.T.);
#129=TOROIDAL_SURFACE('',#406,14.75,1.00000000000003);
#130=TOROIDAL_SURFACE('',#410,16.7499999999998,1.00000000000001);
#131=TOROIDAL_SURFACE('',#418,16.15,0.399999999999999);
#132=TOROIDAL_SURFACE('',#422,16.15,0.4);
#133=TOROIDAL_SURFACE('',#428,21.3,0.799999999999997);
#134=TOROIDAL_SURFACE('',#433,19.,3.);
#135=TOROIDAL_SURFACE('',#437,23.,5.);
#136=TOROIDAL_SURFACE('',#443,16.3307990412594,1.4);
#137=FACE_BOUND('',#193,.T.);
#138=FACE_BOUND('',#194,.T.);
#139=FACE_BOUND('',#195,.T.);
#140=FACE_BOUND('',#196,.T.);
#141=FACE_BOUND('',#197,.T.);
#142=FACE_BOUND('',#198,.T.);
#143=FACE_BOUND('',#199,.T.);
#144=FACE_BOUND('',#200,.T.);
#145=FACE_BOUND('',#201,.T.);
#146=FACE_BOUND('',#202,.T.);
#147=FACE_BOUND('',#203,.T.);
#148=FACE_BOUND('',#204,.T.);
#149=FACE_BOUND('',#205,.T.);
#150=FACE_BOUND('',#206,.T.);
#151=FACE_BOUND('',#207,.T.);
#152=FACE_BOUND('',#208,.T.);
#153=FACE_BOUND('',#209,.T.);
#154=FACE_BOUND('',#210,.T.);
#155=FACE_BOUND('',#211,.T.);
#156=FACE_BOUND('',#212,.T.);
#157=FACE_BOUND('',#213,.T.);
#158=FACE_BOUND('',#214,.T.);
#159=FACE_BOUND('',#215,.T.);
#160=FACE_BOUND('',#216,.T.);
#161=FACE_BOUND('',#218,.T.);
#162=FACE_BOUND('',#219,.T.);
#163=FACE_BOUND('',#220,.T.);
#164=FACE_BOUND('',#221,.T.);
#165=FACE_BOUND('',#222,.T.);
#166=FACE_BOUND('',#223,.T.);
#167=FACE_BOUND('',#224,.T.);
#168=FACE_BOUND('',#225,.T.);
#169=FACE_BOUND('',#226,.T.);
#170=FACE_BOUND('',#227,.T.);
#171=FACE_BOUND('',#228,.T.);
#172=FACE_BOUND('',#229,.T.);
#173=FACE_BOUND('',#230,.T.);
#174=FACE_BOUND('',#231,.T.);
#175=FACE_BOUND('',#235,.T.);
#176=FACE_BOUND('',#236,.T.);
#177=FACE_BOUND('',#237,.T.);
#178=FACE_BOUND('',#238,.T.);
#179=FACE_BOUND('',#239,.T.);
#180=FACE_BOUND('',#240,.T.);
#181=FACE_BOUND('',#241,.T.);
#182=FACE_BOUND('',#242,.T.);
#183=FACE_BOUND('',#243,.T.);
#184=FACE_BOUND('',#244,.T.);
#185=FACE_BOUND('',#245,.T.);
#186=FACE_BOUND('',#246,.T.);
#187=FACE_BOUND('',#247,.T.);
#188=FACE_BOUND('',#248,.T.);
#189=FACE_BOUND('',#249,.T.);
#190=FACE_BOUND('',#250,.T.);
#191=FACE_BOUND('',#251,.T.);
#192=FACE_BOUND('',#252,.T.);
#193=EDGE_LOOP('',(#253));
#194=EDGE_LOOP('',(#254));
#195=EDGE_LOOP('',(#255));
#196=EDGE_LOOP('',(#256));
#197=EDGE_LOOP('',(#257));
#198=EDGE_LOOP('',(#258));
#199=EDGE_LOOP('',(#259));
#200=EDGE_LOOP('',(#260));
#201=EDGE_LOOP('',(#261));
#202=EDGE_LOOP('',(#262));
#203=EDGE_LOOP('',(#263));
#204=EDGE_LOOP('',(#264));
#205=EDGE_LOOP('',(#265));
#206=EDGE_LOOP('',(#266));
#207=EDGE_LOOP('',(#267));
#208=EDGE_LOOP('',(#268));
#209=EDGE_LOOP('',(#269));
#210=EDGE_LOOP('',(#270));
#211=EDGE_LOOP('',(#271));
#212=EDGE_LOOP('',(#272));
#213=EDGE_LOOP('',(#273));
#214=EDGE_LOOP('',(#274));
#215=EDGE_LOOP('',(#275));
#216=EDGE_LOOP('',(#276));
#217=EDGE_LOOP('',(#277));
#218=EDGE_LOOP('',(#278));
#219=EDGE_LOOP('',(#279));
#220=EDGE_LOOP('',(#280));
#221=EDGE_LOOP('',(#281));
#222=EDGE_LOOP('',(#282));
#223=EDGE_LOOP('',(#283));
#224=EDGE_LOOP('',(#284));
#225=EDGE_LOOP('',(#285));
#226=EDGE_LOOP('',(#286));
#227=EDGE_LOOP('',(#287));
#228=EDGE_LOOP('',(#288));
#229=EDGE_LOOP('',(#289));
#230=EDGE_LOOP('',(#290));
#231=EDGE_LOOP('',(#291));
#232=EDGE_LOOP('',(#292));
#233=EDGE_LOOP('',(#293));
#234=EDGE_LOOP('',(#294));
#235=EDGE_LOOP('',(#295));
#236=EDGE_LOOP('',(#296));
#237=EDGE_LOOP('',(#297));
#238=EDGE_LOOP('',(#298));
#239=EDGE_LOOP('',(#299));
#240=EDGE_LOOP('',(#300));
#241=EDGE_LOOP('',(#301));
#242=EDGE_LOOP('',(#302));
#243=EDGE_LOOP('',(#303));
#244=EDGE_LOOP('',(#304));
#245=EDGE_LOOP('',(#305));
#246=EDGE_LOOP('',(#306));
#247=EDGE_LOOP('',(#307));
#248=EDGE_LOOP('',(#308));
#249=EDGE_LOOP('',(#309));
#250=EDGE_LOOP('',(#310));
#251=EDGE_LOOP('',(#311));
#252=EDGE_LOOP('',(#312));
#253=ORIENTED_EDGE('',*,*,#343,.T.);
#254=ORIENTED_EDGE('',*,*,#344,.T.);
#255=ORIENTED_EDGE('',*,*,#345,.T.);
#256=ORIENTED_EDGE('',*,*,#343,.F.);
#257=ORIENTED_EDGE('',*,*,#346,.T.);
#258=ORIENTED_EDGE('',*,*,#345,.F.);
#259=ORIENTED_EDGE('',*,*,#347,.T.);
#260=ORIENTED_EDGE('',*,*,#346,.F.);
#261=ORIENTED_EDGE('',*,*,#348,.T.);
#262=ORIENTED_EDGE('',*,*,#347,.F.);
#263=ORIENTED_EDGE('',*,*,#349,.T.);
#264=ORIENTED_EDGE('',*,*,#348,.F.);
#265=ORIENTED_EDGE('',*,*,#350,.T.);
#266=ORIENTED_EDGE('',*,*,#349,.F.);
#267=ORIENTED_EDGE('',*,*,#351,.T.);
#268=ORIENTED_EDGE('',*,*,#350,.F.);
#269=ORIENTED_EDGE('',*,*,#352,.T.);
#270=ORIENTED_EDGE('',*,*,#351,.F.);
#271=ORIENTED_EDGE('',*,*,#353,.T.);
#272=ORIENTED_EDGE('',*,*,#352,.F.);
#273=ORIENTED_EDGE('',*,*,#354,.T.);
#274=ORIENTED_EDGE('',*,*,#353,.F.);
#275=ORIENTED_EDGE('',*,*,#355,.T.);
#276=ORIENTED_EDGE('',*,*,#354,.F.);
#277=ORIENTED_EDGE('',*,*,#344,.F.);
#278=ORIENTED_EDGE('',*,*,#356,.T.);
#279=ORIENTED_EDGE('',*,*,#355,.F.);
#280=ORIENTED_EDGE('',*,*,#357,.T.);
#281=ORIENTED_EDGE('',*,*,#356,.F.);
#282=ORIENTED_EDGE('',*,*,#358,.T.);
#283=ORIENTED_EDGE('',*,*,#357,.F.);
#284=ORIENTED_EDGE('',*,*,#359,.T.);
#285=ORIENTED_EDGE('',*,*,#358,.F.);
#286=ORIENTED_EDGE('',*,*,#360,.T.);
#287=ORIENTED_EDGE('',*,*,#359,.F.);
#288=ORIENTED_EDGE('',*,*,#361,.T.);
#289=ORIENTED_EDGE('',*,*,#360,.F.);
#290=ORIENTED_EDGE('',*,*,#362,.T.);
#291=ORIENTED_EDGE('',*,*,#361,.F.);
#292=ORIENTED_EDGE('',*,*,#362,.F.);
#293=ORIENTED_EDGE('',*,*,#363,.T.);
#294=ORIENTED_EDGE('',*,*,#364,.F.);
#295=ORIENTED_EDGE('',*,*,#365,.F.);
#296=ORIENTED_EDGE('',*,*,#366,.F.);
#297=ORIENTED_EDGE('',*,*,#367,.T.);
#298=ORIENTED_EDGE('',*,*,#368,.F.);
#299=ORIENTED_EDGE('',*,*,#369,.F.);
#300=ORIENTED_EDGE('',*,*,#365,.T.);
#301=ORIENTED_EDGE('',*,*,#370,.F.);
#302=ORIENTED_EDGE('',*,*,#369,.T.);
#303=ORIENTED_EDGE('',*,*,#367,.F.);
#304=ORIENTED_EDGE('',*,*,#370,.T.);
#305=ORIENTED_EDGE('',*,*,#371,.T.);
#306=ORIENTED_EDGE('',*,*,#366,.T.);
#307=ORIENTED_EDGE('',*,*,#372,.F.);
#308=ORIENTED_EDGE('',*,*,#368,.T.);
#309=ORIENTED_EDGE('',*,*,#371,.F.);
#310=ORIENTED_EDGE('',*,*,#364,.T.);
#311=ORIENTED_EDGE('',*,*,#363,.F.);
#312=ORIENTED_EDGE('',*,*,#372,.T.);
#313=VERTEX_POINT('',#583);
#314=VERTEX_POINT('',#585);
#315=VERTEX_POINT('',#588);
#316=VERTEX_POINT('',#591);
#317=VERTEX_POINT('',#594);
#318=VERTEX_POINT('',#597);
#319=VERTEX_POINT('',#600);
#320=VERTEX_POINT('',#603);
#321=VERTEX_POINT('',#606);
#322=VERTEX_POINT('',#609);
#323=VERTEX_POINT('',#612);
#324=VERTEX_POINT('',#615);
#325=VERTEX_POINT('',#618);
#326=VERTEX_POINT('',#622);
#327=VERTEX_POINT('',#625);
#328=VERTEX_POINT('',#628);
#329=VERTEX_POINT('',#631);
#330=VERTEX_POINT('',#634);
#331=VERTEX_POINT('',#637);
#332=VERTEX_POINT('',#640);
#333=VERTEX_POINT('',#644);
#334=VERTEX_POINT('',#647);
#335=VERTEX_POINT('',#650);
#336=VERTEX_POINT('',#652);
#337=VERTEX_POINT('',#656);
#338=VERTEX_POINT('',#658);
#339=VERTEX_POINT('',#662);
#340=VERTEX_POINT('',#672);
#341=VERTEX_POINT('',#684);
#342=VERTEX_POINT('',#688);
#343=EDGE_CURVE('',#313,#313,#373,.T.);
#344=EDGE_CURVE('',#314,#314,#374,.T.);
#345=EDGE_CURVE('',#315,#315,#375,.T.);
#346=EDGE_CURVE('',#316,#316,#376,.T.);
#347=EDGE_CURVE('',#317,#317,#377,.T.);
#348=EDGE_CURVE('',#318,#318,#378,.T.);
#349=EDGE_CURVE('',#319,#319,#379,.T.);
#350=EDGE_CURVE('',#320,#320,#380,.T.);
#351=EDGE_CURVE('',#321,#321,#381,.T.);
#352=EDGE_CURVE('',#322,#322,#382,.T.);
#353=EDGE_CURVE('',#323,#323,#383,.T.);
#354=EDGE_CURVE('',#324,#324,#384,.T.);
#355=EDGE_CURVE('',#325,#325,#385,.T.);
#356=EDGE_CURVE('',#326,#326,#386,.T.);
#357=EDGE_CURVE('',#327,#327,#387,.T.);
#358=EDGE_CURVE('',#328,#328,#388,.T.);
#359=EDGE_CURVE('',#329,#329,#389,.T.);
#360=EDGE_CURVE('',#330,#330,#390,.T.);
#361=EDGE_CURVE('',#331,#331,#391,.T.);
#362=EDGE_CURVE('',#332,#332,#392,.T.);
#363=EDGE_CURVE('',#333,#333,#393,.T.);
#364=EDGE_CURVE('',#334,#334,#394,.T.);
#365=EDGE_CURVE('',#335,#335,#395,.T.);
#366=EDGE_CURVE('',#336,#336,#396,.T.);
#367=EDGE_CURVE('',#337,#337,#397,.T.);
#368=EDGE_CURVE('',#338,#338,#398,.T.);
#369=EDGE_CURVE('',#339,#339,#399,.T.);
#370=EDGE_CURVE('',#340,#340,#400,.T.);
#371=EDGE_CURVE('',#341,#341,#401,.T.);
#372=EDGE_CURVE('',#342,#342,#402,.T.);
#373=CIRCLE('',#404,15.75);
#374=CIRCLE('',#405,14.75);
#375=CIRCLE('',#407,15.7499999999998);
#376=CIRCLE('',#409,15.8103073792139);
#377=CIRCLE('',#411,16.);
#378=CIRCLE('',#413,16.);
#379=CIRCLE('',#415,15.7636296694844);
#380=CIRCLE('',#417,15.75);
#381=CIRCLE('',#419,15.75);
#382=CIRCLE('',#421,16.205669240384);
#383=CIRCLE('',#423,17.);
#384=CIRCLE('',#425,21.3);
#385=CIRCLE('',#427,22.);
#386=CIRCLE('',#430,22.);
#387=CIRCLE('',#432,21.9202515050007);
#388=CIRCLE('',#434,18.1329141583321);
#389=CIRCLE('',#436,18.);
#390=CIRCLE('',#438,18.);
#391=CIRCLE('',#440,17.7288803899158);
#392=CIRCLE('',#442,16.3307990412594);
#393=CIRCLE('',#445,0.255667771483329);
#394=CIRCLE('',#447,0.177417110707117);
#395=CIRCLE('',#449,17.5564097687195);
#396=CIRCLE('',#450,9.36790930932391);
#397=CIRCLE('',#451,17.083806897579);
#398=CIRCLE('',#452,6.54111380629415);
#399=CIRCLE('',#453,18.5000026881456);
#400=CIRCLE('',#454,18.0996288868023);
#401=CIRCLE('',#455,5.40370694249637);
#402=CIRCLE('',#456,5.40734963267476);
#403=AXIS2_PLACEMENT_3D('',#581,#457,#458);
#404=AXIS2_PLACEMENT_3D('',#582,#459,#460);
#405=AXIS2_PLACEMENT_3D('',#584,#461,#462);
#406=AXIS2_PLACEMENT_3D('',#586,#463,#464);
#407=AXIS2_PLACEMENT_3D('',#587,#465,#466);
#408=AXIS2_PLACEMENT_3D('',#589,#467,#468);
#409=AXIS2_PLACEMENT_3D('',#590,#469,#470);
#410=AXIS2_PLACEMENT_3D('',#592,#471,#472);
#411=AXIS2_PLACEMENT_3D('',#593,#473,#474);
#412=AXIS2_PLACEMENT_3D('',#595,#475,#476);
#413=AXIS2_PLACEMENT_3D('',#596,#477,#478);
#414=AXIS2_PLACEMENT_3D('',#598,#479,#480);
#415=AXIS2_PLACEMENT_3D('',#599,#481,#482);
#416=AXIS2_PLACEMENT_3D('',#601,#483,#484);
#417=AXIS2_PLACEMENT_3D('',#602,#485,#486);
#418=AXIS2_PLACEMENT_3D('',#604,#487,#488);
#419=AXIS2_PLACEMENT_3D('',#605,#489,#490);
#420=AXIS2_PLACEMENT_3D('',#607,#491,#492);
#421=AXIS2_PLACEMENT_3D('',#608,#493,#494);
#422=AXIS2_PLACEMENT_3D('',#610,#495,#496);
#423=AXIS2_PLACEMENT_3D('',#611,#497,#498);
#424=AXIS2_PLACEMENT_3D('',#613,#499,#500);
#425=AXIS2_PLACEMENT_3D('',#614,#501,#502);
#426=AXIS2_PLACEMENT_3D('',#616,#503,#504);
#427=AXIS2_PLACEMENT_3D('',#617,#505,#506);
#428=AXIS2_PLACEMENT_3D('',#619,#507,#508);
#429=AXIS2_PLACEMENT_3D('',#620,#509,#510);
#430=AXIS2_PLACEMENT_3D('',#621,#511,#512);
#431=AXIS2_PLACEMENT_3D('',#623,#513,#514);
#432=AXIS2_PLACEMENT_3D('',#624,#515,#516);
#433=AXIS2_PLACEMENT_3D('',#626,#517,#518);
#434=AXIS2_PLACEMENT_3D('',#627,#519,#520);
#435=AXIS2_PLACEMENT_3D('',#629,#521,#522);
#436=AXIS2_PLACEMENT_3D('',#630,#523,#524);
#437=AXIS2_PLACEMENT_3D('',#632,#525,#526);
#438=AXIS2_PLACEMENT_3D('',#633,#527,#528);
#439=AXIS2_PLACEMENT_3D('',#635,#529,#530);
#440=AXIS2_PLACEMENT_3D('',#636,#531,#532);
#441=AXIS2_PLACEMENT_3D('',#638,#533,#534);
#442=AXIS2_PLACEMENT_3D('',#639,#535,#536);
#443=AXIS2_PLACEMENT_3D('',#641,#537,#538);
#444=AXIS2_PLACEMENT_3D('',#642,#539,#540);
#445=AXIS2_PLACEMENT_3D('',#643,#541,#542);
#446=AXIS2_PLACEMENT_3D('',#645,#543,#544);
#447=AXIS2_PLACEMENT_3D('',#646,#545,#546);
#448=AXIS2_PLACEMENT_3D('',#648,#547,#548);
#449=AXIS2_PLACEMENT_3D('',#649,#549,#550);
#450=AXIS2_PLACEMENT_3D('',#651,#551,#552);
#451=AXIS2_PLACEMENT_3D('',#655,#555,#556);
#452=AXIS2_PLACEMENT_3D('',#657,#557,#558);
#453=AXIS2_PLACEMENT_3D('',#661,#561,#562);
#454=AXIS2_PLACEMENT_3D('',#671,#564,#565);
#455=AXIS2_PLACEMENT_3D('',#683,#569,#570);
#456=AXIS2_PLACEMENT_3D('',#687,#573,#574);
#457=DIRECTION('',(0.,0.,1.));
#458=DIRECTION('',(1.,0.,0.));
#459=DIRECTION('',(1.,0.,0.));
#460=DIRECTION('',(0.,0.,1.));
#461=DIRECTION('',(-1.,0.,0.));
#462=DIRECTION('',(0.,0.,1.));
#463=DIRECTION('',(-1.,0.,0.));
#464=DIRECTION('',(0.,0.,1.));
#465=DIRECTION('',(1.,0.,0.));
#466=DIRECTION('',(0.,0.,1.));
#467=DIRECTION('',(-1.,0.,0.));
#468=DIRECTION('',(0.,0.,1.));
#469=DIRECTION('',(1.,0.,0.));
#470=DIRECTION('',(0.,0.,1.));
#471=DIRECTION('',(-1.,0.,0.));
#472=DIRECTION('',(0.,0.,1.));
#473=DIRECTION('',(1.,0.,0.));
#474=DIRECTION('',(0.,0.,1.));
#475=DIRECTION('',(-1.,0.,0.));
#476=DIRECTION('',(-7.30831956144307E-17,0.,1.));
#477=DIRECTION('',(1.,0.,0.));
#478=DIRECTION('',(0.,0.,1.));
#479=DIRECTION('',(-1.,0.,0.));
#480=DIRECTION('',(0.,0.,1.));
#481=DIRECTION('',(1.,0.,0.));
#482=DIRECTION('',(0.,0.,1.));
#483=DIRECTION('',(1.,0.,0.));
#484=DIRECTION('',(-9.77483872308018E-17,0.,-1.));
#485=DIRECTION('',(1.,0.,0.));
#486=DIRECTION('',(0.,0.,1.));
#487=DIRECTION('',(-1.,0.,0.));
#488=DIRECTION('',(0.,0.,1.));
#489=DIRECTION('',(1.,0.,0.));
#490=DIRECTION('',(0.,0.,1.));
#491=DIRECTION('',(-1.,0.,0.));
#492=DIRECTION('',(0.,0.,1.));
#493=DIRECTION('',(1.,0.,0.));
#494=DIRECTION('',(0.,0.,1.));
#495=DIRECTION('',(-1.,0.,0.));
#496=DIRECTION('',(0.,0.,1.));
#497=DIRECTION('',(1.,0.,0.));
#498=DIRECTION('',(0.,0.,1.));
#499=DIRECTION('',(1.,0.,0.));
#500=DIRECTION('',(-7.78385534512479E-18,0.,-1.));
#501=DIRECTION('',(1.,0.,0.));
#502=DIRECTION('',(0.,0.,1.));
#503=DIRECTION('',(-1.,0.,0.));
#504=DIRECTION('',(0.,0.,1.));
#505=DIRECTION('',(1.,0.,0.));
#506=DIRECTION('',(0.,0.,1.));
#507=DIRECTION('',(-1.,0.,0.));
#508=DIRECTION('',(0.,0.,1.));
#509=DIRECTION('',(-1.,0.,0.));
#510=DIRECTION('',(0.,0.,1.));
#511=DIRECTION('',(1.,0.,0.));
#512=DIRECTION('',(0.,0.,1.));
#513=DIRECTION('',(-1.,0.,0.));
#514=DIRECTION('',(0.,0.,1.));
#515=DIRECTION('',(1.,0.,0.));
#516=DIRECTION('',(0.,0.,1.));
#517=DIRECTION('',(-1.,0.,0.));
#518=DIRECTION('',(0.,0.,1.));
#519=DIRECTION('',(1.,0.,0.));
#520=DIRECTION('',(0.,0.,1.));
#521=DIRECTION('',(1.,0.,0.));
#522=DIRECTION('',(1.61862510094957E-16,0.,-1.));
#523=DIRECTION('',(1.,0.,0.));
#524=DIRECTION('',(0.,0.,1.));
#525=DIRECTION('',(-1.,0.,0.));
#526=DIRECTION('',(0.,0.,1.));
#527=DIRECTION('',(1.,0.,0.));
#528=DIRECTION('',(0.,0.,1.));
#529=DIRECTION('',(-1.,0.,0.));
#530=DIRECTION('',(0.,0.,1.));
#531=DIRECTION('',(1.,0.,0.));
#532=DIRECTION('',(0.,0.,1.));
#533=DIRECTION('',(1.,0.,0.));
#534=DIRECTION('',(1.97105887291587E-16,0.,-1.));
#535=DIRECTION('',(1.,0.,0.));
#536=DIRECTION('',(0.,0.,1.));
#537=DIRECTION('',(-1.,0.,0.));
#538=DIRECTION('',(0.,0.,1.));
#539=DIRECTION('',(1.,0.,0.));
#540=DIRECTION('',(0.,0.,-1.));
#541=DIRECTION('',(1.,0.,0.));
#542=DIRECTION('',(0.,0.,-1.));
#543=DIRECTION('',(1.,0.,0.));
#544=DIRECTION('',(0.,0.,-1.));
#545=DIRECTION('',(1.,0.,0.));
#546=DIRECTION('',(0.,0.,-1.));
#547=DIRECTION('',(1.,0.,0.));
#548=DIRECTION('',(0.,0.,-1.));
#549=DIRECTION('',(1.,0.,0.));
#550=DIRECTION('',(0.,0.,-1.));
#551=DIRECTION('',(-1.,0.,0.));
#552=DIRECTION('',(0.,0.,-1.));
#553=DIRECTION('',(0.0348782368720624,-0.999390827019096,-0.0012179748700878));
#554=DIRECTION('',(1.,0.,0.));
#555=DIRECTION('',(1.,0.,0.));
#556=DIRECTION('',(0.,0.,-1.));
#557=DIRECTION('',(1.,0.,0.));
#558=DIRECTION('',(0.,0.,-1.));
#559=DIRECTION('',(-0.034878236872063,0.999390827019096,0.00121797487008782));
#560=DIRECTION('',(1.,0.,0.));
#561=DIRECTION('',(1.,0.,0.));
#562=DIRECTION('',(0.,0.,-1.));
#563=DIRECTION('',(1.,0.,0.));
#564=DIRECTION('',(1.,0.,0.));
#565=DIRECTION('',(0.,0.,-1.));
#566=DIRECTION('',(0.998782025129912,0.0348994967025013,-0.0348782368720625));
#567=DIRECTION('',(1.,0.,0.));
#568=DIRECTION('',(1.,0.,0.));
#569=DIRECTION('',(1.,0.,0.));
#570=DIRECTION('',(0.,0.,-1.));
#571=DIRECTION('',(0.173542395888915,0.980046340046539,0.0969134056285204));
#572=DIRECTION('',(1.,0.,0.));
#573=DIRECTION('',(1.,0.,0.));
#574=DIRECTION('',(0.,0.,-1.));
#575=DIRECTION('',(0.17354239588891,-0.978779406151604,-0.108967476444353));
#576=DIRECTION('',(1.,0.,0.));
#577=DIRECTION('',(-0.173542395888909,0.978779406151604,0.108967476444353));
#578=DIRECTION('',(1.,0.,0.));
#579=DIRECTION('',(-0.173542395888916,-0.980046340046539,-0.0969134056285203));
#580=DIRECTION('',(1.,0.,0.));
#581=CARTESIAN_POINT('',(0.,0.,0.));
#582=CARTESIAN_POINT('',(160.,0.,0.));
#583=CARTESIAN_POINT('',(160.,0.,15.75));
#584=CARTESIAN_POINT('',(161.,0.,0.));
#585=CARTESIAN_POINT('',(161.,0.,14.75));
#586=CARTESIAN_POINT('',(160.,0.,0.));
#587=CARTESIAN_POINT('',(158.176326980709,0.,0.));
#588=CARTESIAN_POINT('',(158.176326980709,0.,15.7499999999998));
#589=CARTESIAN_POINT('',(0.,0.,0.));
#590=CARTESIAN_POINT('',(157.834306837383,0.,0.));
#591=CARTESIAN_POINT('',(157.834306837383,0.,15.8103073792139));
#592=CARTESIAN_POINT('',(158.176326980709,0.,0.));
#593=CARTESIAN_POINT('',(157.313130645136,0.,0.));
#594=CARTESIAN_POINT('',(157.313130645136,0.,16.));
#595=CARTESIAN_POINT('',(157.834306837383,0.,0.));
#596=CARTESIAN_POINT('',(103.,0.,0.));
#597=CARTESIAN_POINT('',(103.,0.,16.));
#598=CARTESIAN_POINT('',(0.,0.,0.));
#599=CARTESIAN_POINT('',(102.117853917114,0.,0.));
#600=CARTESIAN_POINT('',(102.117853917114,0.,15.7636296694844));
#601=CARTESIAN_POINT('',(103.,0.,0.));
#602=CARTESIAN_POINT('',(102.014326299073,0.,0.));
#603=CARTESIAN_POINT('',(102.014326299073,0.,15.75));
#604=CARTESIAN_POINT('',(102.014326299073,0.,0.));
#605=CARTESIAN_POINT('',(101.28447131951,0.,0.));
#606=CARTESIAN_POINT('',(101.28447131951,0.,15.75));
#607=CARTESIAN_POINT('',(0.,0.,0.));
#608=CARTESIAN_POINT('',(100.888364092014,0.,0.));
#609=CARTESIAN_POINT('',(100.888364092014,0.,16.205669240384));
#610=CARTESIAN_POINT('',(101.28447131951,0.,0.));
#611=CARTESIAN_POINT('',(101.,0.,0.));
#612=CARTESIAN_POINT('',(101.,0.,17.));
#613=CARTESIAN_POINT('',(100.888364092014,0.,0.));
#614=CARTESIAN_POINT('',(101.,0.,0.));
#615=CARTESIAN_POINT('',(101.,0.,21.3));
#616=CARTESIAN_POINT('',(101.,17.,0.));
#617=CARTESIAN_POINT('',(100.587298334621,0.,0.));
#618=CARTESIAN_POINT('',(100.587298334621,0.,22.));
#619=CARTESIAN_POINT('',(100.2,0.,0.));
#620=CARTESIAN_POINT('',(161.,22.5,0.));
#621=CARTESIAN_POINT('',(96.3481868974297,0.,0.));
#622=CARTESIAN_POINT('',(96.3481868974297,0.,22.));
#623=CARTESIAN_POINT('',(0.,0.,0.));
#624=CARTESIAN_POINT('',(95.6610688962531,0.,0.));
#625=CARTESIAN_POINT('',(95.6610688962531,0.,21.9202515050007));
#626=CARTESIAN_POINT('',(96.3481868974297,0.,0.));
#627=CARTESIAN_POINT('',(79.5648851729115,0.,0.));
#628=CARTESIAN_POINT('',(79.5648851729115,0.,18.1329141583321));
#629=CARTESIAN_POINT('',(95.6610688962531,0.,0.));
#630=CARTESIAN_POINT('',(78.4196885042838,0.,0.));
#631=CARTESIAN_POINT('',(78.4196885042838,0.,18.));
#632=CARTESIAN_POINT('',(78.4196885042838,0.,0.));
#633=CARTESIAN_POINT('',(7.99999999999999,0.,0.));
#634=CARTESIAN_POINT('',(7.99999999999999,0.,18.));
#635=CARTESIAN_POINT('',(0.,0.,0.));
#636=CARTESIAN_POINT('',(2.82672966125988,0.,0.));
#637=CARTESIAN_POINT('',(2.82672966125988,0.,17.7288803899158));
#638=CARTESIAN_POINT('',(7.99999999999999,0.,0.));
#639=CARTESIAN_POINT('',(1.5,0.,0.));
#640=CARTESIAN_POINT('',(1.5,0.,16.3307990412594));
#641=CARTESIAN_POINT('',(2.9,0.,0.));
#642=CARTESIAN_POINT('',(1.5,16.3307990412594,0.));
#643=CARTESIAN_POINT('',(12.839017171843,0.,0.));
#644=CARTESIAN_POINT('',(12.839017171843,0.,-0.255667771483329));
#645=CARTESIAN_POINT('',(12.839017171843,0.,0.));
#646=CARTESIAN_POINT('',(0.962380494336589,0.,0.));
#647=CARTESIAN_POINT('',(0.962380494336589,0.,-0.177417110707117));
#648=CARTESIAN_POINT('',(0.962380494336589,0.,0.));
#649=CARTESIAN_POINT('',(0.985562928730826,0.,0.));
#650=CARTESIAN_POINT('',(0.985562928730826,0.,-17.5564097687195));
#651=CARTESIAN_POINT('',(0.69893698650366,0.,0.));
#652=CARTESIAN_POINT('',(0.69893698650366,0.,-9.36790930932391));
#653=CARTESIAN_POINT('',(0.698936986503667,-9.3169069027841,0.97620212690387));
#654=CARTESIAN_POINT('',(7.99999999999999,0.,0.));
#655=CARTESIAN_POINT('',(13.9697292554197,0.,0.));
#656=CARTESIAN_POINT('',(13.9697292554197,0.,-17.083806897579));
#657=CARTESIAN_POINT('',(13.601324928993,0.,0.));
#658=CARTESIAN_POINT('',(13.601324928993,0.,-6.54111380629415));
#659=CARTESIAN_POINT('',(13.9697292554197,-17.0761095991546,0.512775849108188));
#660=CARTESIAN_POINT('',(7.99999999999999,0.,0.));
#661=CARTESIAN_POINT('',(2.0002319403616,0.,0.));
#662=CARTESIAN_POINT('',(2.0002319403616,0.,-18.5000026881456));
#663=CARTESIAN_POINT('',(0.985562928730829,-17.5298030562871,0.966192928445001));
#664=CARTESIAN_POINT('',(0.990044659516865,-17.6582212631237,0.966036422957298));
#665=CARTESIAN_POINT('',(1.04960565982234,-17.9171992872094,0.963956506994932));
#666=CARTESIAN_POINT('',(1.27752957650962,-18.2342830389526,0.95599722843864));
#667=CARTESIAN_POINT('',(1.60954740855125,-18.4396716913293,0.944402910258764));
#668=CARTESIAN_POINT('',(1.87189196242682,-18.4810584269249,0.93524163656546));
#669=CARTESIAN_POINT('',(2.0002319403616,-18.4765739643255,0.930759905779423));
#670=CARTESIAN_POINT('',(7.99999999999999,0.,0.));
#671=CARTESIAN_POINT('',(13.0235350946376,0.,0.));
#672=CARTESIAN_POINT('',(13.0235350946376,0.,-18.0996288868023));
#673=CARTESIAN_POINT('',(2.0002319403616,-18.4765739643254,0.930759905779423));
#674=CARTESIAN_POINT('',(7.99999999999999,0.,0.));
#675=CARTESIAN_POINT('',(13.0235350946376,-18.0913970964966,0.545817677291297));
#676=CARTESIAN_POINT('',(13.1518750725724,-18.0869126338971,0.54133594650526));
#677=CARTESIAN_POINT('',(13.4106953342431,-18.0273153285234,0.532297743807662));
#678=CARTESIAN_POINT('',(13.7275859271321,-17.7992524821122,0.521231680459282));
#679=CARTESIAN_POINT('',(13.9328494622912,-17.4670322704939,0.514063719862933));
#680=CARTESIAN_POINT('',(13.9742109862057,-17.2045278059912,0.512619343620484));
#681=CARTESIAN_POINT('',(13.9697292554197,-17.0761095991546,0.512775849108188));
#682=CARTESIAN_POINT('',(7.99999999999999,0.,0.));
#683=CARTESIAN_POINT('',(4.15136789874704E-6,0.,0.));
#684=CARTESIAN_POINT('',(4.15136789874704E-6,0.,-5.40370694249637));
#685=CARTESIAN_POINT('',(4.15136790216575E-6,5.34949981454282,0.763479177574449));
#686=CARTESIAN_POINT('',(7.99999999999999,0.,0.));
#687=CARTESIAN_POINT('',(13.8013935148117,0.,0.));
#688=CARTESIAN_POINT('',(13.8013935148117,0.,-5.40734963267476));
#689=CARTESIAN_POINT('',(13.601324928993,6.52826500653121,0.409787544212705));
#690=CARTESIAN_POINT('',(7.99999999999999,0.,0.));
#691=CARTESIAN_POINT('',(0.962380494336589,-0.0783043865022258,0.159201929090609));
#692=CARTESIAN_POINT('',(7.99999999999999,0.,0.));
#693=CARTESIAN_POINT('',(13.8013935148117,5.39987784433831,0.284164241613998));
#694=CARTESIAN_POINT('',(7.99999999999999,0.,0.));
#695=(
GEOMETRIC_REPRESENTATION_CONTEXT(3)
GLOBAL_UNCERTAINTY_ASSIGNED_CONTEXT((#696))
GLOBAL_UNIT_ASSIGNED_CONTEXT((#702,#698,#697))
REPRESENTATION_CONTEXT('ATUM-37XD2-KDR-1304-light',
'TOP_LEVEL_ASSEMBLY_PART')
);
#696=UNCERTAINTY_MEASURE_WITH_UNIT(LENGTH_MEASURE(2.E-5),#702,
'DISTANCE_ACCURACY_VALUE','Maximum Tolerance applied to model');
#697=(
NAMED_UNIT(*)
SI_UNIT($,.STERADIAN.)
SOLID_ANGLE_UNIT()
);
#698=(
CONVERSION_BASED_UNIT('DEGREE',#700)
NAMED_UNIT(#699)
PLANE_ANGLE_UNIT()
);
#699=DIMENSIONAL_EXPONENTS(0.,0.,0.,0.,0.,0.,0.);
#700=PLANE_ANGLE_MEASURE_WITH_UNIT(PLANE_ANGLE_MEASURE(0.0174532925),#701);
#701=(
NAMED_UNIT(*)
PLANE_ANGLE_UNIT()
SI_UNIT($,.RADIAN.)
);
#702=(
LENGTH_UNIT()
NAMED_UNIT(*)
SI_UNIT(.MILLI.,.METRE.)
);
ENDSEC;
END-ISO-10303-21;
